Oops, an error
Loading. Please wait.

Shadowchild Tab

ver1
ver1

Whole song

Interactive

More versions @911Tabs.com
1,897 views 1 this week
1 commentread comment
1 2 3 4 5
accurate
x 2
Autoscroll
+/-
esc
set tempo
stop
Contributor
Difficulty
Tuning
intermediate
B E A D F# B
Hey! There's an official Ultimate Guitar app which is ideal
for learning songs when you're away from computer. Get the app
WARNING: You are trying to view
                                    content from Ultimate-Guitar.com
                                    in an unauthorized application,
                                    which is prohibited.

                                    Please use an official Ultimate
                                    Guitar Tabs application for iPhone,
                                    iPad or Android to access legitimate
                                    chords, guitar, bass, and drum tabs
                                    from Ultimate-Guitar.com database.

                                    Type "ultimate guitar tabs" in Apple
                                    App Store's or Android Market's
                                    search to find the application.
                                  Shadowchild - Soilwork                                 


 

Tuning: B Tuning 

B E A D F# B

Tempo=136 bpm
                                                                       
Rhythm Guitar



                  PM PM PM PM PM                          
       E.  E.  E  S  E  S  E  E     E.  E.   Q    Q.      
B ||-----------------------------|-----------------------|
F#||-----------------------------|-----------------------|
D ||*----------------------------|-----------------------|
A ||*--7---9---------------------|--7---9---12----L------|
E ||---5---7---2--2--2--2--2--2--|--5---7---10----L------|
B ||-----------0--0--0--0--0--0--|-----------------------|


             PM PM PM PM PM                                                     
  E.  E.  E  S  E  S  E  E     E.  E.  Q    Q.          S S E  S S E  H         
----------------------------|-----------------------||-------------------------|
----------------------------|-----------------------||-------------------------|
----------------------------|----------------------*||-------------------------|
--7---9---------------------|--7---9---7----L------*||-------------------------|
--5---7---2--2--2--2--2--2--|--5---7---4----L-------||--2-2----2-2-------------|
----------0--0--0--0--0--0--|-----------------------||--0-0----0-0-------------|


  S S E  S S E  H           S S E  S S E  H           S S E  E  Q    Q.      
-------------------------|-------------------------|------------------------|
-------------------------|-------------------------|------------------------|
-------------------------|-------------------------|------------9----8------|
-------------------------|-------------------------|------------------------|
--2-2----2-2-------------|--2-2----2-2-------------|--2-2----2--7----6------|
--0-0----0-0-------------|--0-0----0-0-------------|--0-0----0--------------|


  PM PM PM PM PM PM PM PM PM PM    PM PM PM PM PM PM PM PM PM PM  
  S  S  E  S  S  E  E  E  E  E     S  S  E  S  S  E  E  E  E  E   
--------------------------------|--------------------------------|
--------------------------------|--------------------------------|
--------------------------------|--------------------------------|
--------------------------------|--------------------------------|
--2--2--2--2--2--2--2--2--2--2--|--2--2--2--2--2--2--2--2--2--2--|
--0--0--0--0--0--0--0--0--0--0--|--0--0--0--0--0--0--0--0--0--0--|


  PM PM PM PM PM PM PM PM PM PM                        
  S  S  E  S  S  E  E  E  E  E     Q.     Q    Q.      
--------------------------------|---------------------|
--------------------------------|---------------------|
--------------------------------|---------9----8------|
--------------------------------|---------------------|
--2--2--2--2--2--2--2--2--2--2--|--2------7----6------|
--0--0--0--0--0--0--0--0--0--0--|--0------------------|


  |--3--|  |--3-|  |--3--|  |--3-|     |--3--|  |--3-|  |-3|          
  E  E  E  Q    E  E  E  E  Q    E     E  E  E  Q    E  E  Q    Q     
-----------0----0-----------2----2--|-----------0----0---------------|
-----------2----2-----------4----4--|-----------2----2-----5----5----|
------------------------------------|----------------------4----4----|
------------------------------------|----------------------2----2----|
--4--4--4----------4--4--4----------|--4--4--4-----------------------|
------------------------------------|--------------------------------|


  |--3--|  |--3-|  |--3--|  |--3-|     |-3|    3      |-3|          
  E  E  E  Q    E  E  E  E  Q    E     E  Q    Q.     E  Q    Q     
-----------0----0-----------2----2--|-----5----5---------0----0----|
-----------2----2-----------4----4--|-----7----7---------2----2----|
------------------------------------|------------------------------|
------------------------------------|------------------------------|
--4--4--4----------4--4--4----------|------------------------------|
------------------------------------|------------------------------|


  |--3--|  |--3-|  |--3--|  |--3-|     |--3--|  |--3-|  |-3|          
  E  E  E  Q    E  E  E  E  Q    E     E  E  E  Q    E  E  Q    Q     
-----------0----0-----------2----2--|-----------0----0---------------|
-----------2----2-----------4----4--|-----------2----2-----5----5----|
------------------------------------|----------------------4----4----|
------------------------------------|----------------------2----2----|
--4--4--4----------4--4--4----------|--4--4--4-----------------------|
------------------------------------|--------------------------------|


  |--3--|  |--3-|  |--3--|  |--3-|   
  E  E  E  Q    E  E  E  E  Q    E   
-----------0----0-----------2----2--|
-----------2----2-----------4----4--|
------------------------------------|
------------------------------------|
--4--4--4----------4--4--4----------|
------------------------------------|


  |---3--|   |---3---|   |---3---|   |---3---|   
  E   E  E   E   E   E   E   E   E   E   E   E   
------------------------------------------------|
------------------------------------------------|
--9------9--11------11--13------13--11------11--|
-----11---------11----------11----------11------|
------------------------------------------------|
------------------------------------------------|


    |--3-|  |--3--|  |--3-|  |--3--|     |--3-|  |--3--|  |--3-|  |--3--|   
    Q    E  E  E  E  Q    E  E  E  E     Q    E  E  E  E  Q    E  E  E  E   
|-------------------------------------|------------------------------------|
|-------------------------------------|------------------------------------|
|*------------------------------------|------------------------------------|
|*--6----------------6----------------|--6----------------2----------------|
|---4----4--4--4--4--4----4--4--4--4--|--4----4--4--4--4--0----0--0--0--0--|
|-------------------------------------|------------------------------------|


  |--3-|  |--3--|  |--3-|  |--3--|     |--3-|  |--3--|  |--3-|  |--3--|     
  Q    E  E  E  E  Q    E  E  E  E     Q    E  E  E  E  Q    E  E  E  E     
------------------------------------|-------------------------------------||
------------------------------------|-------------------------------------||
------------------------------------|------------------------------------*||
--6----------------6----------------|--4---------------------------------*||
--4----4--4--4--4--4----4--4--4--4--|--2----2--2--2--2--4-----------------||
------------------------------------|-------------------2----2--2--2--2---||


              PM PM PM PM PM                          
   E.  E.  E  S  E  S  E  E     E.  E.   Q    Q.      
-----------------------------|-----------------------|
-----------------------------|-----------------------|
*----------------------------|-----------------------|
*--7---9---------------------|--7---9---12----L------|
---5---7---2--2--2--2--2--2--|--5---7---10----L------|
-----------0--0--0--0--0--0--|-----------------------|


             PM PM PM PM PM                                                     
  E.  E.  E  S  E  S  E  E     E.  E.  Q    Q.          S S E  S S E  H         
----------------------------|-----------------------||-------------------------|
----------------------------|-----------------------||-------------------------|
----------------------------|----------------------*||-------------------------|
--7---9---------------------|--7---9---7----L------*||-------------------------|
--5---7---2--2--2--2--2--2--|--5---7---4----L-------||--2-2----2-2-------------|
----------0--0--0--0--0--0--|-----------------------||--0-0----0-0-------------|


  S S E  S S E  H           S S E  S S E  H           S S E  E  Q    Q.      
-------------------------|-------------------------|------------------------|
-------------------------|-------------------------|------------------------|
-------------------------|-------------------------|------------9----8------|
-------------------------|-------------------------|------------------------|
--2-2----2-2-------------|--2-2----2-2-------------|--2-2----2--7----6------|
--0-0----0-0-------------|--0-0----0-0-------------|--0-0----0--------------|


  PM PM PM PM PM PM PM PM PM PM    PM PM PM PM PM PM PM PM PM PM  
  S  S  E  S  S  E  E  E  E  E     S  S  E  S  S  E  E  E  E  E   
--------------------------------|--------------------------------|
--------------------------------|--------------------------------|
--------------------------------|--------------------------------|
--------------------------------|--------------------------------|
--2--2--2--2--2--2--2--2--2--2--|--2--2--2--2--2--2--2--2--2--2--|
--0--0--0--0--0--0--0--0--0--0--|--0--0--0--0--0--0--0--0--0--0--|


  PM PM PM PM PM PM PM PM PM PM                        
  S  S  E  S  S  E  E  E  E  E     Q.     Q    Q.      
--------------------------------|---------------------|
--------------------------------|---------------------|
--------------------------------|---------9----8------|
--------------------------------|---------------------|
--2--2--2--2--2--2--2--2--2--2--|--2------7----6------|
--0--0--0--0--0--0--0--0--0--0--|--0------------------|


  |--3--|  |--3-|  |--3--|  |--3-|     |--3--|  |--3-|  |-3|          
  E  E  E  Q    E  E  E  E  Q    E     E  E  E  Q    E  E  Q    Q     
-----------0----0-----------2----2--|-----------0----0---------------|
-----------2----2-----------4----4--|-----------2----2-----5----5----|
------------------------------------|----------------------4----4----|
------------------------------------|----------------------2----2----|
--4--4--4----------4--4--4----------|--4--4--4-----------------------|
------------------------------------|--------------------------------|


  |--3--|  |--3-|  |--3--|  |--3-|     |-3|    3      |-3|          
  E  E  E  Q    E  E  E  E  Q    E     E  Q    Q.     E  Q    Q     
-----------0----0-----------2----2--|-----5----5---------0----0----|
-----------2----2-----------4----4--|-----7----7---------2----2----|
------------------------------------|------------------------------|
------------------------------------|------------------------------|
--4--4--4----------4--4--4----------|------------------------------|
------------------------------------|------------------------------|


  |--3--|  |--3-|  |--3--|  |--3-|     |--3--|  |--3-|  |-3|          
  E  E  E  Q    E  E  E  E  Q    E     E  E  E  Q    E  E  Q    Q     
-----------0----0-----------2----2--|-----------0----0---------------|
-----------2----2-----------4----4--|-----------2----2-----5----5----|
------------------------------------|----------------------4----4----|
------------------------------------|----------------------2----2----|
--4--4--4----------4--4--4----------|--4--4--4-----------------------|
------------------------------------|--------------------------------|


  |--3--|  |--3-|  |--3--|  |--3-|   
  E  E  E  Q    E  E  E  E  Q    E   
-----------0----0-----------2----2--|
-----------2----2-----------4----4--|
------------------------------------|
------------------------------------|
--4--4--4----------4--4--4----------|
------------------------------------|


  |---3--|   |---3---|   |---3---|   |---3---|   
  E   E  E   E   E   E   E   E   E   E   E   E   
------------------------------------------------|
------------------------------------------------|
--9------9--11------11--13------13--11------11--|
-----11---------11----------11----------11------|
------------------------------------------------|
------------------------------------------------|


    |--3-|  |--3--|  |--3-|  |--3--|     |--3-|  |--3--|  |--3-|  |--3--|   
    Q    E  E  E  E  Q    E  E  E  E     Q    E  E  E  E  Q    E  E  E  E   
|-------------------------------------|------------------------------------|
|-------------------------------------|------------------------------------|
|*------------------------------------|------------------------------------|
|*--6----------------6----------------|--6----------------2----------------|
|---4----4--4--4--4--4----4--4--4--4--|--4----4--4--4--4--0----0--0--0--0--|
|-------------------------------------|------------------------------------|


  |--3-|  |--3--|  |--3-|  |--3--|     |--3-|  |--3--|  |--3-|  |--3--|     
  Q    E  E  E  E  Q    E  E  E  E     Q    E  E  E  E  Q    E  E  E  E     
------------------------------------|-------------------------------------||
------------------------------------|-------------------------------------||
------------------------------------|------------------------------------*||
--6----------------6----------------|--4---------------------------------*||
--4----4--4--4--4--4----4--4--4--4--|--2----2--2--2--2--4-----------------||
------------------------------------|-------------------2----2--2--2--2---||


  |--3--|  |--3--|  |--3--|  |--3--|     |--3--|  |--3--|  |--3--|  |--3--|   
  E  E  E  E  E  E  E  E  E  E  E  E     E  E  E  E  E  E  E  E  E  E  E  E   
--------------------------------------|--------------------------------------|
--------------------------------------|--------------------------------------|
--6-----6--8-----8--9-----9--8-----8--|--6-----6--8-----8--9--8--9--8--6--8--|
-----6--------6--------6--------6-----|-----6--------6-----------------------|
--------------------------------------|--------------------------------------|
--------------------------------------|--------------------------------------|


  |--3--|  |--3--|  |--3--|  |--3--|     |--3--|  |--3--|  |--3--|   |---3--|   
  E  E  E  E  E  E  E  E  E  E  E  E     E  E  E  E  E  E  E  E  E   E  E   E   
--------------------------------------|----------------------------------------|
--------------------------------------|----------------------------------------|
--6-----6--8-----8--9-----9--8-----8--|--6-----6--8-----8--9--8--9--11--9--11--|
-----6--------6--------6--------6-----|-----6--------6-------------------------|
--------------------------------------|----------------------------------------|
--------------------------------------|----------------------------------------|


  |--3--|  |--3--|  |--3--|  |--3--|     |--3--|  |--3--|  |--3--|  |--3--|   
  E  E  E  E  E  E  E  E  E  E  E  E     E  E  E  E  E  E  E  E  E  E  E  E   
--------------------------------------|--------------------------------------|
--------------------------------------|--------------------------------------|
--6-----6--8-----8--9-----9--8-----8--|--6-----6--8-----8--9--8--9--8--6--8--|
-----6--------6--------6--------6-----|-----6--------6-----------------------|
--------------------------------------|--------------------------------------|
--------------------------------------|--------------------------------------|


  |--3--|  |--3--|  |--3--|  |--3--|     |--3--|  |--3--|  |--3--|   |---3--|   
  E  E  E  E  E  E  E  E  E  E  E  E     E  E  E  E  E  E  E  E  E   E  E   E   
--------------------------------------|----------------------------------------|
--------------------------------------|----------------------------------------|
--6-----6--8-----8--9-----9--8-----8--|--6-----6--8-----8--9--8--9--11--9--11--|
-----6--------6--------6--------6-----|-----6--------6-------------------------|
--------------------------------------|----------------------------------------|
--------------------------------------|----------------------------------------|


  |--3--|  |--3--|  |--3--|  |--3--|     |--3--|  |--3--|  |--3--|  |--3--|   
  E  E  E  E  E  E  E  E  E  E  E  E     E  E  E  E  E  E  E  E  E  E  E  E   
--------------------------------------|--------------------------------------|
--------------------------------------|-----------------------------7-----7--|
--6-----6--8-----8--9-----9--8-----8--|--6-----6--8-----8--9-----9-----------|
-----6--------6--------6--------6-----|-----6--------6--------6--------6-----|
--------------------------------------|--------------------------------------|
--------------------------------------|--------------------------------------|


  |--3--|  |--3--|  |--3--|  |--3--|   
  E  E  E  E  E  E  E  E  E  E  E  E   
--------------------------------------|
--------------------------------------|
--6-----6--8-----8--9-----9--8-----8--|
-----6--------6--------6--------6-----|
--------------------------------------|
--------------------------------------|


   |---3---|   |---3---|   |---3---|   |---3---|   
   E   E   E   E   E   E   E   E   E   E   E   E   
--------------------------------------------------|
--14------14--12------12--10------10--------------|
--------------------------------------13------11--|
------11----------11----------11----------11------|
--------------------------------------------------|
--------------------------------------------------|


  |--3--|  |--3--|  |--3--|  |--3--|     |--3--|  |--3--|  |--3--|  |--3--|   
  E  E  E  E  E  E  E  E  E  E  E  E     E  E  E  E  E  E  E  E  E  E  E  E   
--------------------------------------|--------------------------------------|
--------------------------------------|-----------------------------7-----7--|
--6-----6--8-----8--9-----9--8-----8--|--6-----6--8-----8--9-----9-----------|
-----6--------6--------6--------6-----|-----6--------6--------6--------6-----|
--------------------------------------|--------------------------------------|
--------------------------------------|--------------------------------------|


  |--3--|  |--3--|  |--3--|  |--3--|   
  E  E  E  E  E  E  E  E  E  E  E  E   
--------------------------------------|
--------------------------------------|
--6-----6--8-----8--9-----9--8-----8--|
-----6--------6--------6--------6-----|
--------------------------------------|
--------------------------------------|


   |---3---|   |---3---|   |---3---|   |---3---|                       
   E   E   E   E   E   E   E   E   E   E   E   E     W                 
--------------------------------------------------|-------------------|
--14------14--12------12--10------10--------------|-------------------|
--------------------------------------13------11--|-------------------|
------11----------11----------11----------11------|--6----------------|
--------------------------------------------------|--4----------------|
--------------------------------------------------|-------------------|


  H        H           W                   H        H         
--------------------|-------------------|--------------------|
--------------------|-------------------|--------------------|
--------------------|-------------------|--------------------|
--L--------2--------|--6----------------|--4-----------------|
--L--------0--------|--4----------------|--2--------4--------|
--------------------|-------------------|-----------2--------|


  W                   H        H           W                 
-------------------|--------------------|-------------------|
-------------------|--------------------|-------------------|
-------------------|--------------------|-------------------|
--6----------------|--L--------2--------|--6----------------|
--4----------------|--L--------0--------|--4----------------|
-------------------|--------------------|-------------------|


                       |--3--|  |--3--|  |--3--|  |--3--|   
  H        H           E  E  E  E  E  E  E  E  E  E  E  E   
--------------------|--------------------------------------|
--------------------|--------------------------------------|
--------------------|--------------------------------------|
--4-----------------|--------------------------------------|
--2--------4--------|--------------------------------------|
-----------2--------|--4--0--4--6--0--6--7--0--7--6--0--6--|


  |--3--|  |--3--|              |--3--|  |--3--|  |--3--|  |--3--|   
  E  E  E  E  E  E  H           E  E  E  E  E  E  E  E  E  E  E  E   
-----------------------------|--------------------------------------|
-----------------------------|--------------------------------------|
-----------------------------|--------------------------------------|
-----------------------------|--------------------------------------|
-----------------------------|--------------------------------------|
--4--0--4--6--0--7--6--------|--4--0--4--6--0--6--7--0--7--6--0--6--|


  |--3--|  |--3--|              |--3--|  |--3--|  |--3--|  |--3--|   
  E  E  E  E  E  E  H           E  E  E  E  E  E  E  E  E  E  E  E   
-----------------------------|--------------------------------------|
-----------------------------|--------------------------------------|
-----------------------------|--------------------------------------|
-----------------------------|--------------------------------------|
-----------------------------|--------------------------------------|
--4--0--4--7--0--7--2--------|--4--0--4--6--0--6--7--0--7--6--0--6--|


  |--3--|  |--3--|              |--3--|  |--3--|  |--3--|  |--3--|   
  E  E  E  E  E  E  H           E  E  E  E  E  E  E  E  E  E  E  E   
-----------------------------|--------------------------------------|
-----------------------------|--------------------------------------|
-----------------------------|--------------------------------------|
-----------------------------|--------------------------------------|
-----------------------------|--------------------------------------|
--4--0--4--6--0--7--6--------|--4--0--4--6--0--6--7--0--7--6--0--6--|


  |--3--|  |--3--|                                                     
  E  E  E  E  E  E  H           W                   H        H         
-----------------------------|-------------------|--------------------|
-----------------------------|-------------------|--------------------|
-----------------------------|-------------------|--------------------|
-----------------------------|--6----------------|--L--------2--------|
-----------------------------|--4----------------|--L--------0--------|
--4--0--4--7--0--7--2--------|-------------------|--------------------|


  W                   H        H           W                 
-------------------|--------------------|-------------------|
-------------------|--------------------|-------------------|
-------------------|--------------------|-------------------|
--6----------------|--4-----------------|--6----------------|
--4----------------|--2--------4--------|--4----------------|
-------------------|-----------2--------|-------------------|


  H        H           W                   H        H         
--------------------|-------------------|--------------------|
--------------------|-------------------|--------------------|
--------------------|-------------------|--------------------|
--L--------2--------|--6----------------|--4-----------------|
--L--------0--------|--4----------------|--2--------4--------|
--------------------|-------------------|-----------2--------|


  |--3--|  |--3--|  |--3--|  |--3--|     |--3--|  |--3--|            
  E  E  E  E  E  E  E  E  E  E  E  E     E  E  E  E  E  E  H         
--------------------------------------|-----------------------------|
--------------------------------------|-----------------------------|
--------------------------------------|-----------------------------|
--------------------------------------|-----------------------------|
--------------------------------------|-----------------------------|
--4--0--4--6--0--6--7--0--7--6--0--6--|--4--0--4--6--0--7--6--------|


  |--3--|  |--3--|  |--3--|  |--3--|     |--3--|  |--3--|            
  E  E  E  E  E  E  E  E  E  E  E  E     E  E  E  E  E  E  H         
--------------------------------------|-----------------------------|
--------------------------------------|-----------------------------|
--------------------------------------|-----------------------------|
--------------------------------------|-----------------------------|
--------------------------------------|-----------------------------|
--4--0--4--6--0--6--7--0--7--6--0--6--|--4--0--4--7--0--7--2--------|


  |--3--|  |--3--|  |--3--|  |--3--|     |--3--|  |--3--|            
  E  E  E  E  E  E  E  E  E  E  E  E     E  E  E  E  E  E  H         
--------------------------------------|-----------------------------|
--------------------------------------|-----------------------------|
--------------------------------------|-----------------------------|
--------------------------------------|-----------------------------|
--------------------------------------|-----------------------------|
--4--0--4--6--0--6--7--0--7--6--0--6--|--4--0--4--6--0--7--6--------|


  |--3--|  |--3--|  |--3--|  |--3--|     |--3--|  |--3--|            
  E  E  E  E  E  E  E  E  E  E  E  E     E  E  E  E  E  E  H         
--------------------------------------|-----------------------------|
--------------------------------------|-----------------------------|
--------------------------------------|-----------------------------|
--------------------------------------|-----------------------------|
--------------------------------------|-----------------------------|
--4--0--4--6--0--6--7--0--7--6--0--6--|--4--0--4--7--0--7--2--------|


  W                   W                   Q    H.            
-------------------|-------------------|--------------------|
-------------------|-------------------|--------------------|
-------------------|-------------------|--------------------|
--6----------------|--L----------------|--L----4------------|
--4----------------|--L----------------|--L----2------------|
-------------------|-------------------|--------------------|


  W                   W                   W                   W                 
-------------------|-------------------|-------------------|-------------------|
-------------------|-------------------|-------------------|-------------------|
-------------------|-------------------|-------------------|-------------------|
--L----------------|--3----------------|--2----------------|-------------------|
--L----------------|--1----------------|--0----------------|--6----------------|
-------------------|-------------------|-------------------|--4----------------|


                                                     PM PM PM PM PM  
  W                   W                   E.  E.  E  S  E  S  E  E   
-------------------|-------------------|----------------------------|
-------------------|-------------------|----------------------------|
-------------------|-------------------|----------------------------|
-------------------|-------------------|--7---9---------------------|
--L----------------|--L----------------|--5---7---2--2--2--2--2--2--|
--L----------------|--L----------------|----------0--0--0--0--0--0--|


                                     PM PM PM PM PM                         
  E.  E.   Q    Q.        E.  E.  E  S  E  S  E  E     E.  E.  Q    Q.      
-----------------------|----------------------------|----------------------|
-----------------------|----------------------------|----------------------|
-----------------------|----------------------------|----------------------|
--7---9---12----L------|--7---9---------------------|--7---9---7----L------|
--5---7---10----L------|--5---7---2--2--2--2--2--2--|--5---7---4----L------|
-----------------------|----------0--0--0--0--0--0--|----------------------|


  S S E  S S E  H           S S E  S S E  H           S S E  S S E  H         
-------------------------|-------------------------|-------------------------|
-------------------------|-------------------------|-------------------------|
-------------------------|-------------------------|-------------------------|
-------------------------|-------------------------|-------------------------|
--2-2----2-2-------------|--2-2----2-2-------------|--2-2----2-2-------------|
--0-0----0-0-------------|--0-0----0-0-------------|--0-0----0-0-------------|


                           PM PM PM PM PM PM PM PM PM PM  
  S S E  E  Q    Q.        S  S  E  S  S  E  E  E  E  E   
------------------------|--------------------------------|
------------------------|--------------------------------|
------------9----8------|--------------------------------|
------------------------|--------------------------------|
--2-2----2--7----6------|--2--2--2--2--2--2--2--2--2--2--|
--0-0----0--------------|--0--0--0--0--0--0--0--0--0--0--|


  PM PM PM PM PM PM PM PM PM PM    PM PM PM PM PM PM PM PM PM PM  
  S  S  E  S  S  E  E  E  E  E     S  S  E  S  S  E  E  E  E  E   
--------------------------------|--------------------------------|
--------------------------------|--------------------------------|
--------------------------------|--------------------------------|
--------------------------------|--------------------------------|
--2--2--2--2--2--2--2--2--2--2--|--2--2--2--2--2--2--2--2--2--2--|
--0--0--0--0--0--0--0--0--0--0--|--0--0--0--0--0--0--0--0--0--0--|


                        |--3--|  |--3-|  |--3--|  |--3-|   
  Q.     E  H           E  E  E  Q    E  E  E  E  Q    E   
---------------------|-----------0----0-----------2----2--|
---------------------|-----------2----2-----------4----4--|
---------------------|------------------------------------|
---------------------|------------------------------------|
--2------------------|--4--4--4----------4--4--4----------|
--0------------------|------------------------------------|


  |--3--|  |--3-|  |-3|            |--3--|  |--3-|  |--3--|  |--3-|   
  E  E  E  Q    E  E  Q    Q       E  E  E  Q    E  E  E  E  Q    E   
-----------0----0---------------|-----------0----0-----------2----2--|
-----------2----2-----5----5----|-----------2----2-----------4----4--|
----------------------4----4----|------------------------------------|
----------------------2----2----|------------------------------------|
--4--4--4-----------------------|--4--4--4----------4--4--4----------|
--------------------------------|------------------------------------|


  |-3|    3      |-3|            |--3--|  |--3-|  |--3--|  |--3-|   
  E  Q    Q.     E  Q    Q       E  E  E  Q    E  E  E  E  Q    E   
-----5----5---------0----0----|-----------0----0-----------2----2--|
-----7----7---------2----2----|-----------2----2-----------4----4--|
------------------------------|------------------------------------|
------------------------------|------------------------------------|
------------------------------|--4--4--4----------4--4--4----------|
------------------------------|------------------------------------|


  |--3--|  |--3-|  |-3|            |--3--|  |--3-|  |--3--|  |--3-|   
  E  E  E  Q    E  E  Q    Q       E  E  E  Q    E  E  E  E  Q    E   
-----------0----0---------------|-----------0----0-----------2----2--|
-----------2----2-----5----5----|-----------2----2-----------4----4--|
----------------------4----4----|------------------------------------|
----------------------2----2----|------------------------------------|
--4--4--4-----------------------|--4--4--4----------4--4--4----------|
--------------------------------|------------------------------------|


  |---3--|   |---3---|   |---3---|   |---3---|   
  E   E  E   E   E   E   E   E   E   E   E   E   
------------------------------------------------|
------------------------------------------------|
--9------9--11------11--13------13--11------11--|
-----11---------11----------11----------11------|
------------------------------------------------|
------------------------------------------------|


    |--3-|  |--3--|  |--3-|  |--3--|     |--3-|  |--3--|  |--3-|  |--3--|   
    Q    E  E  E  E  Q    E  E  E  E     Q    E  E  E  E  Q    E  E  E  E   
|-------------------------------------|------------------------------------|
|-------------------------------------|------------------------------------|
|*------------------------------------|------------------------------------|
|*--6----------------6----------------|--6----------------2----------------|
|---4----4--4--4--4--4----4--4--4--4--|--4----4--4--4--4--0----0--0--0--0--|
|-------------------------------------|------------------------------------|


  |--3-|  |--3--|  |--3-|  |--3--|     |--3-|  |--3--|  |--3-|  |--3--|     
  Q    E  E  E  E  Q    E  E  E  E     Q    E  E  E  E  Q    E  E  E  E     
------------------------------------|-------------------------------------||
------------------------------------|-------------------------------------||
------------------------------------|------------------------------------*||
--6----------------6----------------|--4---------------------------------*||
--4----4--4--4--4--4----4--4--4--4--|--2----2--2--2--2--4-----------------||
------------------------------------|-------------------2----2--2--2--2---||


  |--3-|  |--3--|  |--3-|  |--3--|     |--3-|  |--3--|  |--3-|  |--3--|   
  Q    E  E  E  E  Q    E  E  E  E     Q    E  E  E  E  Q    E  E  E  E   
------------------------------------|------------------------------------|
------------------------------------|------------------------------------|
------------------------------------|------------------------------------|
--6----------------6----------------|--6----------------2----------------|
--4----4--4--4--4--4----4--4--4--4--|--4----4--4--4--4--0----0--0--0--0--|
------------------------------------|------------------------------------|


  |--3-|  |--3--|  |--3-|  |--3--|     |--3-|  |--3--|  |--3-|  |--3--|    
  Q    E  E  E  E  Q    E  E  E  E     Q    E  E  E  E  Q    E  E  E  E    
------------------------------------|------------------------------------||
------------------------------------|------------------------------------||
------------------------------------|------------------------------------||
--6----------------6----------------|--4---------------------------------||
--4----4--4--4--4--4----4--4--4--4--|--2----2--2--2--2--4----------------||
------------------------------------|-------------------2----2--2--2--2--||



___________________________________________________________________________
***************************************************************************
___________________________________________________________________________




Lead Guitar I



       W                   W                   W                 
B ||--------------------|-------------------|-------------------|
F#||--------------------|-------------------|-------------------|
D ||*-------------------|-------------------|-------------------|
A ||*-------------------|-------------------|-------------------|
E ||--------------------|-------------------|-------------------|
B ||--------------------|-------------------|-------------------|


  W                      E   E   E   E   E   E   E   E   
--------------------||----------------------------------|
--------------------||------15--------------15----------|
-------------------*||--12------12--11--12------12--11--|
-------------------*||----------------------------------|
--------------------||----------------------------------|
--------------------||----------------------------------|


   E   E   E   E   E   E   E   E      E   E   E   E   E   E   E   E   
----------------------------------|----------------------------------|
------15--------------15----------|------15--------------15----------|
--12------12--11--12------12--11--|--12------12--11--12------12--11--|
----------------------------------|----------------------------------|
----------------------------------|----------------------------------|
----------------------------------|----------------------------------|


   E   E   E   Q     Q.         E   E   E   E   E   Q.      
----------------------------|------------------------------|
------15------17----16------|----------15----------17------|
--12------12----------------|--11--12------11--12----------|
----------------------------|------------------------------|
----------------------------|------------------------------|
----------------------------|------------------------------|


   E   E   E   E   E   Q.         E   E   E   E   E   Q.      
------------------------------|------------------------------|
----------15------------------|----------15----------17------|
--11--12------11--12--16------|--11--12------11--12----------|
------------------------------|------------------------------|
------------------------------|------------------------------|
------------------------------|------------------------------|


   E   E   E   Q     Q.        W                   W                 
----------------------------|-------------------|-------------------|
----------15--17----16------|-------------------|-------------------|
--11--12--------------------|-------------------|-------------------|
----------------------------|-------------------|-------------------|
----------------------------|-------------------|-------------------|
----------------------------|-------------------|-------------------|


  W                   W                   W                   W                 
-------------------|-------------------|-------------------|-------------------|
-------------------|-------------------|-------------------|-------------------|
-------------------|-------------------|-------------------|-------------------|
-------------------|-------------------|-------------------|-------------------|
-------------------|-------------------|-------------------|-------------------|
-------------------|-------------------|-------------------|-------------------|


                       |---3---|   |---3---|   |---3---|   |---3---|   
  W                    E   E   E   E   E   E   E   E   E   E   E   E   
-------------------|--12------12--14------14--16------16--14------14--|
-------------------|------14----------14----------14----------14------|
-------------------|--------------------------------------------------|
-------------------|--------------------------------------------------|
-------------------|--------------------------------------------------|
-------------------|--------------------------------------------------|


    W                   W                   W                 
|--------------------|-------------------|-------------------|
|--------------------|-------------------|-------------------|
|*-------------------|-------------------|-------------------|
|*-------------------|-------------------|-------------------|
|--------------------|-------------------|-------------------|
|--------------------|-------------------|-------------------|


  W                      W                   W                 
--------------------||--------------------|-------------------|
--------------------||--------------------|-------------------|
-------------------*||*-------------------|-------------------|
-------------------*||*-------------------|-------------------|
--------------------||--------------------|-------------------|
--------------------||--------------------|-------------------|


  W                   W                      E   E   E   E   E   E   E   E   
-------------------|--------------------||----------------------------------|
-------------------|--------------------||------15--------------15----------|
-------------------|-------------------*||--12------12--11--12------12--11--|
-------------------|-------------------*||----------------------------------|
-------------------|--------------------||----------------------------------|
-------------------|--------------------||----------------------------------|


   E   E   E   E   E   E   E   E      E   E   E   E   E   E   E   E   
----------------------------------|----------------------------------|
------15--------------15----------|------15--------------15----------|
--12------12--11--12------12--11--|--12------12--11--12------12--11--|
----------------------------------|----------------------------------|
----------------------------------|----------------------------------|
----------------------------------|----------------------------------|


   E   E   E   Q     Q.         E   E   E   E   E   Q.      
----------------------------|------------------------------|
------15------17----16------|----------15----------17------|
--12------12----------------|--11--12------11--12----------|
----------------------------|------------------------------|
----------------------------|------------------------------|
----------------------------|------------------------------|


   E   E   E   E   E   Q.         E   E   E   E   E   Q.      
------------------------------|------------------------------|
----------15------------------|----------15----------17------|
--11--12------11--12--16------|--11--12------11--12----------|
------------------------------|------------------------------|
------------------------------|------------------------------|
------------------------------|------------------------------|


   E   E   E   Q     Q.        W                   W                 
----------------------------|-------------------|-------------------|
----------15--17----16------|-------------------|-------------------|
--11--12--------------------|-------------------|-------------------|
----------------------------|-------------------|-------------------|
----------------------------|-------------------|-------------------|
----------------------------|-------------------|-------------------|


  W                   W                   W                   W                 
-------------------|-------------------|-------------------|-------------------|
-------------------|-------------------|-------------------|-------------------|
-------------------|-------------------|-------------------|-------------------|
-------------------|-------------------|-------------------|-------------------|
-------------------|-------------------|-------------------|-------------------|
-------------------|-------------------|-------------------|-------------------|


                       |---3---|   |---3---|   |---3---|   |---3---|   
  W                    E   E   E   E   E   E   E   E   E   E   E   E   
-------------------|--12------12--14------14--16------16--14------14--|
-------------------|------14----------14----------14----------14------|
-------------------|--------------------------------------------------|
-------------------|--------------------------------------------------|
-------------------|--------------------------------------------------|
-------------------|--------------------------------------------------|


    W                   W                   W                 
|--------------------|-------------------|-------------------|
|--------------------|-------------------|-------------------|
|*-------------------|-------------------|-------------------|
|*-------------------|-------------------|-------------------|
|--------------------|-------------------|-------------------|
|--------------------|-------------------|-------------------|


                        |---3--|   |---3---|   |---3---|   |---3---|   
  W                     E   E  E   E   E   E   E   E   E   E   E   E   
--------------------||------------------------------------------------|
--------------------||------------------------------------------------|
-------------------*||--9------9--11------11--13------13--11------11--|
-------------------*||-----11---------11----------11----------11------|
--------------------||------------------------------------------------|
--------------------||------------------------------------------------|


  |---3--|   |---3---|   |---3---|   |---3--|   
  E   E  E   E   E   E   E   E   E   E  E   E   
-----------------------------------------------|
-----------------------------------------------|
--9------9--11------11--13--11--13--11--9--11--|
-----11---------11-----------------------------|
-----------------------------------------------|
-----------------------------------------------|


  |---3--|   |---3---|   |---3---|   |---3---|   
  E   E  E   E   E   E   E   E   E   E   E   E   
------------------------------------------------|
------------------------------------------------|
--9------9--11------11--13------13--11------11--|
-----11---------11----------11----------11------|
------------------------------------------------|
------------------------------------------------|


  |---3--|   |---3---|   |---3---|   |---3---|   
  E   E  E   E   E   E   E   E   E   E   E   E   
------------------------------------------------|
------------------------------------------------|
--9------9--11------11--13--11--13--14--13--14--|
-----11---------11------------------------------|
------------------------------------------------|
------------------------------------------------|


  |---3--|   |---3---|   |---3---|   |---3---|   
  E   E  E   E   E   E   E   E   E   E   E   E   
------------------------------------------------|
------------------------------------------------|
--9------9--11------11--13------13--11------11--|
-----11---------11----------11----------11------|
------------------------------------------------|
------------------------------------------------|


  |---3--|   |---3---|   |---3---|   |---3--|   
  E   E  E   E   E   E   E   E   E   E  E   E   
-----------------------------------------------|
-----------------------------------------------|
--9------9--11------11--13--11--13--11--9--11--|
-----11---------11-----------------------------|
-----------------------------------------------|
-----------------------------------------------|


  |---3--|   |---3---|   |---3---|   |---3---|   
  E   E  E   E   E   E   E   E   E   E   E   E   
------------------------------------------------|
------------------------------------------------|
--9------9--11------11--13------13--11------11--|
-----11---------11----------11----------11------|
------------------------------------------------|
------------------------------------------------|


  |---3--|   |---3---|   |---3---|   |---3---|   
  E   E  E   E   E   E   E   E   E   E   E   E   
------------------------------------------------|
------------------------------------------------|
--9------9--11------11--13--11--13--14--13--14--|
-----11---------11------------------------------|
------------------------------------------------|
------------------------------------------------|


  |---3--|   |---3---|   |---3---|   |---3---|   
  E   E  E   E   E   E   E   E   E   E   E   E   
------------------------------------------------|
------------------------------------------------|
--9------9--11------11--13------13--11------11--|
-----11---------11----------11----------11------|
------------------------------------------------|
------------------------------------------------|


  |---3--|   |---3---|   |---3---|   |---3---|   
  E   E  E   E   E   E   E   E   E   E   E   E   
------------------------------------------------|
------------------------------------10------10--|
--9------9--11------11--13------13--------------|
-----11---------11----------11----------11------|
------------------------------------------------|
------------------------------------------------|


  |---3--|   |---3---|   |---3---|   |---3---|   
  E   E  E   E   E   E   E   E   E   E   E   E   
------------------------------------------------|
------------------------------------------------|
--9------9--11------11--13------13--11------11--|
-----11---------11----------11----------11------|
------------------------------------------------|
------------------------------------------------|


   |---3---|   |---3---|   |---3---|   |---3---|   
   E   E   E   E   E   E   E   E   E   E   E   E   
--------------------------------------------------|
--17------17--16------16--14------14--------------|
--------------------------------------16------14--|
------14----------14----------14----------14------|
--------------------------------------------------|
--------------------------------------------------|


  |---3--|   |---3---|   |---3---|   |---3---|   
  E   E  E   E   E   E   E   E   E   E   E   E   
------------------------------------------------|
------------------------------------------------|
--9------9--11------11--13------13--11------11--|
-----11---------11----------11----------11------|
------------------------------------------------|
------------------------------------------------|


  |---3--|   |---3---|   |---3---|   |---3---|   
  E   E  E   E   E   E   E   E   E   E   E   E   
------------------------------------------------|
------------------------------------10------10--|
--9------9--11------11--13------13--------------|
-----11---------11----------11----------11------|
------------------------------------------------|
------------------------------------------------|


  |---3--|   |---3---|   |---3---|   |---3---|   
  E   E  E   E   E   E   E   E   E   E   E   E   
------------------------------------------------|
------------------------------------------------|
--9------9--11------11--13------13--11------11--|
-----11---------11----------11----------11------|
------------------------------------------------|
------------------------------------------------|


   |---3---|   |---3---|   |---3---|   |---3---|                         
   E   E   E   E   E   E   E   E   E   E   E   E      W                  
--------------------------------------------------|---------------------|
--17------17--16------16--14------14--------------|--12-----------------|
--------------------------------------16------14--|--11b----------------|
------14----------14----------14----------14------|---------------------|
--------------------------------------------------|---------------------|
--------------------------------------------------|---------------------|


        |---3--|   |-3|    |---3--|               |---3---|  |---3---|   
  Q     Q      E   E  Q    E   E  E      H        E   E   E  E   E   E   
-------------------------------------|----------------------------------|
--L----------------------------------|----------------------------------|
--L----11br----9--11--9----L---------|------------9---------------------|
------------------------------11--9--|--11-----------11--10--9----------|
-------------------------------------|--------------------------11--10--|
-------------------------------------|----------------------------------|


  |--3--|  |--3--|              |---3--|   |---3--|   |---3--|   |---3--|   
  E  E  E  E  E  E  H           E   E  E   E   E  E   E   E  E   E  E   E   
-----------------------------|---------------------------------------------|
-----------------------------|--------------------------------------9--11--|
-----------------------------|-------------------------------9--11---------|
-----------------------------|--------------------9--10--11----------------|
--9--7--9--7-----------------|---------9--10--11---------------------------|
--------------9--8--7--------|--9--12--------------------------------------|


   |---3--|   |---3---|             
   E  E   E   E   E   E   H         
------9--11--12--14--11--12--------|
--12-------------------------------|
-----------------------------------|
-----------------------------------|
-----------------------------------|
-----------------------------------|


   |---3---|   |---3---|   |---3---|   |---3---|   
   E   E   E   E   E   E   E   E   E   E   E   E   
--11------11--12------12--14------14--16------16--|
------12----------14----------16----------17------|
--------------------------------------------------|
--------------------------------------------------|
--------------------------------------------------|
--------------------------------------------------|


   |---3---|   |---3---|                |--3--|   |---3---|            
   E   E   E   E   E   E   H            E  E  E   E   E   E  H         
--17------17--19------19--22b--------|--------------------------------|
------19----------21-----------------|--9-----9--11-------------------|
-------------------------------------|-----9---------11---------------|
-------------------------------------|-------------------11--9--------|
-------------------------------------|--------------------------------|
-------------------------------------|--------------------------------|


       |--3--|                    |---3---|       |---3---|   
  Q    E  E  E  H            Q    E   E   E  Q    E   E   E   
----------7--------------|--11----L--12--11--9----L----------|
-------------------------|---------------------------11--12--|
-------------9-----------|-----------------------------------|
--L----L--------8--------|-----------------------------------|
-------------------------|-----------------------------------|
-------------------------|-----------------------------------|


        |---3---|        |--3--|  |--3--|  
   Q    E   E   E  Q     S  S  S  S  S  S  
---------------------------------11-12-14-|
--11----L--12--11--9----11-12-14----------|
------------------------------------------|
------------------------------------------|
------------------------------------------|
------------------------------------------|


   T                 T                 T                 T                 
   |--3--|  |--3--|  |--3--|  |--3--|  |--3--|  |--3--|  |--3--|  |--3--|  
   S  S  S  S  S  S  S  S  S  S  S  S  S  S  S  S  S  S  S  S  S  S  S  S  
--16-14-12-11-12-14-18-14-12-11-12-14-19-14-12-11-12-14-18-14-12-11-12-14-|
--------------------------------------------------------------------------|
--------------------------------------------------------------------------|
--------------------------------------------------------------------------|
--------------------------------------------------------------------------|
--------------------------------------------------------------------------|


   T                 T                 T                 T                 
   |--3--|  |--3--|  |--3--|  |--3--|  |--3--|  |--3--|  |--3--|  |--3--|  
   S  S  S  S  S  S  S  S  S  S  S  S  S  S  S  S  S  S  S  S  S  S  S  S  
--16-14-12-11-12-14-18-14-12-11-12-14-19-14-12-11-12-14-18-14-12-11-12-14-|
--------------------------------------------------------------------------|
--------------------------------------------------------------------------|
--------------------------------------------------------------------------|
--------------------------------------------------------------------------|
--------------------------------------------------------------------------|


   |---3---|   |---3---|   |---3---|   |---3---|   
   E   E   E   E   E   E   E   E   E   E   E   E   
--19--14--18--14--19--14--16--14--18--14--19--14--|
--------------------------------------------------|
--------------------------------------------------|
--------------------------------------------------|
--------------------------------------------------|
--------------------------------------------------|


   |---3---|   |---3---|   |---3---|   |---3---|                        
   E   E   E   E   E   E   E   E   E   E   E   E      W                 
--18--14--16--14--18--14--19--14--18--14--19--14--|--21----------------|
--------------------------------------------------|--------------------|
--------------------------------------------------|--------------------|
--------------------------------------------------|--------------------|
--------------------------------------------------|--------------------|
--------------------------------------------------|--------------------|


                         |---3---|   |---3---|   |---3---|   |---3---|   
   H        H            E   E   E   E   E   E   E   E   E   E   E   E   
--21-----------------|----------16----------------------16--------------|
---------------------|--12--14------12--14------12--14------12--14------|
---------------------|----------------------13----------------------13--|
---------------------|--------------------------------------------------|
---------------------|--------------------------------------------------|
---------------------|--------------------------------------------------|


   |---3---|   |---3--|             
   E   E   E   Q      E   H         
---------------------16------------|
--12--14--16--16b--------14--------|
-----------------------------------|
-----------------------------------|
-----------------------------------|
-----------------------------------|


   |---3---|   |---3---|   |---3---|   |---3---|   
   E   E   E   E   E   E   E   E   E   E   E   E   
----------16----------------------16--------------|
--12--14------12--14------12--14------12--14------|
----------------------13----------------------13--|
--------------------------------------------------|
--------------------------------------------------|
--------------------------------------------------|


   |---3---|   |---3---|               3   3     3    3   3              
   E   E   E   E   E   E   H           E   E.    E.   E   E   H          
------------------------------------|-----------------------------------|
--14--12----------------------------|-----------14-----------17b--------|
----------13--12--11----------------|----------------16--13-------------|
----------------------11--14--------|--L--16b---------------------------|
------------------------------------|-----------------------------------|
------------------------------------|-----------------------------------|


  3   3     3    3   3                     |---3--|              
  E   E.    E.   E   E   H            Q    E   E  E   H          
------------------------17b--------|--L----L--------------------|
--L--------14----------------------|----------12--9--11~--------|
----------------16--13-------------|----------------------------|
-----16b---------------------------|----------------------------|
-----------------------------------|----------------------------|
-----------------------------------|----------------------------|


       |---3--|           |--3--|           |---3---|        |---3--|   
  Q    E   E  E   Q.      S  S  S     Q     E   E   E  Q     E   E  E   
----------------------------------|------------------------------------|
--L----L--12--9--11------12-11----|------------------------------------|
-------------------------------13-|--11~----L--13--11--9~----L--11--9--|
----------------------------------|------------------------------------|
----------------------------------|------------------------------------|
----------------------------------|------------------------------------|


        |--3--|               |---3--|   |---3---|   |---3---|   |---3---|   
  Q     E  E  E  H            Q      E   E   E   E   E   E   E   E   E   E   
--------------------------|---------16--19--16--18--16------16------16--19--|
--------------------------|--19b------------------------19------17----------|
--8~----L--9--8--6--------|-------------------------------------------------|
--------------------------|-------------------------------------------------|
--------------------------|-------------------------------------------------|
--------------------------|-------------------------------------------------|


   |---3---|   |---3---|   |---3---|   |---3---|   
   E   E   E   E   E   E   E   E   E   E   E   E   
--16--18--16------16------16--19--16--18--16------|
--------------19------17----------------------19--|
--------------------------------------------------|
--------------------------------------------------|
--------------------------------------------------|
--------------------------------------------------|


         |---3---|              
   Q     E   E   E   H          
-------------------------------|
--19b----L--19--16--19b--------|
-------------------------------|
-------------------------------|
-------------------------------|
-------------------------------|


   |--3--|  |--3--|  |--3--|  |--3--|  |--3--|  |--3--|  |--3--|  |--3--|  
   S  S  S  S  S  S  S  S  S  S  S  S  S  S  S  S  S  S  S  S  S  S  S  S  
--------------------------------------------------------------------------|
--17-16-14----------------------------------------------------------------|
-----------16-15-13-16-15-13----------------------------------------------|
-----------------------------16-14-13-16-14-13----------------------------|
-----------------------------------------------16-14-13-16-14-13----------|
-----------------------------------------------------------------16-14-12-|


   Q    Q    H           W                   W                 
----------------------|-------------------|-------------------|
----------------------|-------------------|-------------------|
----------------------|-------------------|-------------------|
----------------------|-------------------|-------------------|
--16------------------|-------------------|-------------------|
----------------------|-------------------|-------------------|


  W                   W                   W                   W                 
-------------------|-------------------|-------------------|-------------------|
-------------------|-------------------|-------------------|-------------------|
-------------------|-------------------|-------------------|-------------------|
-------------------|-------------------|-------------------|-------------------|
-------------------|-------------------|-------------------|-------------------|
-------------------|-------------------|-------------------|-------------------|


  W                   W                   W                   W                 
-------------------|-------------------|-------------------|-------------------|
-------------------|-------------------|-------------------|-------------------|
-------------------|-------------------|-------------------|-------------------|
-------------------|-------------------|-------------------|-------------------|
-------------------|-------------------|-------------------|-------------------|
-------------------|-------------------|-------------------|-------------------|


  W                   W                    E   E   E   E   E   E   E   E   
-------------------|-------------------|----------------------------------|
-------------------|-------------------|------15--------------15----------|
-------------------|-------------------|--12------12--11--12------12--11--|
-------------------|-------------------|----------------------------------|
-------------------|-------------------|----------------------------------|
-------------------|-------------------|----------------------------------|


   E   E   E   E   E   E   E   E      E   E   E   E   E   E   E   E   
----------------------------------|----------------------------------|
------15--------------15----------|------15--------------15----------|
--12------12--11--12------12--11--|--12------12--11--12------12--11--|
----------------------------------|----------------------------------|
----------------------------------|----------------------------------|
----------------------------------|----------------------------------|


   E   E   E   Q     Q.         E   E   E   E   E   Q.      
----------------------------|------------------------------|
------15------17----16------|----------15----------17------|
--12------12----------------|--11--12------11--12----------|
----------------------------|------------------------------|
----------------------------|------------------------------|
----------------------------|------------------------------|


   E   E   E   E   E   Q.         E   E   E   E   E   Q.      
------------------------------|------------------------------|
----------15------------------|----------15----------17------|
--11--12------11--12--16------|--11--12------11--12----------|
------------------------------|------------------------------|
------------------------------|------------------------------|
------------------------------|------------------------------|


   E   E   E   Q     Q.        W                   W                 
----------------------------|-------------------|-------------------|
----------15--17----16------|-------------------|-------------------|
--11--12--------------------|-------------------|-------------------|
----------------------------|-------------------|-------------------|
----------------------------|-------------------|-------------------|
----------------------------|-------------------|-------------------|


  W                   W                   W                   W                 
-------------------|-------------------|-------------------|-------------------|
-------------------|-------------------|-------------------|-------------------|
-------------------|-------------------|-------------------|-------------------|
-------------------|-------------------|-------------------|-------------------|
-------------------|-------------------|-------------------|-------------------|
-------------------|-------------------|-------------------|-------------------|


                       |---3---|   |---3---|   |---3---|   |---3---|   
  W                    E   E   E   E   E   E   E   E   E   E   E   E   
-------------------|--12------12--14------14--16------16--14------14--|
-------------------|------14----------14----------14----------14------|
-------------------|--------------------------------------------------|
-------------------|--------------------------------------------------|
-------------------|--------------------------------------------------|
-------------------|--------------------------------------------------|


    W                   W                   W                 
|--------------------|-------------------|-------------------|
|--------------------|-------------------|-------------------|
|*-------------------|-------------------|-------------------|
|*-------------------|-------------------|-------------------|
|--------------------|-------------------|-------------------|
|--------------------|-------------------|-------------------|


  W                     W                   W                 
--------------------||-------------------|-------------------|
--------------------||-------------------|-------------------|
-------------------*||-------------------|-------------------|
-------------------*||-------------------|-------------------|
--------------------||-------------------|-------------------|
--------------------||-------------------|-------------------|


  W                   W                  
-------------------|-------------------||
-------------------|-------------------||
-------------------|-------------------||
-------------------|-------------------||
-------------------|-------------------||
-------------------|-------------------||




_________________________________________________________________________
*************************************************************************
_________________________________________________________________________





Lead Guitar II



       W                   W                   W                 
B ||--------------------|-------------------|-------------------|
F#||--------------------|-------------------|-------------------|
D ||*-------------------|-------------------|-------------------|
A ||*-------------------|-------------------|-------------------|
E ||--------------------|-------------------|-------------------|
B ||--------------------|-------------------|-------------------|


  W                     W                   W                 
--------------------||-------------------|-------------------|
--------------------||-------------------|-------------------|
-------------------*||-------------------|-------------------|
-------------------*||-------------------|-------------------|
--------------------||-------------------|-------------------|
--------------------||-------------------|-------------------|


  W                   W                   E  E   E  E  E   Q.      
-------------------|-------------------|--------------------------|
-------------------|-------------------|--------12--------13------|
-------------------|-------------------|--7--9------7--9----------|
-------------------|-------------------|--------------------------|
-------------------|-------------------|--------------------------|
-------------------|-------------------|--------------------------|


  E  E   E  E  E   Q.        E  E   E  E  E   Q.        E  E   E  Q    Q.      
--------------------------|--------------------------|------------------------|
--------12----------------|--------12--------13------|--------12--------------|
--7--9------7--9--12------|--7--9------7--9----------|--7--9------9----8------|
--------------------------|--------------------------|------------------------|
--------------------------|--------------------------|------------------------|
--------------------------|--------------------------|------------------------|


  W                   W                   W                   W                 
-------------------|-------------------|-------------------|-------------------|
-------------------|-------------------|-------------------|-------------------|
-------------------|-------------------|-------------------|-------------------|
-------------------|-------------------|-------------------|-------------------|
-------------------|-------------------|-------------------|-------------------|
-------------------|-------------------|-------------------|-------------------|


  W                   W                   W                   W                 
-------------------|-------------------|-------------------|-------------------|
-------------------|-------------------|-------------------|-------------------|
-------------------|-------------------|-------------------|-------------------|
-------------------|-------------------|-------------------|-------------------|
-------------------|-------------------|-------------------|-------------------|
-------------------|-------------------|-------------------|-------------------|


    W                   W                   W                 
|--------------------|-------------------|-------------------|
|--------------------|-------------------|-------------------|
|*-------------------|-------------------|-------------------|
|*-------------------|-------------------|-------------------|
|--------------------|-------------------|-------------------|
|--------------------|-------------------|-------------------|


  W                      W                   W                 
--------------------||--------------------|-------------------|
--------------------||--------------------|-------------------|
-------------------*||*-------------------|-------------------|
-------------------*||*-------------------|-------------------|
--------------------||--------------------|-------------------|
--------------------||--------------------|-------------------|


  W                   W                     W                 
-------------------|--------------------||-------------------|
-------------------|--------------------||-------------------|
-------------------|-------------------*||-------------------|
-------------------|-------------------*||-------------------|
-------------------|--------------------||-------------------|
-------------------|--------------------||-------------------|


  W                   W                   W                   W                 
-------------------|-------------------|-------------------|-------------------|
-------------------|-------------------|-------------------|-------------------|
-------------------|-------------------|-------------------|-------------------|
-------------------|-------------------|-------------------|-------------------|
-------------------|-------------------|-------------------|-------------------|
-------------------|-------------------|-------------------|-------------------|


  W                   W                   W                   W                 
-------------------|-------------------|-------------------|-------------------|
-------------------|-------------------|-------------------|-------------------|
-------------------|-------------------|-------------------|-------------------|
-------------------|-------------------|-------------------|-------------------|
-------------------|-------------------|-------------------|-------------------|
-------------------|-------------------|-------------------|-------------------|


  W                   W                   W                   W                 
-------------------|-------------------|-------------------|-------------------|
-------------------|-------------------|-------------------|-------------------|
-------------------|-------------------|-------------------|-------------------|
-------------------|-------------------|-------------------|-------------------|
-------------------|-------------------|-------------------|-------------------|
-------------------|-------------------|-------------------|-------------------|


  W                   W                   W                 
-------------------|-------------------|-------------------|
-------------------|-------------------|-------------------|
-------------------|-------------------|-------------------|
-------------------|-------------------|-------------------|
-------------------|-------------------|-------------------|
-------------------|-------------------|-------------------|


    W                   W                   W                 
|--------------------|-------------------|-------------------|
|--------------------|-------------------|-------------------|
|*-------------------|-------------------|-------------------|
|*-------------------|-------------------|-------------------|
|--------------------|-------------------|-------------------|
|--------------------|-------------------|-------------------|


  W                     W                   W                 
--------------------||-------------------|-------------------|
--------------------||-------------------|-------------------|
-------------------*||-------------------|-------------------|
-------------------*||-------------------|-------------------|
--------------------||-------------------|-------------------|
--------------------||-------------------|-------------------|


  W                   W                   W                   W                 
-------------------|-------------------|-------------------|-------------------|
-------------------|-------------------|-------------------|-------------------|
-------------------|-------------------|-------------------|-------------------|
-------------------|-------------------|-------------------|-------------------|
-------------------|-------------------|-------------------|-------------------|
-------------------|-------------------|-------------------|-------------------|


                                          |--3-|  |--3--|  |--3-|  |--3--|   
  W                   W                   Q    E  E  E  E  Q    E  E  E  E   
-------------------|-------------------|------------------------------------|
-------------------|-------------------|------------------------------------|
-------------------|-------------------|------------------------------------|
-------------------|-------------------|--6----------------6----------------|
-------------------|-------------------|--4----4--4--4--4--4----4--4--4--4--|
-------------------|-------------------|------------------------------------|


  |--3-|  |--3--|  |--3-|  |--3--|     |--3-|  |--3--|  |--3-|  |--3--|   
  Q    E  E  E  E  Q    E  E  E  E     Q    E  E  E  E  Q    E  E  E  E   
------------------------------------|------------------------------------|
------------------------------------|------------------------------------|
------------------------------------|------------------------------------|
--6----------------2----------------|--6----------------6----------------|
--4----4--4--4--4--0----0--0--0--0--|--4----4--4--4--4--4----4--4--4--4--|
------------------------------------|------------------------------------|


  |--3-|  |--3--|  |--3-|  |--3--|     |--3-|  |--3--|  |--3-|  |--3--|   
  Q    E  E  E  E  Q    E  E  E  E     Q    E  E  E  E  Q    E  E  E  E   
------------------------------------|------------------------------------|
------------------------------------|------------------------------------|
------------------------------------|------------------------------------|
--4---------------------------------|--6----------------6----------------|
--2----2--2--2--2--4----------------|--4----4--4--4--4--4----4--4--4--4--|
-------------------2----2--2--2--2--|------------------------------------|


  |--3-|  |--3--|  |--3-|  |--3--|     |--3-|  |--3--|  |--3-|  |--3--|   
  Q    E  E  E  E  Q    E  E  E  E     Q    E  E  E  E  Q    E  E  E  E   
------------------------------------|------------------------------------|
------------------------------------|------------------------------------|
------------------------------------|------------------------------------|
--6----------------2----------------|--6----------------6----------------|
--4----4--4--4--4--0----0--0--0--0--|--4----4--4--4--4--4----4--4--4--4--|
------------------------------------|------------------------------------|


  |--3-|  |--3--|  |--3-|  |--3--|                                           
  Q    E  E  E  E  Q    E  E  E  E     W                   W                 
------------------------------------|-------------------|-------------------|
------------------------------------|-------------------|-------------------|
------------------------------------|-------------------|-------------------|
--4---------------------------------|-------------------|-------------------|
--2----2--2--2--2--4----------------|-------------------|-------------------|
-------------------2----2--2--2--2--|-------------------|-------------------|


  W                   W                   W                   W                 
-------------------|-------------------|-------------------|-------------------|
-------------------|-------------------|-------------------|-------------------|
-------------------|-------------------|-------------------|-------------------|
-------------------|-------------------|-------------------|-------------------|
-------------------|-------------------|-------------------|-------------------|
-------------------|-------------------|-------------------|-------------------|


  W                   W                   W                   W                 
-------------------|-------------------|-------------------|-------------------|
-------------------|-------------------|-------------------|-------------------|
-------------------|-------------------|-------------------|-------------------|
-------------------|-------------------|-------------------|-------------------|
-------------------|-------------------|-------------------|-------------------|
-------------------|-------------------|-------------------|-------------------|


  W                   W                   W                   W                 
-------------------|-------------------|-------------------|-------------------|
-------------------|-------------------|-------------------|-------------------|
-------------------|-------------------|-------------------|-------------------|
-------------------|-------------------|-------------------|-------------------|
-------------------|-------------------|-------------------|-------------------|
-------------------|-------------------|-------------------|-------------------|


  W                   W                 
-------------------|-------------------|
-------------------|-------------------|
-------------------|-------------------|
-------------------|-------------------|
-------------------|-------------------|
-------------------|-------------------|


   |---3---|   |---3---|   |---3---|   |---3---|   
   E   E   E   E   E   E   E   E   E   E   E   E   
----------19----------------------19--------------|
--16--17------16--17------16--17------16--17------|
----------------------18----------------------18--|
--------------------------------------------------|
--------------------------------------------------|
--------------------------------------------------|


   |---3---|   |---3---|   |---3---|   |---3---|   
   E   E   E   E   E   E   E   E   E   E   E   E   
----------19----------------------19--------------|
--16--17------16--17------16--17------16--17------|
----------------------18----------------------18--|
--------------------------------------------------|
--------------------------------------------------|
--------------------------------------------------|


   |---3---|   |---3---|   |---3---|   |---3---|   
   E   E   E   E   E   E   E   E   E   E   E   E   
----------19----------------------19--------------|
--16--17------16--17------16--17------16--17------|
----------------------18----------------------18--|
--------------------------------------------------|
--------------------------------------------------|
--------------------------------------------------|


   |---3---|   |---3--|             
   E   E   E   Q      E   H         
---------------------19------------|
--16--17--19--19b--------17--------|
-----------------------------------|
-----------------------------------|
-----------------------------------|
-----------------------------------|


   |---3---|   |---3---|   |---3---|   |---3---|                       
   E   E   E   E   E   E   E   E   E   E   E   E     W                 
----------19----------------------19--------------|-------------------|
--16--17------16--17------16--17------16--17------|-------------------|
----------------------18----------------------18--|-------------------|
--------------------------------------------------|-------------------|
--------------------------------------------------|-------------------|
--------------------------------------------------|-------------------|


                                               |--3--|             
  W                   W                   Q    E  E  E  H          
-------------------|-------------------|--------------------------|
-------------------|-------------------|----------9--5--7~--------|
-------------------|-------------------|--------------------------|
-------------------|-------------------|--------------------------|
-------------------|-------------------|--------------------------|
-------------------|-------------------|--------------------------|


       |--3--|         |-3-|          |--3--|        |--3--|   
  Q    E  E  E  Q.     S S S    Q     E  E  E  Q     E  E  E   
-----------------------------|--------------------------------|
--L----L--9--5--7------9-7---|--------------------------------|
---------------------------9-|--8~----L--9--8--6~----L--8--6--|
-----------------------------|--------------------------------|
-----------------------------|--------------------------------|
-----------------------------|--------------------------------|


        |--3--|                                                    
  Q     E  E  E  H           W                   W                 
--------------------------|-------------------|-------------------|
--------------------------|-------------------|-------------------|
--4~----L--6--4--3--------|-------------------|-------------------|
--------------------------|-------------------|-------------------|
--------------------------|-------------------|-------------------|
--------------------------|-------------------|-------------------|


                                          |--3--|  |--3--|  |--3--|  |--3--|   
  W                   W                   E  E  E  E  E  E  E  E  E  E  E  E   
-------------------|-------------------|--------------------------------------|
-------------------|-------------------|--------------------------------------|
-------------------|-------------------|--6-----6--8-----8--9-----9--8-----8--|
-------------------|-------------------|-----6--------6--------6--------6-----|
-------------------|-------------------|--------------------------------------|
-------------------|-------------------|--------------------------------------|


  |--3--|  |--3--|  |--3--|  |--3--|     |--3--|  |--3--|  |--3--|  |--3--|   
  E  E  E  E  E  E  E  E  E  E  E  E     E  E  E  E  E  E  E  E  E  E  E  E   
--------------------------------------|--------------------------------------|
-----------------------------7-----7--|--------------------------------------|
--6-----6--8-----8--9-----9-----------|--6-----6--8-----8--9-----9--8-----8--|
-----6--------6--------6--------6-----|-----6--------6--------6--------6-----|
--------------------------------------|--------------------------------------|
--------------------------------------|--------------------------------------|


  |--3--|  |--3--|  |--3--|  |--3--|     |--3--|  |--3--|  |--3--|  |--3--|   
  E  E  E  E  E  E  E  E  E  E  E  E     E  E  E  E  E  E  E  E  E  E  E  E   
--------------------------------------|--------------------------------------|
-----------------------------7-----7--|--------------------------------------|
--6-----6--8-----8--9-----9-----------|--6-----6--8-----8--9-----9--8-----8--|
-----6--------6--------6--------6-----|-----6--------6--------6--------6-----|
--------------------------------------|--------------------------------------|
--------------------------------------|--------------------------------------|


  |--3--|  |--3--|  |--3--|  |--3--|      |---3--|  |--3--|  |--3--|  |--3--|   
  E  E  E  E  E  E  E  E  E  E  E  E      E  E   E  E  E  E  E  E  E  E  E  E   
--------------------------------------|----------------------------------------|
-----------------------------7-----7--|--10-----10--9-----9--7-----7-----------|
--6-----6--8-----8--9-----9-----------|------6---------6--------6-----9--6--8--|
-----6--------6--------6--------6-----|----------------------------------------|
--------------------------------------|----------------------------------------|
--------------------------------------|----------------------------------------|


   |---3--|  |--3--|  |--3--|  |--3--|                       
   E  E   E  E  E  E  E  E  E  E  E  E     W                 
----------------------------------------|-------------------|
--10-----10--9-----9--7-----7-----------|-------------------|
------6---------6--------6-----9--6--8--|--L----------------|
----------------------------------------|-------------------|
----------------------------------------|-------------------|
----------------------------------------|-------------------|


  W                   W                   W                   W                 
-------------------|-------------------|-------------------|-------------------|
-------------------|-------------------|-------------------|-------------------|
-------------------|-------------------|-------------------|-------------------|
-------------------|-------------------|-------------------|-------------------|
-------------------|-------------------|-------------------|-------------------|
-------------------|-------------------|-------------------|-------------------|


  W                   W                   W                   W                 
-------------------|-------------------|-------------------|-------------------|
-------------------|-------------------|-------------------|-------------------|
-------------------|-------------------|-------------------|-------------------|
-------------------|-------------------|-------------------|-------------------|
-------------------|-------------------|-------------------|-------------------|
-------------------|-------------------|-------------------|-------------------|


  E  E   E  E  E   Q.        E  E   E  E  E   Q.      
--------------------------|--------------------------|
--------12--------13------|--------12----------------|
--7--9------7--9----------|--7--9------7--9--12------|
--------------------------|--------------------------|
--------------------------|--------------------------|
--------------------------|--------------------------|


  E  E   E  E  E   Q.        E  E   E   Q     Q.        W                 
--------------------------|--------------------------|-------------------|
--------12--------13------|--------12--13----12------|-------------------|
--7--9------7--9----------|--7--9--------------------|-------------------|
--------------------------|--------------------------|-------------------|
--------------------------|--------------------------|-------------------|
--------------------------|--------------------------|-------------------|


  W                   W                   W                   W                 
-------------------|-------------------|-------------------|-------------------|
-------------------|-------------------|-------------------|-------------------|
-------------------|-------------------|-------------------|-------------------|
-------------------|-------------------|-------------------|-------------------|
-------------------|-------------------|-------------------|-------------------|
-------------------|-------------------|-------------------|-------------------|


  W                   W                   W                 
-------------------|-------------------|-------------------|
-------------------|-------------------|-------------------|
-------------------|-------------------|-------------------|
-------------------|-------------------|-------------------|
-------------------|-------------------|-------------------|
-------------------|-------------------|-------------------|


    W                   W                   W                 
|--------------------|-------------------|-------------------|
|--------------------|-------------------|-------------------|
|*-------------------|-------------------|-------------------|
|*-------------------|-------------------|-------------------|
|--------------------|-------------------|-------------------|
|--------------------|-------------------|-------------------|


  W                     W                   W                 
--------------------||-------------------|-------------------|
--------------------||-------------------|-------------------|
-------------------*||-------------------|-------------------|
-------------------*||-------------------|-------------------|
--------------------||-------------------|-------------------|
--------------------||-------------------|-------------------|


  W                   W                  
-------------------|-------------------||
-------------------|-------------------||
-------------------|-------------------||
-------------------|-------------------||
-------------------|-------------------||
-------------------|-------------------||




Duration Legend
---------------
W - whole
H - half
Q - quarter
E - 8th
S - 16th
T - 32nd
X - 64th
. - note dotted
|-n-|  - n-tuplets


Tablature Legend
----------------
L - tied note
x - dead note
g - grace note
(n) - ghost note
> - accentuded note
NH - natural harmonic
AH - artificial harmonic
TH - tapped harmonic
SH - semi harmonic
PH - pitch harmonic
h - hammer on
p - pull off
b - bend
br - bendRelease
pb - preBend
pbr - preBendRelease
brb - bendReleaseBend
\n/ - tremolo bar dip
\n - tremolo bar dive
-/n - tremolo bar Release up
/n\ - tremolo bar inverted dip
/n - tremolo bar return
-\n - tremolo bar Release down
S - shift slide
s - legato slide
/ -  slide into from below or out of upwards
\ -  slide into from above or out of downwards
~ - vibrato
W - wide vibrato
tr - trill
TP - tremolo picking
T - tapping
S - slap
P - pop
< - fade in
^ - brush up
v - brush down

comments
We did not receive enough feedback on this tab! Please rate:
print report bad tab
1 2 3 4 5
1 comment total.
0 reply
djGentoo wrote on October 17 2008, 05:28 pm

First comment and rating! Five stars, excellent tab.

I want to post or [tab]
guest
You may want to rate the tab now too:
select rating
Please do not post tabs as comments. Select "correction" instead!