Oops, an error
Loading. Please wait.

Stalemate Tab

1,502 views 3 this week
no commentswrite comment
1 2 3 4 5
worth learning
x 2
Autoscroll
+/-
esc
set tempo
stop
Contributor
Difficulty
intermediate
WARNING: You are trying to view
                                    content from Ultimate-Guitar.com
                                    in an unauthorized application,
                                    which is prohibited.

                                    Please use an official Ultimate
                                    Guitar Tabs application for iPhone,
                                    iPad or Android to access legitimate
                                    chords, guitar, bass, and drum tabs
                                    from Ultimate-Guitar.com database.

                                    Type "ultimate guitar tabs" in Apple
                                    App Store's or Android Market's
                                    search to find the application.
-------------------------------------------------------------------------------
                             STALEMATE by SOILWORK
-------------------------------------------------------------------------------
Tabbed by: Tunnock
Email: Tunnock@hotmail.co.uk

Tuning: C


Intro and Main Riff
|---------------------------------------------------------------------------|
|---------------------------------------------------------------------------|
|---------------------------------------------15-15-15-14-14-14-------------|
|---------------------------------------------------------------------------|
|2-5h7-5h7-5h7-5h7-5h7-22-8h10-8h10-8h10------13-13-13-12-12-12-------------|
|0----0---0---0---0----00-----0----0----------------------------------------|
 .    .   .   .   .    ..     .    .

|---------------------------------------------------------------------------|
|---------------------------------------------------------------------------|
|---------------------------------------------------------------------------|
|---------------------------------------------------------------------------|
|5h7-5h7-5h7-5h7-5h7-22-8h10-8h10-8h10----8-8-8-7-7-7-----------------------|
|---0---0---0---0----00-----0----0--------6-6-6-5-5-5-----------------------|
    .   .   .   .    ..     .    .

|---------------------------------------------------------------------------|
|---------------------------------------------------------------------------|
|-----------------------------------------15-15-15-14-14-14-----------------|
|---------------------------------------------------------------------------|
|5h7-5h7-5h7-5h7-5h7-22-8h10-8h10-8h10----13-13-13-12-12-12-----------------|
|---0---0---0---0----00-----0----0--------------------------------------------|
    .   .   .   .    ..     .    .

|---------------------------------------------------------------------------|
|---------------------------------------------------------------------------|
|---------------------------------------------------------------------------|
|------------------------7-5-----7-5----------------------------------------|
|5h7-5h7-5h7-5h7-5h7---------5-------5--------------------------------------|
|---0---0---0---0--------------7-------7------------------------------------|
    .   .   .   .

Pre-Chorus
|---------------------------------------------------------------------------|
|---------------------------------------------------------------------------|
|---------------------------------------------------------------------------|
|---------------------------------------------------------------------------|
|777------------------------------------------------------------------------|
|555-0-000-0------0-000-0-0-3\------0-000-0-------0-000-0-0-5\--------------|
     . ... .      . ... . .         . ... .       . ... . .

Chorus
|---------------------------------------------------------------------------|
|---------------------------------------------------------------------------|
|-9-9-----------------------9-9---------------------------------------------|
|-9-9-----------------4-4---9-9-------------------5-5-5-5-------------------|
|-7-7-----------2-555-2-2---7-7-------------2-555-3-3-3-3-------------------|
|---------0-0-0-0-333-----------------0-0-0-0-333---------------------------|
          . . .                       . . .
|---------------------------------------------------------------------------|
|---------------------------------------------------------------------------|
|-9-9-----------------------5-----------------------------------------------|
|-9-9-----------------4-4---5-----------------------------------------------|
|-7-7-----------2-555-2-2---3-----------------------------------------------|
|---------0-0-0-0-333-------------------------------------------------------|
          . . .

|---------------------------------------------------------------------------|
|---------------------------------------------------------------------------|
|-9-9-----------------------9-9---------------------------------------------|
|-9-9-----------------4-4---9-9-------------------5-5-5-5-------------------|
|-7-7-----------2-555-2-2---7-7-------------2-555-3-3-3-3-------------------|
|---------0-0-0-0-333-----------------0-0-0-0-333---------------------------|
          . . .                       . . .
|---------------------------------------------------------------------------|
|---------------------------------------------------------------------------|
|-9-9-----------------------5-4-------16-16-16-16-16-16---------------------|
|-9-9-----------------4-4---5-4---------------------------------------------|
|-7-7-----------2-555-2-2---3-2-------14-14-14-14-14-14---------------------|
|---------0-0-0-0-333-------------------------------------------------------|
          . . .


Pre-Chorus 2
|---------------------------------------------------------------------------|
|---------------------------------------------------------------------------|
|---------------------------------------------------------------------------|
|---------------------------------------------------------------------------|
|---------x-x-x-x-x-x-x-x-x-----------------x-x-x-x-x-x-x-x-x---------------|
|-0-000-0-x-x-x-x-x-x-x-x-x-3\------0-000-0-x-x-x-x-x-x-x-x-x-5\------------|
  . ... .                           . ... .

|---------------------------------------------------------------------------|
|---------------------------------------------------------------------------|
|---------------------------------------------------------12---11\----------|
|---------------------------------------------------------12---11\----------|
|---------x-x-x-x-x-x-x-x-x-----------------x-x-x-x-x-x-x-10-x-9-\----------|
|-0-000-0-x-x-x-x-x-x-x-x-x-3\------0-000-0-x-x-x-x-x-x-x----x--------------|
  . ... .                           . ... .

Chorus

Breakdown
|---------------------------------------------------------------------------|
|---------------------------------------------------------------------------|
|-9~------------------------------------------------------------------------|
|-9~---------------------------------7-7-------7-7--------------------------|
|-7~---------------------------------5-5-------4-4------7-5-----------------|
|-0~--------------------------------------0-0-------0-0-5-3-----------------|
                                          . .       . .

|---------------------------------------------------------------------------|
|---------------------------------------------------------------------------|
|-9\-----------------------------9\-----------------------------------------|
|-9\-----------------------------9\-----------------------------------------|
|-7\-----2-2-2h3-2-2-2h3-2-2-2h3-7\--2-2-2h3-2-2-3-3-5-5-3-3----------------|
|--------0-0-0h1-0-0-0h1-0-0-0h1-----0-0-0h1-0-0-1-1-3-3-1-1----------------|
         . .     . .     . . . .     . .     . . . . . . . .


|---------------------------------------------------------------------------|
|---------------------------------------------------------------------------|
|-9\-----------------------------9\-----------------------------------------|
|-9\-----------------------------9\--7-7-----7-7----------------------------|
|-7\-----2-2-2h3-2-2-2h3-2-2-2h3-7\--5-5-----4-4-----7-5--------------------|
|--------0-0-0h1-0-0-0h1-0-0-0h1---------0-0-----0-0-5-3--------------------|
         . .     . .     . . . .         . .     . .

|---------------------------------------------------------------------------|
|---------------------------------------------------------------------------|
|-9\-----------------------------9\-----------------------------------------|
|-9\-----------------------------9\-----------------------------------------|
|-7\-----2-2-2h3-2-2-2h3-2-2-2h3-7\--2-2-2h3-2-2-3-3-5-5-3-3----------------|
|--------0-0-0h1-0-0-0h1-0-0-0h1-----0-0-0h1-0-0-1-1-3-3-1-1----------------|
         . .     . .     . . . .     . .     . . . . . . . .


|---------------------------------------------------------------------------|
|---------------------------------------------------------------------------|
|-9\-----------------------------9\-----------------------------------------|
|-9\-----------------------------9\--7-7-----7-7-------12-------------------|
|-7\-----2-2-2h3-2-2-2h3-2-2-2h3-7\--5-5-----4-4----------------------------|
|--------0-0-0h1-0-0-0h1-0-0-0h1---------0-0-----0-0-0-10-------------------|
         . .     . .     . . . .         . .     . . .


|---------------------------------------------------------------------------|
|---------------------------------------------------------------------------|
|---------------------------------------------------------------------------|
|-*Short Pause*-------------------------------------------------------------|
|---------------------------------------------------------------------------|
|----------------0000000000000000-------------------------------------------|
                 ................


Main Riff (Except ending is)
|---------------------------------------------------------------------------|
|---------------------------------------------------------------------------|
|---------------------------------------------------------------------------|
|----------------------7-5-----7-5----------7-5-------7-5-------------------|
|-5h7-5h7-5h7-5h7-5h7------5-------5---777------5-<5>-----5-<5>-------------|
|----0---0---0---0-----------7-------7-555----------------------------------|
     .   .   .   .                     ...

Pre-Chorus

Pre-Chorus 2


| <> pinched harmonic
| .  palm mute
| /  slide up
| \  slide down
| h  hammer-on
| p  pull-off
| ~  vibrato
| +  harmonic
| x  Mute note
===============================================================================
comments
We did not receive enough feedback on this tab! Please rate:
print report bad tab
1 2 3 4 5
I want to post or [tab]
guest
You may want to rate the tab now too:
select rating
Please do not post tabs as comments. Select "correction" instead!