Oops, an error
Loading. Please wait.

Structure Divine Tab

ver1
ver1

Whole song

Interactive

More versions @911Tabs.com
497 views 1 this week
no commentswrite comment
1 2 3 4 5
please rate
Autoscroll
+/-
esc
set tempo
stop
Hey! There's an official Ultimate Guitar app which is ideal
for learning songs when you're away from computer. Get the app
WARNING: You are trying to view
                                    content from Ultimate-Guitar.com
                                    in an unauthorized application,
                                    which is prohibited.

                                    Please use an official Ultimate
                                    Guitar Tabs application for iPhone,
                                    iPad or Android to access legitimate
                                    chords, guitar, bass, and drum tabs
                                    from Ultimate-Guitar.com database.

                                    Type "ultimate guitar tabs" in Apple
                                    App Store's or Android Market's
                                    search to find the application.
                                STRUCTURE DIVINE
                             As recorded by Soilwork
                   (From the 2001 Album A PREDATOR'S PORTRAIT)

Words by Strid & BromanMusic by Wichers & Frenning
Transcribed by Justin Simms (reaper@slayerized.com)

Gtr I (B E A D G B) - 'Gtr I'
Gtr II (B E A D G B) - 'Gtr II'
Gtr III (B E A D G B) - 'Gtr III'
Gtr IV (B E A D G B) - 'Gtr IV'

  Q=96
 4/4
  Gtrs I, II
  S S S S S S S S S S S S S S S S
|---------------------------------|
|---------------------------------|
|---------------------------------|
|-------------4-------------------|
|-4-2-------------4-2-------------|
|-----5-4-5-4---------5-4-5-4-2---|


  H
|------|
|------|
|------|
|------|
|------|
|------|


  Gtr I
  S  E S E S E   S E   S E   S   S S S S S S S S S S S S S S S S
|------------------------------|----------------------------------|
|------------------------------|----------------------------------|
|------------------------------|----------------------------------|
|------------------------------|-4-4-4-4-4-4-4-4-4-4-4-4-4-4-4-4--|
|------------------------------|----------------------------------|
|-0--2-0-2-0-2---0-2---0-2---0-|----------------------------------|
|
| Gtr II
| Q.       S S S S S S S S S S   S S S S S S S S S S S S S S S S
|------------------------------|----------------------------------|
|------------9-9-9-9-9-9-9-9-9-|-8-8-8-8-8-8-9-9-9-9-9-9-9-9-9-9--|
|------------------------------|----------------------------------|
|------------7-7-7-7-7-7-7-7-7-|-6-6-6-6-6-6-7-7-7-7-7-7-7-7-7-7--|
|------------------------------|----------------------------------|
|------------------------------|----------------------------------|


  Gtr I
  PM    PM    PM    PM    PM    PM
  S E   S E   S E   S E   S E   S   S S S S S S S S S E   S E   S S
|---------------------------------|---------------------------------|
|---------------------------------|---------------------------------|
|---------------------------------|---------------------------------|
|---------------------------------|-------------------6-----6-----6-|
|-2-4---2-4---2-4---2-4---2-4---2-|-7-7-7-7-7-7-7-7-7-----7-----7---|
|-0-2---0-2---0-2---0-2---0-2---0-|---------------------------------|
|
| Gtr II
| S S S S S S S S S S S S S S S S   S S S S S S S S S S S S S S S S
|-9-9-9-9-9-9-9-9-9-9-9-9-9-9-9-9-|---------------------------------|
|---------------9-9-9-9-9-9-9-9-9-|-6-6-6-6-6-6-8-8-8-8-8-8-8-8-8-8-|
|-6-6-6-6-6-6-6-6-6-6-6-6-6-6-6-6-|---------------------------------|
|---------------7-7-7-7-7-7-7-7-7-|-4-4-4-4-4-4-6-6-6-6-6-6-6-6-6-6-|
|---------------------------------|---------------------------------|
|---------------------------------|---------------------------------|


  Gtr I
  S  E S E S E   S E   S E   S   S S S S S S S S S S S S S S S S
|------------------------------|----------------------------------|
|------------------------------|----------------------------------|
|------------------------------|----------------------------------|
|------------------------------|-4-4-4-4-4-4-4-4-4-4-4-4-4-4-4-4--|
|------------------------------|----------------------------------|
|-0--2-0-2-0-2---0-2---0-2---0-|----------------------------------|
|
| Gtr II
| Q.       S S S S S S S S S S   S S S S S S S S S S S S S S S S
|------------------------------|----------------------------------|
|------------9-9-9-9-9-9-9-9-9-|-8-8-8-8-8-8-9-9-9-9-9-9-9-9-9-9--|
|------------------------------|----------------------------------|
|------------7-7-7-7-7-7-7-7-7-|-6-6-6-6-6-6-7-7-7-7-7-7-7-7-7-7--|
|------------------------------|----------------------------------|
|------------------------------|----------------------------------|


  Gtr I
  PM    PM    PM    PM    PM    PM
  S E   S E   S E   S E   S E   S   S S S S S S S S S E   S E   S S
|---------------------------------|---------------------------------|
|---------------------------------|---------------------------------|
|---------------------------------|---------------------------------|
|---------------------------------|-------------------6-----6-----6-|
|-2-4---2-4---2-4---2-4---2-4---2-|-7-7-7-7-7-7-7-7-7-----7-----7---|
|-0-2---0-2---0-2---0-2---0-2---0-|---------------------------------|
|
| Gtr II
| S S S S S S S S S S S S S S S S   S S S S S S S S S S S S S S S S
|-9-9-9-9-9-9-9-9-9-9-9-9-9-9-9-9-|---------------------------------|
|---------------9-9-9-9-9-9-9-9-9-|-6-6-6-6-6-6-8-8-8-8-8-8-8-8-8-8-|
|-6-6-6-6-6-6-6-6-6-6-6-6-6-6-6-6-|---------------------------------|
|---------------7-7-7-7-7-7-7-7-7-|-4-4-4-4-4-4-6-6-6-6-6-6-6-6-6-6-|
|---------------------------------|---------------------------------|
|---------------------------------|---------------------------------|


  Q=193
  Gtrs I, II
  PM-------------------------------------
  E Q  S S E Q  S S   E Q  S S E Q  S S
|-------------------|-------------------|
|-------------------|-------------------|
|-------------------|-------------------|
|-------------------|-------------------|
|-2-2--2-2-2-2--2-2-|-2-2--2-2-2-2--2-2-|
|-0-0--0-0-0-0--0-0-|-0-0--0-0-0-0--0-0-|


 --------------------------------|
  E Q  S S E Q  S S   E Q  S S E E Q
|-------------------|-------------------|
|-------------------|-------------------|
|-------------------|-------------------|
|-------------------|-------------------|
|-2-2--2-2-2-2--2-2-|-2-2--2-2-2-2-5----|
|-0-0--0-0-0-0--0-0-|-0-0--0-0-0-0------|


  Q=193
  Gtr I
  PM------------------------------------------------------|
  E Q  S S E Q  S S   E Q  S S E Q  S S   E Q  S S E Q  S S   E E E E E E E E
|-------------------|-------------------|-------------------|-----------------|
|-------------------|-------------------|-------------------|-----------------|
|-------------------|-------------------|-------------------|---------------9-|
|-------------------|-------------------|-------------------|---7-6-----6-7---|
|-2-2--2-2-2-2--2-2-|-2-2--2-2-2-2--2-2-|-2-2--2-2-2-2--2-2-|-------8-7-------|
|-0-0--0-0-0-0--0-0-|-0-0--0-0-0-0--0-0-|-0-0--0-0-0-0--0-0-|-0---------------|
|
| Gtr II
| PM------------------------------------------------------|
| E Q  S S E Q  S S   E Q  S S E Q  S S   E Q  S S E Q  S S   E E E E E E E E
|-------------------|-------------------|-------------------|-----------------|
|-------------------|-------------------|-------------------|---------------8-|
|-------------------|-------------------|-------------------|---5-4-----4-5---|
|-------------------|-------------------|-------------------|-------7-5-------|
|-2-2--2-2-2-2--2-2-|-2-2--2-2-2-2--2-2-|-2-2--2-2-2-2--2-2-|-----------------|
|-0-0--0-0-0-0--0-0-|-0-0--0-0-0-0--0-0-|-0-0--0-0-0-0--0-0-|-0---------------|


  Gtr I
  PM--|     PM|       PM|     PM|     PM  PM    PM|     PM  PM  PM
  E E E E E E E E   E E E E E E E E   E E E E E E E E   E E E E E Q.
|-----------------|-----------------|-----------------|----------------|
|-----------------|-----------------|-----------------|----------------|
|-----------------|-----------------|-----------------|----------------|
|-----------------|-----------------|---------------7-|---6------------|
|-------8-7-----5-|-7-----8-7-----5-|---7---8-7-------|-------8---5----|
|-0-0-0-----0-0---|---0-0-----0-0---|-0---0-----0-0---|-0---0---0------|
|
| Gtr II
| PM--|     PM|       PM|     PM|     PM  PM    PM|     PM  PM  PM
| E E E E E E E E   E E E E E E E E   E E E E E E E E   E E E E E Q.
|-----------------|-----------------|-----------------|----------------|
|-----------------|-----------------|-----------------|----------------|
|-----------------|-----------------|---------------5-|---4------------|
|-------7-6-------|-6-----7-6-------|---6---7-6-------|-------7---3----|
|---------------8-|---------------8-|-----------------|----------------|
|-0-0-0-----0-0---|---0-0-----0-0---|-0---0-----0-0---|-0---0---0------|


  Gtr I
  PM--|     PM|       PM|     PM|     PM  PM    PM|     PM  PM  PM
  E E E E E E E E   E E E E E E E E   E E E E E E E E   E E E E E E E E
|-----------------|-----------------|-----------------|-----------------|
|-----------------|-----------------|-----------------|-----------------|
|-----------------|-----------------|-----------------|---------------9-|
|-----------------|-----------------|---------------7-|---6-------6-7---|
|-------8-7-----5-|-7-----8-7-----5-|---7---8-7-------|-------8---------|
|-0-0-0-----0-0---|---0-0-----0-0---|-0---0-----0-0---|-0---0---0-------|
|
| Gtr II
| PM--|     PM|       PM|     PM|     PM  PM    PM|     PM  PM  PM
| E E E E E E E E   E E E E E E E E   E E E E E E E E   E E E E E E E E
|-----------------|-----------------|-----------------|-----------------|
|-----------------|-----------------|-----------------|---------------8-|
|-----------------|-----------------|---------------5-|---4-------4-5---|
|-------7-6-------|-6-----7-6-------|---6---7-6-------|-------7---------|
|---------------8-|---------------8-|-----------------|-----------------|
|-0-0-0-----0-0---|---0-0-----0-0---|-0---0-----0-0---|-0---0---0-------|


  Q=96
  Gtr I
  S  E S E S E   S E   S E   S   S S S S S S S S S S S S S S S S
|------------------------------|----------------------------------|
|------------------------------|----------------------------------|
|------------------------------|----------------------------------|
|------------------------------|-4-4-4-4-4-4-4-4-4-4-4-4-4-4-4-4--|
|------------------------------|----------------------------------|
|-0--2-0-2-0-2---0-2---0-2---0-|----------------------------------|
|
| Gtr II
| Q.       S S S S S S S S S S   S S S S S S S S S S S S S S S S
|------------------------------|----------------------------------|
|------------9-9-9-9-9-9-9-9-9-|-8-8-8-8-8-8-9-9-9-9-9-9-9-9-9-9--|
|------------------------------|----------------------------------|
|------------7-7-7-7-7-7-7-7-7-|-6-6-6-6-6-6-7-7-7-7-7-7-7-7-7-7--|
|------------------------------|----------------------------------|
|------------------------------|----------------------------------|


  Gtr I
  PM    PM    PM    PM    PM    PM
  S E   S E   S E   S E   S E   S   S S S S S S S S S E   S E   S S
|---------------------------------|---------------------------------|
|---------------------------------|---------------------------------|
|---------------------------------|---------------------------------|
|---------------------------------|-------------------6-----6-----6-|
|-2-4---2-4---2-4---2-4---2-4---2-|-7-7-7-7-7-7-7-7-7-----7-----7---|
|-0-2---0-2---0-2---0-2---0-2---0-|---------------------------------|
|
| Gtr II
| S S S S S S S S S S S S S S S S   S S S S S S S S S S S S S S S S
|-9-9-9-9-9-9-9-9-9-9-9-9-9-9-9-9-|---------------------------------|
|---------------9-9-9-9-9-9-9-9-9-|-6-6-6-6-6-6-8-8-8-8-8-8-8-8-8-8-|
|-6-6-6-6-6-6-6-6-6-6-6-6-6-6-6-6-|---------------------------------|
|---------------7-7-7-7-7-7-7-7-7-|-4-4-4-4-4-4-6-6-6-6-6-6-6-6-6-6-|
|---------------------------------|---------------------------------|
|---------------------------------|---------------------------------|


  Gtr I
  S  E S E S E   S E   S E   S   S S S S S S S S S S S S S S S S
|------------------------------|----------------------------------|
|------------------------------|----------------------------------|
|------------------------------|----------------------------------|
|------------------------------|-4-4-4-4-4-4-4-4-4-4-4-4-4-4-4-4--|
|------------------------------|----------------------------------|
|-0--2-0-2-0-2---0-2---0-2---0-|----------------------------------|
|
| Gtr II
| Q.       S S S S S S S S S S   S S S S S S S S S S S S S S S S
|------------------------------|----------------------------------|
|------------9-9-9-9-9-9-9-9-9-|-8-8-8-8-8-8-9-9-9-9-9-9-9-9-9-9--|
|------------------------------|----------------------------------|
|------------7-7-7-7-7-7-7-7-7-|-6-6-6-6-6-6-7-7-7-7-7-7-7-7-7-7--|
|------------------------------|----------------------------------|
|------------------------------|----------------------------------|


  Gtr I
  PM    PM    PM    PM    PM    PM
  S E   S E   S E   S E   S E   S   S S S S S S S S S E   S E   S S
|---------------------------------|---------------------------------|
|---------------------------------|---------------------------------|
|---------------------------------|---------------------------------|
|---------------------------------|-------------------6-----6-----6-|
|-2-4---2-4---2-4---2-4---2-4---2-|-7-7-7-7-7-7-7-7-7-----7-----7---|
|-0-2---0-2---0-2---0-2---0-2---0-|---------------------------------|
|
| Gtr II
| S S S S S S S S S S S S S S S S   S S S S S S S S S S S S S S S S
|-9-9-9-9-9-9-9-9-9-9-9-9-9-9-9-9-|---------------------------------|
|---------------9-9-9-9-9-9-9-9-9-|-6-6-6-6-6-6-8-8-8-8-8-8-8-8-8-8-|
|-6-6-6-6-6-6-6-6-6-6-6-6-6-6-6-6-|---------------------------------|
|---------------7-7-7-7-7-7-7-7-7-|-4-4-4-4-4-4-6-6-6-6-6-6-6-6-6-6-|
|---------------------------------|---------------------------------|
|---------------------------------|---------------------------------|


  Q=193
  Gtrs I, II
  PM-------------------------------------
  E Q  S S E Q  S S   E Q  S S E Q  S S
|-------------------|-------------------|
|-------------------|-------------------|
|-------------------|-------------------|
|-------------------|-------------------|
|-2-2--2-2-2-2--2-2-|-2-2--2-2-2-2--2-2-|
|-0-0--0-0-0-0--0-0-|-0-0--0-0-0-0--0-0-|


 --------------------------------|
  E Q  S S E Q  S S   E Q  S S E E Q
|-------------------|-------------------|
|-------------------|-------------------|
|-------------------|-------------------|
|-------------------|-------------------|
|-2-2--2-2-2-2--2-2-|-2-2--2-2-2-2-5----|
|-0-0--0-0-0-0--0-0-|-0-0--0-0-0-0------|


  Q=193
  Gtr I
  PM------------------------------------------------------|
  E Q  S S E Q  S S   E Q  S S E Q  S S   E Q  S S E Q  S S   E E E E E E E E
|-------------------|-------------------|-------------------|-----------------|
|-------------------|-------------------|-------------------|-----------------|
|-------------------|-------------------|-------------------|---------------9-|
|-------------------|-------------------|-------------------|---7-6-----6-7---|
|-2-2--2-2-2-2--2-2-|-2-2--2-2-2-2--2-2-|-2-2--2-2-2-2--2-2-|-------8-7-------|
|-0-0--0-0-0-0--0-0-|-0-0--0-0-0-0--0-0-|-0-0--0-0-0-0--0-0-|-0---------------|
|
| Gtr II
| PM------------------------------------------------------|
| E Q  S S E Q  S S   E Q  S S E Q  S S   E Q  S S E Q  S S   E E E E E E E E
|-------------------|-------------------|-------------------|-----------------|
|-------------------|-------------------|-------------------|---------------8-|
|-------------------|-------------------|-------------------|---5-4-----4-5---|
|-------------------|-------------------|-------------------|-------7-5-------|
|-2-2--2-2-2-2--2-2-|-2-2--2-2-2-2--2-2-|-2-2--2-2-2-2--2-2-|-----------------|
|-0-0--0-0-0-0--0-0-|-0-0--0-0-0-0--0-0-|-0-0--0-0-0-0--0-0-|-0---------------|


  Gtr I
  PM--|     PM|       PM|     PM|     PM  PM    PM|     PM  PM  PM
  E E E E E E E E   E E E E E E E E   E E E E E E E E   E E E E E Q.
|-----------------|-----------------|-----------------|----------------|
|-----------------|-----------------|-----------------|----------------|
|-----------------|-----------------|-----------------|----------------|
|-----------------|-----------------|---------------7-|---6------------|
|-------8-7-----5-|-7-----8-7-----5-|---7---8-7-------|-------8---5----|
|-0-0-0-----0-0---|---0-0-----0-0---|-0---0-----0-0---|-0---0---0------|
|
| Gtr II
| PM--|     PM|       PM|     PM|     PM  PM    PM|     PM  PM  PM
| E E E E E E E E   E E E E E E E E   E E E E E E E E   E E E E E Q.
|-----------------|-----------------|-----------------|----------------|
|-----------------|-----------------|-----------------|----------------|
|-----------------|-----------------|---------------5-|---4------------|
|-------7-6-------|-6-----7-6-------|---6---7-6-------|-------7---3----|
|---------------8-|---------------8-|-----------------|----------------|
|-0-0-0-----0-0---|---0-0-----0-0---|-0---0-----0-0---|-0---0---0------|


  Gtr I
  PM--|     PM|       PM|     PM|     PM  PM    PM|     PM  PM  PM
  E E E E E E E E   E E E E E E E E   E E E E E E E E   E E E E E E E E
|-----------------|-----------------|-----------------|-----------------|
|-----------------|-----------------|-----------------|-----------------|
|-----------------|-----------------|-----------------|---------------9-|
|-----------------|-----------------|---------------7-|---6-------6-7---|
|-------8-7-----5-|-7-----8-7-----5-|---7---8-7-------|-------8---------|
|-0-0-0-----0-0---|---0-0-----0-0---|-0---0-----0-0---|-0---0---0-------|
|
| Gtr II
| PM--|     PM|       PM|     PM|     PM  PM    PM|     PM  PM  PM
| E E E E E E E E   E E E E E E E E   E E E E E E E E   E E E E E E E E
|-----------------|-----------------|-----------------|-----------------|
|-----------------|-----------------|-----------------|---------------8-|
|-----------------|-----------------|---------------5-|---4-------4-5---|
|-------7-6-------|-6-----7-6-------|---6---7-6-------|-------7---------|
|---------------8-|---------------8-|-----------------|-----------------|
|-0-0-0-----0-0---|---0-0-----0-0---|-0---0-----0-0---|-0---0---0-------|


    Gtrs I, II
    E E E E E E E E   +E  E E E E E E E  4x
||------------------|--------------------||-|
||o-----------------|-------------------o||-|
||--9-9-9-9-9-5---7-|-----7-7-7-7-7-7-7--||-|
||--9-9-9-9-9-5---7-|-----7-7-7-7-7-7-7--||-|
||o-7-7-7-7-7-3---5-|-(5)-5-5-5-5-5-5-5-o||-|
||------------------|--------------------||-|


    Gtr III
     E  E E  E E  E E  E +E   E  E  E  E  E  E  E  3x
||-------------------------------------------------||-|
||o-----------------------------------------------o||-|
||---9--9-9--9-9--5----7------7--7--7--7--7--7--7--||-|
||---9--9-9--9-9--5----7------7--7--7--7--7--7--7--||-|
||o--7--7-7--7-7--3----5-(5)--5--5--5--5--5--5--5-o||-|
||-------------------------------------------------||-|
|
|   Gtr I
|    E  E E  Q    Q    Q      E  E  E  E  E  E  E  3x
||-----15------------------------------------------||-|
||o-12-----------------------14-------------------o||-|
||--------9-----------12--------16-12-14-12--------||-|
||----------10---10-------------------------15-14--||-|
||o-----------------------------------------------o||-|
||-------------------------------------------------||-|
|
|   Gtr III
|    E  E E  Q    Q    Q      E  E  E  E  E  E  E  3x
||-----15------------------------------------------||-|
||o-12--------------------------------------------o||-|
||--------9------------------16-12-----------------||-|
||----------10---10---12---------------------------||-|
||o--------------------------------14-15-14-12----o||-|
||---------------------------------------------15--||-|


  Gtr III
   E  E E  E E  E E  E +E   E  E  E  E  E  E  E
|-----------------------------------------------|
|-----------------------------------------------|
|--9--9-9--9-9--5----7------7--7--7--7--7--7--7-|
|--9--9-9--9-9--5----7------7--7--7--7--7--7--7-|
|--7--7-7--7-7--3----5-(5)--5--5--5--5--5--5--5-|
|-----------------------------------------------|
|
| Gtr I
|  E  E E  Q    Q    Q      E  E  E  E  E  E  E
|----15-----------------------------------------|
|-12-----------------------14-------14----------|
|-------9-----------14--------14-12----14-12----|
|---------10---10----------------------------12-|
|-----------------------------------------------|
|-----------------------------------------------|
|
| Gtr III
|  E  E E  Q    Q    Q      E  E  E  E  E  E  E
|----15-----------------------------------------|
|-12--------------------------------------------|
|-------9------------------14-------14----------|
|---------10---10---14--------12-------16-12----|
|--------------------------------14----------14-|
|-----------------------------------------------|


  Q=96
  Gtr I
  S  E S E S E   S E   S E   S   S S S S S S S S S S S S S S S S
|------------------------------|----------------------------------|
|------------------------------|----------------------------------|
|------------------------------|----------------------------------|
|------------------------------|-4-4-4-4-4-4-4-4-4-4-4-4-4-4-4-4--|
|------------------------------|----------------------------------|
|-0--2-0-2-0-2---0-2---0-2---0-|----------------------------------|
|
| Gtr II
| Q.       S S S S S S S S S S   S S S S S S S S S S S S S S S S
|------------------------------|----------------------------------|
|------------9-9-9-9-9-9-9-9-9-|-8-8-8-8-8-8-9-9-9-9-9-9-9-9-9-9--|
|------------------------------|----------------------------------|
|------------7-7-7-7-7-7-7-7-7-|-6-6-6-6-6-6-7-7-7-7-7-7-7-7-7-7--|
|------------------------------|----------------------------------|
|------------------------------|----------------------------------|


  Gtr I
  PM    PM    PM    PM    PM    PM
  S E   S E   S E   S E   S E   S   S S S S S S S S S E   S E   S S
|---------------------------------|---------------------------------|
|---------------------------------|---------------------------------|
|---------------------------------|---------------------------------|
|---------------------------------|-------------------6-----6-----6-|
|-2-4---2-4---2-4---2-4---2-4---2-|-7-7-7-7-7-7-7-7-7-----7-----7---|
|-0-2---0-2---0-2---0-2---0-2---0-|---------------------------------|
|
| Gtr II
| S S S S S S S S S S S S S S S S   S S S S S S S S S S S S S S S S
|-9-9-9-9-9-9-9-9-9-9-9-9-9-9-9-9-|---------------------------------|
|---------------9-9-9-9-9-9-9-9-9-|-6-6-6-6-6-6-8-8-8-8-8-8-8-8-8-8-|
|-6-6-6-6-6-6-6-6-6-6-6-6-6-6-6-6-|---------------------------------|
|---------------7-7-7-7-7-7-7-7-7-|-4-4-4-4-4-4-6-6-6-6-6-6-6-6-6-6-|
|---------------------------------|---------------------------------|
|---------------------------------|---------------------------------|


  Gtr I
  S  E S E S E   S E   S E   S   S S S S S S S S S S S S S S S S
|------------------------------|----------------------------------|
|------------------------------|----------------------------------|
|------------------------------|----------------------------------|
|------------------------------|-4-4-4-4-4-4-4-4-4-4-4-4-4-4-4-4--|
|------------------------------|----------------------------------|
|-0--2-0-2-0-2---0-2---0-2---0-|----------------------------------|
|
| Gtr II
| Q.       S S S S S S S S S S   S S S S S S S S S S S S S S S S
|------------------------------|----------------------------------|
|------------9-9-9-9-9-9-9-9-9-|-8-8-8-8-8-8-9-9-9-9-9-9-9-9-9-9--|
|------------------------------|----------------------------------|
|------------7-7-7-7-7-7-7-7-7-|-6-6-6-6-6-6-7-7-7-7-7-7-7-7-7-7--|
|------------------------------|----------------------------------|
|------------------------------|----------------------------------|


  Gtr I
  PM    PM    PM    PM    PM    PM
  S E   S E   S E   S E   S E   S   S S S S S S S S S E   S E   S S
|---------------------------------|---------------------------------|
|---------------------------------|---------------------------------|
|---------------------------------|---------------------------------|
|---------------------------------|-------------------6-----6-----6-|
|-2-4---2-4---2-4---2-4---2-4---2-|-7-7-7-7-7-7-7-7-7-----7-----7---|
|-0-2---0-2---0-2---0-2---0-2---0-|---------------------------------|
|
| Gtr II
| S S S S S S S S S S S S S S S S   S S S S S S S S S S S S S S S S
|-9-9-9-9-9-9-9-9-9-9-9-9-9-9-9-9-|---------------------------------|
|---------------9-9-9-9-9-9-9-9-9-|-6-6-6-6-6-6-8-8-8-8-8-8-8-8-8-8-|
|-6-6-6-6-6-6-6-6-6-6-6-6-6-6-6-6-|---------------------------------|
|---------------7-7-7-7-7-7-7-7-7-|-4-4-4-4-4-4-6-6-6-6-6-6-6-6-6-6-|
|---------------------------------|---------------------------------|
|---------------------------------|---------------------------------|


  Q=193
  Gtrs I, II
  PM-------------------------------------
  E Q  S S E Q  S S   E Q  S S E Q  S S
|-------------------|-------------------|
|-------------------|-------------------|
|-------------------|-------------------|
|-------------------|-------------------|
|-2-2--2-2-2-2--2-2-|-2-2--2-2-2-2--2-2-|
|-0-0--0-0-0-0--0-0-|-0-0--0-0-0-0--0-0-|


 --------------------------------|
  E Q  S S E Q  S S   E Q  S S E E Q
|-------------------|-------------------|
|-------------------|-------------------|
|-------------------|-------------------|
|-------------------|-------------------|
|-2-2--2-2-2-2--2-2-|-2-2--2-2-2-2-5----|
|-0-0--0-0-0-0--0-0-|-0-0--0-0-0-0------|


  Q=193
  Gtr I
  PM------------------------------------------------------|
  E Q  S S E Q  S S   E Q  S S E Q  S S   E Q  S S E Q  S S   E E E E E E E E
|-------------------|-------------------|-------------------|-----------------|
|-------------------|-------------------|-------------------|-----------------|
|-------------------|-------------------|-------------------|---------------9-|
|-------------------|-------------------|-------------------|---7-6-----6-7---|
|-2-2--2-2-2-2--2-2-|-2-2--2-2-2-2--2-2-|-2-2--2-2-2-2--2-2-|-------8-7-------|
|-0-0--0-0-0-0--0-0-|-0-0--0-0-0-0--0-0-|-0-0--0-0-0-0--0-0-|-0---------------|
|
| Gtr II
| PM------------------------------------------------------|
| E Q  S S E Q  S S   E Q  S S E Q  S S   E Q  S S E Q  S S   E E E E E E E E
|-------------------|-------------------|-------------------|-----------------|
|-------------------|-------------------|-------------------|---------------8-|
|-------------------|-------------------|-------------------|---5-4-----4-5---|
|-------------------|-------------------|-------------------|-------7-5-------|
|-2-2--2-2-2-2--2-2-|-2-2--2-2-2-2--2-2-|-2-2--2-2-2-2--2-2-|-----------------|
|-0-0--0-0-0-0--0-0-|-0-0--0-0-0-0--0-0-|-0-0--0-0-0-0--0-0-|-0---------------|


  Gtr I
  PM--|     PM|       PM|     PM|     PM  PM    PM|     PM  PM  PM
  E E E E E E E E   E E E E E E E E   E E E E E E E E   E E E E E Q.
|-----------------|-----------------|-----------------|----------------|
|-----------------|-----------------|-----------------|----------------|
|-----------------|-----------------|-----------------|----------------|
|-----------------|-----------------|---------------7-|---6------------|
|-------8-7-----5-|-7-----8-7-----5-|---7---8-7-------|-------8---5----|
|-0-0-0-----0-0---|---0-0-----0-0---|-0---0-----0-0---|-0---0---0------|
|
| Gtr II
| PM--|     PM|       PM|     PM|     PM  PM    PM|     PM  PM  PM
| E E E E E E E E   E E E E E E E E   E E E E E E E E   E E E E E Q.
|-----------------|-----------------|-----------------|----------------|
|-----------------|-----------------|-----------------|----------------|
|-----------------|-----------------|---------------5-|---4------------|
|-------7-6-------|-6-----7-6-------|---6---7-6-------|-------7---3----|
|---------------8-|---------------8-|-----------------|----------------|
|-0-0-0-----0-0---|---0-0-----0-0---|-0---0-----0-0---|-0---0---0------|


  Gtr I
  PM--|     PM|       PM|     PM|     PM  PM    PM|     PM  PM  PM
  E E E E E E E E   E E E E E E E E   E E E E E E E E   E E E E E E E E
|-----------------|-----------------|-----------------|-----------------|
|-----------------|-----------------|-----------------|-----------------|
|-----------------|-----------------|-----------------|---------------9-|
|-----------------|-----------------|---------------7-|---6-------6-7---|
|-------8-7-----5-|-7-----8-7-----5-|---7---8-7-------|-------8---------|
|-0-0-0-----0-0---|---0-0-----0-0---|-0---0-----0-0---|-0---0---0-------|
|
| Gtr II
| PM--|     PM|       PM|     PM|     PM  PM    PM|     PM  PM  PM
| E E E E E E E E   E E E E E E E E   E E E E E E E E   E E E E E E E E
|-----------------|-----------------|-----------------|-----------------|
|-----------------|-----------------|-----------------|---------------8-|
|-----------------|-----------------|---------------5-|---4-------4-5---|
|-------7-6-------|-6-----7-6-------|---6---7-6-------|-------7---------|
|---------------8-|---------------8-|-----------------|-----------------|
|-0-0-0-----0-0---|---0-0-----0-0---|-0---0-----0-0---|-0---0---0-------|


    Gtrs I, II
    E E E E E E E E   +E  E E E E E E E  4x
||------------------|--------------------||-|
||o-----------------|-------------------o||-|
||--9-9-9-9-9-5---7-|-----7-7-7-7-7-7-7--||-|
||--9-9-9-9-9-5---7-|-----7-7-7-7-7-7-7--||-|
||o-7-7-7-7-7-3---5-|-(5)-5-5-5-5-5-5-5-o||-|
||------------------|--------------------||-|


    Gtr III
     E  E E  E E  E E  E +E   E  E  E  E  E  E  E  3x
||-------------------------------------------------||-|
||o-----------------------------------------------o||-|
||---9--9-9--9-9--5----7------7--7--7--7--7--7--7--||-|
||---9--9-9--9-9--5----7------7--7--7--7--7--7--7--||-|
||o--7--7-7--7-7--3----5-(5)--5--5--5--5--5--5--5-o||-|
||-------------------------------------------------||-|
|
|   Gtr I
|    E  E E  Q    Q    Q      E  E  E  E  E  E  E  3x
||-----15------------------------------------------||-|
||o-12-----------------------14-------------------o||-|
||--------9-----------12--------16-12-14-12--------||-|
||----------10---10-------------------------15-14--||-|
||o-----------------------------------------------o||-|
||-------------------------------------------------||-|
|
|   Gtr III
|    E  E E  Q    Q    Q      E  E  E  E  E  E  E  3x
||-----15------------------------------------------||-|
||o-12--------------------------------------------o||-|
||--------9------------------16-12-----------------||-|
||----------10---10---12---------------------------||-|
||o--------------------------------14-15-14-12----o||-|
||---------------------------------------------15--||-|


  Gtr III
   E  E E  E E  E E  E +E   E  E  E  E  E  E  E
|-----------------------------------------------|
|-----------------------------------------------|
|--9--9-9--9-9--5----7------7--7--7--7--7--7--7-|
|--9--9-9--9-9--5----7------7--7--7--7--7--7--7-|
|--7--7-7--7-7--3----5-(5)--5--5--5--5--5--5--5-|
|-----------------------------------------------|
|
| Gtr I
|  E  E E  Q    Q    Q      E  E  E  E  E  E  E
|----15-----------------------------------------|
|-12-----------------------14-------14----------|
|-------9-----------14--------14-12----14-12----|
|---------10---10----------------------------12-|
|-----------------------------------------------|
|-----------------------------------------------|
|
| Gtr III
|  E  E E  Q    Q    Q      E  E  E  E  E  E  E
|----15-----------------------------------------|
|-12--------------------------------------------|
|-------9------------------14-------14----------|
|---------10---10---14--------12-------16-12----|
|--------------------------------14----------14-|
|-----------------------------------------------|


  Q=96
   S S S E E Q  +S   Q
|-------------------------|
|-------------------------|
|-------------------------|
|-10-9-7------------------|
|--------7-9-4--(4)--6----|
|-------------------------|
|
|  S S S E E Q  +S   Q
|-------------------------|
|--4----------------------|
|----7-5-----9--(9)-11----|
|--------5-7-7--(7)--9----|
|-------------------------|
|-------------------------|


  PM-----------------------|        PM  PM  PM
  S S E. S E. S E. S E   E Q  +S  S S S S S S E.
|----------------------|---------------------------|
|----------------------|---------------------------|
|----------------------|---------------------------|
|----------------------|----------7---6------------|
|-2-2-2--2-2--2-2--2-2-|-2-2--------------8---5----|
|-0-0-0--0-0--0-0--0-0-|-0-0--(0)---0---0---0------|
|
| PM-----------------------|        PM  PM  PM
| S S E. S E. S E. S E   E Q  +S  S S S S S S E.
|----------------------|---------------------------|
|----------------------|---------------------------|
|----------------------|----------5---4------------|
|----------------------|------------------7---3----|
|-2-2-2--2-2--2-2--2-2-|-2-2-----------------------|
|-0-0-0--0-0--0-0--0-0-|-0-0--(0)---0---0---0------|


  PM-----------------------|        PM  PM  PM
  S S E. S E. S E. S E   E Q  +S  S S S S S S S S S
|----------------------|----------------------------|
|----------------------|----------------------------|
|----------------------|--------------------------9-|
|----------------------|----------7---6-------6-7---|
|-2-2-2--2-2--2-2--2-2-|-2-2--------------8---------|
|-0-0-0--0-0--0-0--0-0-|-0-0--(0)---0---0---0-------|
|
| PM-----------------------|        PM  PM  PM
| S S E. S E. S E. S E   E Q  +S  S S S S S S S S S
|----------------------|----------------------------|
|----------------------|--------------------------8-|
|----------------------|----------5---4-------4-5---|
|----------------------|------------------7---------|
|-2-2-2--2-2--2-2--2-2-|-2-2------------------------|
|-0-0-0--0-0--0-0--0-0-|-0-0--(0)---0---0---0-------|


  PM-----------------------|        PM  PM  PM
  S S E. S E. S E. S E   E Q  +S  S S S S S S E.
|----------------------|---------------------------|
|----------------------|---------------------------|
|----------------------|---------------------------|
|----------------------|----------7---6------------|
|-2-2-2--2-2--2-2--2-2-|-2-2--------------8---5----|
|-0-0-0--0-0--0-0--0-0-|-0-0--(0)---0---0---0------|
|
| PM-----------------------|        PM  PM  PM
| S S E. S E. S E. S E   E Q  +S  S S S S S S E.
|----------------------|---------------------------|
|----------------------|---------------------------|
|----------------------|----------5---4------------|
|----------------------|------------------7---3----|
|-2-2-2--2-2--2-2--2-2-|-2-2-----------------------|
|-0-0-0--0-0--0-0--0-0-|-0-0--(0)---0---0---0------|


  PM-----------------------|        PM  PM  PM
  S S E. S E. S E. S E   E Q  +S  S S S S S S S S S
|----------------------|----------------------------|
|----------------------|----------------------------|
|----------------------|--------------------------9-|
|----------------------|----------7---6-------6-7---|
|-2-2-2--2-2--2-2--2-2-|-2-2--------------8---------|
|-0-0-0--0-0--0-0--0-0-|-0-0--(0)---0---0---0-------|
|
| PM-----------------------|        PM  PM  PM
| S S E. S E. S E. S E   E Q  +S  S S S S S S S S S
|----------------------|----------------------------|
|----------------------|--------------------------8-|
|----------------------|----------5---4-------4-5---|
|----------------------|------------------7---------|
|-2-2-2--2-2--2-2--2-2-|-2-2------------------------|
|-0-0-0--0-0--0-0--0-0-|-0-0--(0)---0---0---0-------|


  Gtr IV
  E. S S S H    +E    E. S S S H    +E
|----------5----(5)-|----------5----(5)-|
|-------------------|-------------------|
|--------7----------|--------2----------|
|------7------------|------2------------|
|-5--5--------------|-4--4--------------|
|-------------------|-------------------|


  Gtr IV
  E. S S S H    +E    E. E. E E. E. E
|----------3----(3)-|-----------------|
|-------------------|----2----------1-|
|--------7----------|-------3---------|
|------5------------|------------2----|
|-3--3--------------|-1-------0-------|
|-------------------|-----------------|


  Gtr IV
  E. S S S H    +E    E. S S S H    +E
|----------5----(5)-|----------5----(5)-|
|-------------------|-------------------|
|--------7----------|--------2----------|
|------7------------|------2------------|
|-5--5--------------|-4--4--------------|
|-------------------|-------------------|


  Gtr IV
  E. S S S H    +E    E. E. E E. E. E
|----------3----(3)-|-----------------|
|-------------------|----2----------1-|
|--------7----------|-------3---------|
|------5------------|------------2----|
|-3--3--------------|-1-------0-------|
|-------------------|-----------------|


  Q=193
  Gtr I
  PM--|     PM|       PM|     PM|     PM  PM    PM|     PM  PM  PM
  E E E E E E E E   E E E E E E E E   E E E E E E E E   E E E E E Q.
|-----------------|-----------------|-----------------|----------------|
|-----------------|-----------------|-----------------|----------------|
|-----------------|-----------------|-----------------|----------------|
|-----------------|-----------------|---------------7-|---6------------|
|-------8-7-----5-|-7-----8-7-----5-|---7---8-7-------|-------8---5----|
|-0-0-0-----0-0---|---0-0-----0-0---|-0---0-----0-0---|-0---0---0------|
|
| Gtr II
| PM--|     PM|       PM|     PM|     PM  PM    PM|     PM  PM  PM
| E E E E E E E E   E E E E E E E E   E E E E E E E E   E E E E E Q.
|-----------------|-----------------|-----------------|----------------|
|-----------------|-----------------|-----------------|----------------|
|-----------------|-----------------|---------------5-|---4------------|
|-------7-6-------|-6-----7-6-------|---6---7-6-------|-------7---3----|
|---------------8-|---------------8-|-----------------|----------------|
|-0-0-0-----0-0---|---0-0-----0-0---|-0---0-----0-0---|-0---0---0------|


  Q=193
  Gtrs I, II
  PM-------------------------------------
  E Q  S S E Q  S S   E Q  S S E Q  S S
|-------------------|-------------------|
|-------------------|-------------------|
|-------------------|-------------------|
|-------------------|-------------------|
|-2-2--2-2-2-2--2-2-|-2-2--2-2-2-2--2-2-|
|-0-0--0-0-0-0--0-0-|-0-0--0-0-0-0--0-0-|


 --------------------------------|
  E Q  S S E Q  S S   E Q  S S E E Q
|-------------------|-------------------|
|-------------------|-------------------|
|-------------------|-------------------|
|-------------------|-------------------|
|-2-2--2-2-2-2--2-2-|-2-2--2-2-2-2-5----|
|-0-0--0-0-0-0--0-0-|-0-0--0-0-0-0------|


  Q=193
  Gtr I
  PM------------------------------------------------------|
  E Q  S S E Q  S S   E Q  S S E Q  S S   E Q  S S E Q  S S   E E E E E E E E
|-------------------|-------------------|-------------------|-----------------|
|-------------------|-------------------|-------------------|-----------------|
|-------------------|-------------------|-------------------|---------------9-|
|-------------------|-------------------|-------------------|---7-6-----6-7---|
|-2-2--2-2-2-2--2-2-|-2-2--2-2-2-2--2-2-|-2-2--2-2-2-2--2-2-|-------8-7-------|
|-0-0--0-0-0-0--0-0-|-0-0--0-0-0-0--0-0-|-0-0--0-0-0-0--0-0-|-0---------------|
|
| Gtr II
| PM------------------------------------------------------|
| E Q  S S E Q  S S   E Q  S S E Q  S S   E Q  S S E Q  S S   E E E E E E E E
|-------------------|-------------------|-------------------|-----------------|
|-------------------|-------------------|-------------------|---------------8-|
|-------------------|-------------------|-------------------|---5-4-----4-5---|
|-------------------|-------------------|-------------------|-------7-5-------|
|-2-2--2-2-2-2--2-2-|-2-2--2-2-2-2--2-2-|-2-2--2-2-2-2--2-2-|-----------------|
|-0-0--0-0-0-0--0-0-|-0-0--0-0-0-0--0-0-|-0-0--0-0-0-0--0-0-|-0---------------|


  Gtr I
  PM--|     PM|       PM|     PM|     PM  PM    PM|     PM  PM  PM
  E E E E E E E E   E E E E E E E E   E E E E E E E E   E E E E E Q.
|-----------------|-----------------|-----------------|----------------|
|-----------------|-----------------|-----------------|----------------|
|-----------------|-----------------|-----------------|----------------|
|-----------------|-----------------|---------------7-|---6------------|
|-------8-7-----5-|-7-----8-7-----5-|---7---8-7-------|-------8---5----|
|-0-0-0-----0-0---|---0-0-----0-0---|-0---0-----0-0---|-0---0---0------|
|
| Gtr II
| PM--|     PM|       PM|     PM|     PM  PM    PM|     PM  PM  PM
| E E E E E E E E   E E E E E E E E   E E E E E E E E   E E E E E Q.
|-----------------|-----------------|-----------------|----------------|
|-----------------|-----------------|-----------------|----------------|
|-----------------|-----------------|---------------5-|---4------------|
|-------7-6-------|-6-----7-6-------|---6---7-6-------|-------7---3----|
|---------------8-|---------------8-|-----------------|----------------|
|-0-0-0-----0-0---|---0-0-----0-0---|-0---0-----0-0---|-0---0---0------|


  Gtr I
  PM--|     PM|       PM|     PM|     PM  PM    PM|     PM  PM  PM
  E E E E E E E E   E E E E E E E E   E E E E E E E E   E E E E E E E E
|-----------------|-----------------|-----------------|-----------------|
|-----------------|-----------------|-----------------|-----------------|
|-----------------|-----------------|-----------------|---------------9-|
|-----------------|-----------------|---------------7-|---6-------6-7---|
|-------8-7-----5-|-7-----8-7-----5-|---7---8-7-------|-------8---------|
|-0-0-0-----0-0---|---0-0-----0-0---|-0---0-----0-0---|-0---0---0-------|
|
| Gtr II
| PM--|     PM|       PM|     PM|     PM  PM    PM|     PM  PM  PM
| E E E E E E E E   E E E E E E E E   E E E E E E E E   E E E E E E E E
|-----------------|-----------------|-----------------|-----------------|
|-----------------|-----------------|-----------------|---------------8-|
|-----------------|-----------------|---------------5-|---4-------4-5---|
|-------7-6-------|-6-----7-6-------|---6---7-6-------|-------7---------|
|---------------8-|---------------8-|-----------------|-----------------|
|-0-0-0-----0-0---|---0-0-----0-0---|-0---0-----0-0---|-0---0---0-------|


  Gtr I
  PM--|     PM|       PM|     PM|     PM  PM    PM|     PM  PM  PM
  E E E E E E E E   E E E E E E E E   E E E E E E E E   E E E E E Q.
|-----------------|-----------------|-----------------|----------------|
|-----------------|-----------------|-----------------|----------------|
|-----------------|-----------------|-----------------|----------------|
|-----------------|-----------------|---------------7-|---6------------|
|-------8-7-----5-|-7-----8-7-----5-|---7---8-7-------|-------8---5----|
|-0-0-0-----0-0---|---0-0-----0-0---|-0---0-----0-0---|-0---0---0------|
|
| Gtr II
| PM--|     PM|       PM|     PM|     PM  PM    PM|     PM  PM  PM
| E E E E E E E E   E E E E E E E E   E E E E E E E E   E E E E E Q.
|-----------------|-----------------|-----------------|----------------|
|-----------------|-----------------|-----------------|----------------|
|-----------------|-----------------|---------------5-|---4------------|
|-------7-6-------|-6-----7-6-------|---6---7-6-------|-------7---3----|
|---------------8-|---------------8-|-----------------|----------------|
|-0-0-0-----0-0---|---0-0-----0-0---|-0---0-----0-0---|-0---0---0------|


  Gtr I
  PM--|    ~ PM|     ~ PM|    ~ PM|     PM  PM   ~ PM|     PM  PM  PM
  E E E  E E E E E   E E E  E E E E E   E E E  E E E E E   E E E E E E E E
|------------------|------------------|------------------|-----------------|
|--------9-8-----5-|-8------9-8-----5-|---8----9-8-------|-----------------|
|------------------|------------------|------------------|---------------9-|
|------------------|------------------|----------------7-|---6-------6-7---|
|------------------|------------------|------------------|-------8---------|
|-0-0-0------0-0---|---0-0------0-0---|-0---0------0-0---|-0---0---0-------|
|
| Gtr II
| PM--|    ~ PM|     ~ PM|    ~ PM|     PM~ PM   ~ PM|     PM  PM  PM
| E E E  E E E E E   E E E  E E E E E   E E E  E E E E E   E E E E E E E E
|------------------|------------------|------------------|-----------------|
|------------------|------------------|------------------|---------------8-|
|-------10-9-----7-|-9-----10-9-----7-|---9---10-9-----5-|---4-------4-5---|
|------------------|------------------|------------------|-------7---------|
|------------------|------------------|------------------|-----------------|
|-0-0-0------0-0---|---0-0------0-0---|-0---0------0-0---|-0---0---0-------|


  Gtrs I, II
                                 PM--|
   E  E  E E E E E E   E E E E E E E E E
|--------------------|-------------------|
|--------------------|-------------------|
|--------------------|-------------------|
|-10-10-10-7-7-7-9-9-|-9-----------------|
|--8--8--8-5-5-5-7-7-|-7-8-8-8-8---5-7-2-|
|--------------------|---6-6-6-6-0-3-5-0-|


Duration Legend
---------------
W - whole; H - half; Q - quarter; E - 8th; S - 16th; T - 32nd; X - 64th; a - acciaccatura
+ - note tied to previous; . - note dotted; .. - note double dotted
Uncapitalized letters represent notes that are staccato (1/2 duration)
Irregular groupings are notated above the duration line
Duration letters will always appear directly above the note/fret number it represents the
duration for.  Duration letters with no fret number below them represent rests.  Multi-
bar rests are notated in the form Wxn, where n is the number of bars to rest for.  Low
melody durations appear below the staff

Tablature Legend
----------------
 h   - hammer-on
 p   - pull-off
 b   - bend
 pb  - pre-bend
 r   - bend release (if no number after the r, then release immediately)
 /\  - slide into or out of (from/to "nowhere")
 s   - legato slide
 S   - shift slide
<n>  - natural harmonic
[n]  - artificial harmonic
n(n) - tapped harmonic
 ~   - vibrato
 tr  - trill
 T   - tap
 TP  - trem. picking
 PM  - palm muting
\n/  - tremolo bar dip; n = amount to dip
 \n  - tremolo bar down
 n/  - tremolo bar up
/n\  - tremolo bar inverted dip
 =   - hold bend; also acts as connecting device for hammers/pulls
 <>  - volume swell (louder/softer)
 x   - on rhythm slash represents muted slash
 o   - on rhythm slash represents single note slash

Misc Legend
-----------
 |  - bar
||  - double bar
||o - repeat start
o|| - repeat end
*|  - double bar (ending)
 :  - bar (freetime)
 $  - Segno
 &  - Coda
Tempo markers - <E/E./Q/Q./H/H.> = BPM(8/16=s8/s16), where s8 = swing 8ths, s16 = swing 16ths
comments
We did not receive enough feedback on this tab! Please rate:
print report bad tab
1 2 3 4 5
I want to post or [tab]
guest
You may want to rate the tab now too:
select rating
Please do not post tabs as comments. Select "correction" instead!