Oops, an error
Loading. Please wait.

Black Sheep Bass Tab

2,411 views 1 this week
no commentswrite comment
1 2 3 4 5
please rate
Autoscroll
+/-
esc
set tempo
stop
Contributor
WARNING: You are trying to view
                                    content from Ultimate-Guitar.com
                                    in an unauthorized application,
                                    which is prohibited.

                                    Please use an official Ultimate
                                    Guitar Tabs application for iPhone,
                                    iPad or Android to access legitimate
                                    chords, guitar, bass, and drum tabs
                                    from Ultimate-Guitar.com database.

                                    Type "ultimate guitar tabs" in Apple
                                    App Store's or Android Market's
                                    search to find the application.
#----------------------------------PLEASE NOTE---------------------------------#
#This file is the author's own work and represents their interpretation of the #
#song. You may only use this file for private study, scholarship, or research. #
#------------------------------------------------------------------------------#

BLACK SHEEP (Bassline)
As recorded by Sonata Arctica
(From the 2001 Album SILENCE)

Transcribed by Rogelio Dionicio (transylvania9@hotmail.com)
	

Words by Tony Kakko. Music by Sonata Arctica

Gtr I (E A D G) - 'Bass - Marko Paasikoski'
Gtr II (E A D G B E) - 'Keyboard - Mikko Harkin'
Gtr III (E A D G B E) - 'Keyboard Solo - Mikko Harkin'
Gtr IV (E A D G B E) - 'Dist Guitar 2 (Rythm) - Jani Liimatainen'
Gtr V (E A D G B E) - 'Keyboard (Herpsichord) - Mikko Harkin'

 Intro
  Fast Metal Q=180
         $
             A                      F
 3/4
         Gtr V
  W           E  S  S  E  E  E  E    E  S  S  E  E  E  E
|--------||-----------------------|----------------------|
|--------||o-10-10h12h13-10-12-13-|-15-13h15p12-13-12-10-|
|--------||-----------------------|----------------------|
|--------||-----------------------|----------------------|
|--------||o----------------------|----------------------|
|--------||-----------------------|----------------------|
|
| Gtr I
| W           E  E     E  E  E  E    E  E     E  E  E  E
|--------||-----------------------|----------------------|
|--------||o----------------------|----------------------|
|--------||o----------------------|----------------------|
|--------||---5--5-----5--5--5--5-|--1--1-----1--1--1--1-|


 1.,2.,3.
  G                 E
  E  E  E E  E  E   E S  S  E E  E  E   4x
|-----------------|---------------------||
|-8-10-12-8-10-12-|-8-8h10h12-8-10-12--o||
|-----------------|---------------------||
|-----------------|---------------------||
|-----------------|--------------------o||
|-----------------|---------------------||
|
| E  E  E E  E  E   E E     E E  E  E   4x
|-----------------|---------------------||
|-----------------|--------------------o||
|-----------------|--------------------o||
|-3--3--3-3--3--3-|-0-0-----0-0--0--0---||


  4.
  G
 3/4
  E  E  E E  E  E   E S  S  E E  E  E    E  E  E  E  E  E    E  E  E  E  E  E
|-----------------|-------------------|-13----------------|-------------------||
|-8-10-12-8-10-12-|-8-8h10h12-8-10-12-|----15-17-15-13-15-|-13-12-13-12-10--9-||
|-----------------|-------------------|-------------------|-------------------||
|-----------------|-------------------|-------------------|-------------------||
|-----------------|-------------------|-------------------|-------------------||
|-----------------|-------------------|-------------------|-------------------||
|
| Q     Q    E  E   Q       Q    Q       E  E  E  E  E  E    E  E  E  E  E  E
|-----------------|-------------------|-10----------------|-------------------||
|-----------------|-------------------|----12-14-12-10-12-|-10--9-10--9--7----||
|-----------------|-------------------|-------------------|----------------11-||
|-3-----3----3--3-|-0-------0----0----|-------------------|-------------------||


   Verse
    Am                                                C      G/B
   3/4
    Gtr II
     H.              +H.              +H.             Q.     Q.
||---8------------|--(8)-----------|--(8)-----------|-8------7------||
||o-10------------|-(10)-----------|-(10)-----------|--------8------||
||----------------|----------------|----------------|-9------7------||
||---7------------|--(7)-----------|--(7)-----------|--------9------||
||o---------------|----------------|----------------|---------------||
||----------------|----------------|----------------|-8-------------||
|
|    E  E E E E E     E  E E E E E     E  E E E E E   E  E E E  E E
||----------------|----------------|----------------|---------------||
||o---------------|----------------|----------------|---------------||
||o---------------|----------------|----------------|-3--3-3-2--2-2-||
||---5--5-5-5-5-5-|---5--5-5-5-5-5-|---5--5-5-5-5-5-|---------------||


  Am              Dm             C              C      G/B
 3/4
   H.             H.             H.             Q.     Q.
|--8------------|-5------------|-8------------|-8------7-------||
|-10------------|-6------------|-8------------|-8------8------o||
|---------------|-7------------|-9------------|-9------7-------||
|--7------------|--------------|--------------|--------9-------||
|---------------|-5------------|--------------|---------------o||
|---------------|--------------|-8------------|-8--------------||
|
|  E  E E E E E   E  E E E E E   E  E E E E E   E  E E E  E E
|---------------|--------------|--------------|----------------||
|---------------|--------------|--------------|---------------o||
|---------------|-5--5-5-5-5-5-|-3--3-3-3-3-3-|-3--3-3-2--2-2-o||
|--5--5-5-5-5-5-|--------------|--------------|----------------||


 Pre-Chorus
  F               Am              C              G/B
   H.              H.             H.             H.
|--8------------|--8------------|-8------------|-7-------------|
|-10------------|-10------------|-8------------|-8-------------|
|-10------------|---------------|-9------------|-7-------------|
|---------------|--7------------|--------------|-9-------------|
|--8------------|---------------|--------------|---------------|
|---------------|---------------|-8------------|---------------|
|
|  E  E E E E E    E  E E E E E   E  E E E E E   E  E E E E E
|---------------|---------------|--------------|---------------|
|---------------|---------------|--------------|---------------|
|---------------|---------------|-3--3-3-3-3-3-|-2--2-2-2-2-2--|
|--1--1-1-1-1-1-|--5--5-5-5-5-5-|--------------|---------------|


  F               E5             Eb5            E5      G#
   H.             H.             H.             H       Q
|--8------------|-7------------|-6------------|-7-------4----||
|-10------------|--------------|--------------|--------------||
|-10------------|-9------------|-8------------|-9------------||
|---------------|--------------|--------------|---------6----||
|--8------------|-7------------|-6------------|-7------------||
|---------------|--------------|--------------|---------4----||
|
|  E  E E E E E   E  E E E E E   E  E E E E E   E E E E E E
|---------------|--------------|--------------|--------------||
|---------------|--------------|--------------|--------------||
|--8--8-8-8-8-8-|-7--7-7-7-7-7-|-6--6-6-6-6-6-|--------------||
|---------------|--------------|--------------|-0-0-0-0-4-4--||


   Chorus
    Am
   4/4
     W                  +W
||---8---------------|--(8)---------------|
||o-10---------------|-(10)---------------|
||-------------------|--------------------|
||---7---------------|--(7)---------------|
||o------------------|--------------------|
||-------------------|--------------------|
|
|    E E E E E E E E     E  E E E E E E E
||-------------------|--------------------|
||o------------------|--------------------|
||o------------------|--------------------|
||---5-5-5-5-5-5-5-5-|---5--5-5-5-5-5-5-5-|


  C
  W                 +W
|-8---------------|-(8)---------------|
|-----------------|-------------------|
|-9---------------|-(9)---------------|
|-----------------|-------------------|
|-----------------|-------------------|
|-8---------------|-(8)---------------|
|
| E E E E E E E E    E  E E E E E E E
|-----------------|-------------------|
|-----------------|-------------------|
|-3-3-3-3-3-3-3-3-|--3--3-3-3-3-3-3-3-|
|-----------------|-------------------|


  1.
  Dm
 4/4
  W                 +W
|-5---------------|-(5)---------------|
|-6---------------|-(6)---------------|
|-7---------------|-(7)---------------|
|-----------------|-------------------|
|-5---------------|-(5)---------------|
|-----------------|-------------------|
|
| E E E E E E E E    E  E E E E E E E
|-----------------|-------------------|
|-----------------|-------------------|
|-5-5-5-5-5-5-5-5-|--5--5-5-5-5-5-5-5-|
|-----------------|-------------------|


  Em
  W                 +W
|-----------------|-------------------------||
|-8---------------|-(8)--------------------o||
|-9---------------|-(9)---------------------||
|-9---------------|-(9)---------------------||
|-7---------------|-(7)--------------------o||
|-----------------|-------------------------||
|
| E E E E E E E E    E   E E E  E  E E  E
|-----------------|--9--10-7-9--------------||
|-----------------|------------10-12-9-10--o||
|-7-7-7-7-7-7-7-7-|------------------------o||
|-----------------|-------------------------||


  2.
  N.C.      C           B         Am
 4/4
   H         H           H          H
|-[8]-------[7]-------|-[8]-------[12]-------|
|---------------------|----------------------|
|-[5]-------[4]-------|-[5]--------[9]-------|
|---------------------|----------------------|
|---------------------|----------------------|
|---------------------|----------------------|
|
|  E  E E E  E  E E E    E  E E E   E  E E E
|---------------------|----------------------|
|---------------------|----------------------|
|--5--5-5-5--3--3-3-3-|--2--2-2-2------------|
|---------------------|-------------5--5-5-5-|


                                       D.S.
  E          G#           A
    H          H            W
|-[12]-------[16]-------|-[17]----------------||
|-----------------------|---------------------||
|--[9]-------[13]-------|-[14]----------------||
|-----------------------|---------------------||
|-----------------------|---------------------||
|-----------------------|---------------------||
|
|   E  E E E   E  E E E     E  E E E E E E E
|-----------------------|---------------------||
|-----------------------|---------------------||
|-----------------------|---------------------||
|---0--0-0-0---4--4-4-4-|---5--5-5-5-5-5-5-5--||


   Harmony Solo
    A
    Gtrs III, V
     |--3--|  |--3--|  |--3--|  |--3--|
     E  E  E  E  E  E  E  E  E  E  E  E
||-----------12----------------13-------|
||o-13-12-10----10-12-13-12-10----10-12-|
||--------------------------------------|
||--------------------------------------|
||o-------------------------------------|
||--------------------------------------|
|
|   Gtr I
|    |--3--|  |--3--|  |--3--|  |--3--|
|    E  E  E  E  E  E  E  E  E  E  E  E
||--------------------------------------|
||o-------------------------------------|
||o-------------------------------------|
||---5--5--5--5--5--5--5--5--5--5--5--5-|


  A
   |--3--|  |--3--|  |--3--|  |--3--|
   E  E  E  E  E  E  E  E  E  E  E  E
|----------12----------------13-12-10---||
|-13-12-10----10-12-13-12-10-----------o||
|---------------------------------------||
|---------------------------------------||
|--------------------------------------o||
|---------------------------------------||
|
|  |--3--|  |--3--|  |--3--|  |--3--|
|  E  E  E  E  E  E  E  E  E  E  E  E
|---------------------------------------||
|--------------------------------------o||
|--------------------------------------o||
|--5--5--5--5--5--5--5--5--5--5--5--5---||


    D
     |--3--|  |--3--|  |--3--|  |--3--|
     E  E  E  E  E  E  E  E  E  E  E  E
||-----------17----------------18-------|
||o-18-17-15----15-17-18-17-15----15-17-|
||--------------------------------------|
||--------------------------------------|
||o-------------------------------------|
||--------------------------------------|
|
|    |--3--|  |--3--|  |--3--|  |--3--|
|    E  E  E  E  E  E  E  E  E  E  E  E
||--------------------------------------|
||o-------------------------------------|
||o--5--5--5--5--5--5--5--5--5--5--5--5-|
||--------------------------------------|


  D
   |--3--|  |--3--|  |--3--|  |--3--|
   E  E  E  E  E  E  E  E  E  E  E  E
|----------17----------------18-17-15--||
|-18-17-15----15-17-18-17-15----------o||
|--------------------------------------||
|--------------------------------------||
|-------------------------------------o||
|--------------------------------------||
|
|  |--3--|  |--3--|  |--3--|  |--3--|
|  E  E  E  E  E  E  E  E  E  E  E  E
|--------------------------------------||
|-------------------------------------o||
|--5--5--5--5--5--5--5--5--5--5--5--5-o||
|--------------------------------------||


    A
    Gtr IV
     |--3--|  |--3--|  |--3--|  |--3--|
     E  E  E  E  E  E  E  E  E  E  E  E
||--------------------------------------|
||o-------------------------------------|
||--------------------------------------|
||--------------------------------------|
||o--0--0--0--7--0--0--0--0--0--8--0--0-|
||--------------------------------------|
|
|   Gtrs III, V
|    |--3--|  |--3--|  |--3--|  |--3--|
|    E  E  E  E  E  E  E  E  E  E  E  E
||-----------15----------------17-------|
||o-17-15-13----13-15-17-15-13----13-15-|
||--------------------------------------|
||--------------------------------------|
||o-------------------------------------|
||--------------------------------------|
|
|   Gtr I
|    |--3--|  |--3--|  |--3--|  |--3--|
|    E  E  E  E  E  E  E  E  E  E  E  E
||--------------------------------------|
||o-------------------------------------|
||o-------------------------------------|
||---5--5--5--5--5--5--5--5--5--5--5--5-|


  A
   |--3--|  |--3--|  |--3--|  |--3--|
   E  E  E  E  E  E  E  E  E  E  E  E
|--------------------------------------||
|-------------------------------------o||
|--------------------------------------||
|--------------------------------------||
|--0--0--0--7--0--0--0--0--0--8--7--0-o||
|--------------------------------------||
|
|  |--3--|  |--3--|  |--3--|  |--3--|
|  E  E  E  E  E  E  E  E  E  E  E  E
|----------15----------------17-15-13--||
|-17-15-13----13-15-17-15-13----------o||
|--------------------------------------||
|--------------------------------------||
|-------------------------------------o||
|--------------------------------------||
|
|  |--3--|  |--3--|  |--3--|  |--3--|
|  E  E  E  E  E  E  E  E  E  E  E  E
|--------------------------------------||
|-------------------------------------o||
|-------------------------------------o||
|--5--5--5--5--5--5--5--5--5--5--5--5--||


  D                                     D
   |--3--|  |--3--|  |--3--|  |--3--|    |--3--|  |--3--|  |--3--|  |--3--|
   E  E  E  E  E  E  E  E  E  E  E  E    E  E  E  E  E  E  E  E  E  E  E  E
|-------------------------------------|-------------------------------------|
|-------------------------------------|-------------------------------------|
|-------------------------------------|-------------------------------------|
|--0--0--0--7--0--0--0--0--0--8--0--0-|--0--0--0--7--0--0--0--0--0--8--7--0-|
|-------------------------------------|-------------------------------------|
|-------------------------------------|-------------------------------------|
|
|  |--3--|  |--3--|  |--3--|  |--3--|    |--3--|  |--3--|  |--3--|  |--3--|
|  E  E  E  E  E  E  E  E  E  E  E  E    E  E  E  E  E  E  E  E  E  E  E  E
|-17-------20-------17-------22-------|-17-------20-------17-------22-20-18-|
|----20-18----18-20----20-18----18-20-|----20-18----18-20----20-18----------|
|-------------------------------------|-------------------------------------|
|-------------------------------------|-------------------------------------|
|-------------------------------------|-------------------------------------|
|-------------------------------------|-------------------------------------|
|
|  |--3--|  |--3--|  |--3--|  |--3--|    |--3--|  |--3--|  |--3--|  |--3--|
|  E  E  E  E  E  E  E  E  E  E  E  E    E  E  E  E  E  E  E  E  E  E  E  E
|-------------------------------------|-------------------------------------|
|-------------------------------------|-------------------------------------|
|--5--5--5--5--5--5--5--5--5--5--5--5-|--5--5--5--5--5--5--5--5--5--5--5--5-|
|-------------------------------------|-------------------------------------|


  D                                     D
   |--3--|  |--3--|  |--3--|  |--3--|    |--3--|  |-3-|  |-3-|  |-3-|
   E  E  E  E  E  E  E  E  E  E  E  E    E  E  E  E E E  E E E  E E E
|-------------------------------------|-------------------------------||
|-------------------------------------|-------------------------------||
|-------------------------------------|-------------------------------||
|--0--0--0--7--0--0--0--0--0--8--0--0-|--0--0--0--7-0-0--0-0-0--8-7-0-||
|-------------------------------------|-------------------------------||
|-------------------------------------|-------------------------------||
|
|  |--3--|  |--3--|  |--3--|  |--3--|    |--3--|
|  E  E  E  E  E  E  E  E  E  E  E  E    E  E  E  Q      Q      Q
|-17-15-13-20----------------22-------|----------22-----20-----19-----||
|-------------18-20-22-20-18-------20-|-22-20-18----------------------||
|-------------------------------22----|-------------------------------||
|-------------------------------------|-------------------------------||
|-------------------------------------|-------------------------------||
|-------------------------------------|-------------------------------||
|
|  |--3--|  |--3--|  |--3--|  |--3--|    |--3--|  |-3-|  |-3-|  |-3-|
|  E  E  E  E  E  E  E  E  E  E  E  E    E  E  E  E E E  E E E  E E E
|-------------------------------------|-------------------------------||
|-------------------------------------|-------------------------------||
|--5--5--5--5--5--5--5--5--5--5--5--5-|--5--5--5--5-5-5--5-5-5--5-5-5-||
|-------------------------------------|-------------------------------||


 Keyboard Solo
  A                            F
  Gtrs III, V          Gtr III
                ~~~
   H            Q.      E       +E   S  S  S  S  S  S  S  S  S  S  S  S  S  S
|-19tr20-------20------17b19-|-(17)-20p19p17-16h17p16-------------------------|
|----------------------------|------------------------18p17h18p17-15p13h15p13-|
|----------------------------|------------------------------------------------|
|----------------------------|------------------------------------------------|
|----------------------------|------------------------------------------------|
|----------------------------|------------------------------------------------|
|
| Gtr I
|  E     E E E  E  E E  E        E   E     E     E     E     E     E     E
|----------------------------|------------------------------------------------|
|----------------------------|------------------------------------------------|
|----------------------------|---8---8-----8-----8-----8-----8-----8-----8----|
|--5-----5-5-5--5--5-5--5----|------------------------------------------------|


  A                        C
                ~~~~                            T
                             |---3---|  |---3---|  |---3---|  |---3---|
   H           +H            E  E    E  E  E    E  E  E    E  E  E    E
|------------------------|---------------------20-19p15-----------------|
|------------------------|----------------17--------------17------------|
|-14b16r======(14)-------|-------------17--------------------17---------|
|------------------------|----------17--------------------------17------|
|------------------------|-----15------------------------------------15-|
|------------------------|-/17------------------------------------------|
|
|  E    E E E   E  E E E     E    E     E    E     E    E     E    E
|------------------------|----------------------------------------------|
|------------------------|----------------------------------------------|
|------------------------|---3----3-----3----3-----2----2-----2----2----|
|--5----5-5-5---5--5-5-5-|----------------------------------------------|


  A                           D
                     |
   ~~                ~~~
                                |---3---|  |---3---|   |---3---|  |---3---|
   Q    +E   E  +E   Q.         E  E    E  E  E    E   E  E    E  E  E    E
|---------------------------|---------------------17-/22s20p==17-20s17------|
|---------------------------|----------------17--------------------------17-|
|---------------------------|-------------17--------------------------------|
|---------------------------|----------19-----------------------------------|
|---------------------------|-----19----------------------------------------|
|-17---(17)s15-(15)s17------|-/17-------------------------------------------|
|
|  E E   E   E   E   E  E E     E    E     E    E      E    E     E    E
|---------------------------|-----------------------------------------------|
|---------------------------|-----------------------------------------------|
|---------------------------|---5----5-----5----5------5----5-----5----5----|
|--5-5---5---5---5---5--5-5-|-----------------------------------------------|


  C
   |---3---|  |---3---| |--3---| |---3---|
   E  E    E  E  E    E E E    E E  E    E
|----15------------------------------------|
|-17------13-17------13---8----------------|
|---------------12------9--------9---------|
|-----------------------------10--------10-|
|----------------------------------10------|
|------------------------------------------|
|
|  E    E     E    E    E   E    E    E
|------------------------------------------|
|------------------------------------------|
|--3----3-----3----3----3---3----3----3----|
|------------------------------------------|


  B
  |--3---| |---3---| |--3---| |--3--|
  E E    E E  E    E E  E   E E E   E
|-------------------------------------||
|---8---------------------------------||
|-9--------9--------------------------||
|-------10--------10------------------||
|------------10------7-10-----7-------||
|---------------------------8---5---8-||
|
| E   E    E    E    E    E   E   E
|-------------------------------------||
|-------------------------------------||
|-2---2----2----2----2----2---2---2---||
|-------------------------------------||


 Guitar Solo
  A                    F
  Gtr IV
   Q.     Q.     Q      Q.     Q.     Q
|--------------------|--------------------|
|--------------------|--------------------|
|--------------------|--------------------|
|--7------7------7---|--3------3------3---|
|--7------7------7---|--3------3------3---|
|--5------5------5---|--1------1------1---|
|
| Gtr III              Gtr II
|  ~~~
|  W                    W
|--------------------|--8-----------------|
|--------------------|-10-----------------|
|--------------------|-10-----------------|
|-/7-----------------|--------------------|
|--------------------|--8-----------------|
|--------------------|--------------------|
|
| Gtr I
|  E  E E E  E E E E    E  E E E  E E E E
|--------------------|--------------------|
|--------------------|--------------------|
|--------------------|--8--8-8-8--8-8-8-8-|
|--5--5-5-5--5-5-5-5-|--------------------|


  Am                   C       G/B
   Q.     Q.     Q     H       H
|--------------------|-----------------|
|--------------------|-----------------|
|--------------------|-5-------4-------|
|--7------7------7---|-5-------5-------|
|--7------7------7---|-3-------2-------|
|--5------5------5---|-----------------|
|
|  W                   H       H
|--8-----------------|-8-------7-------|
|-10-----------------|---------8-------|
|--------------------|-9-------7-------|
|--7-----------------|---------9-------|
|--------------------|-----------------|
|--------------------|-8---------------|
|
|  E  E E E  E E E E   E E E E E E E E
|--------------------|-----------------|
|--------------------|-----------------|
|--------------------|-3-3-3-3-2-2-2-2-|
|--5--5-5-5--5-5-5-5-|-----------------|


  Am                 Dm                C                 G/B
   W                 W                 W                 W
|------------------|-----------------|-----------------|-----------------|
|------------------|-----------------|-----------------|-----------------|
|------------------|-7---------------|-5---------------|-4---------------|
|--7---------------|-7---------------|-5---------------|-5---------------|
|--7---------------|-5---------------|-3---------------|-2---------------|
|--5---------------|-----------------|-----------------|-----------------|
|
|  W                 W                 W                 W
|--8---------------|-5---------------|-8---------------|-7---------------|
|-10---------------|-6---------------|-----------------|-8---------------|
|------------------|-7---------------|-9---------------|-7---------------|
|--7---------------|-----------------|-----------------|-9---------------|
|------------------|-5---------------|-----------------|-----------------|
|------------------|-----------------|-8---------------|-----------------|
|
|  E E E E E E E E   E E E E E E E E   E E E E E E E E   E E E E E E E E
|------------------|-----------------|-----------------|-----------------|
|------------------|-----------------|-----------------|-----------------|
|------------------|-5-5-5-5-5-5-5-5-|-3-3-3-3-3-3-3-3-|-2-2-2-2-2-2-2-2-|
|--5-5-5-5-5-5-5-5-|-----------------|-----------------|-----------------|


  F                  Am                 C                 G/B
   E E E E E E E E    E E E E E E E E   E E E E E E E E   E E E E E E E E
|------------------|------------------|-----------------|-----------------|
|------------------|------------------|-----------------|-----------------|
|------------------|------------------|-----------------|-----------------|
|------------------|------------------|-5---------------|-5---------------|
|--3---------------|--7---------------|-3-3-3-3-3-3-3-3-|-2-2-2-2-2-2-2-2-|
|--1-1-1-1-1-1-1-1-|--5-5-5-5-5-5-5-5-|-----------------|-----------------|
|
|  W                  W                 W                 W
|--8---------------|--8---------------|-8---------------|-7---------------|
|-10---------------|-10---------------|-8---------------|-8---------------|
|-10---------------|------------------|-9---------------|-7---------------|
|------------------|--7---------------|-----------------|-9---------------|
|--8---------------|------------------|-----------------|-----------------|
|------------------|------------------|-8---------------|-----------------|
|
|  E E E E E E E E    E E E E E E E E   E E E E E E E E   E E E E E E E E
|------------------|------------------|-----------------|-----------------|
|------------------|------------------|-----------------|-----------------|
|--8-8-8-8-8-8-8-8-|------------------|-3-3-3-3-3-3-3-3-|-2-2-2-2-2-2-2-2-|
|------------------|--5-5-5-5-5-5-5-5-|-----------------|-----------------|


  F                  E5                Eb5               E5      G#
   E E E E E E E E   E E E E E E E E   E E E E E E E E   E E E E E E E E
|------------------|-----------------|-----------------|-----------------||
|------------------|-----------------|-----------------|-----------------||
|------------------|-----------------|-----------------|-----------------||
|------------------|-----------------|-----------------|-----------------||
|--8-8-8-8-8-8-8-8-|-7-7-7-7-7-7-7-7-|-6-6-6-6-6-6-6-6-|-----------------||
|------------------|-----------------|-----------------|-0-0-0-0-4-4-4-4-||
|
|  W                 W                 W                 H       H
|--8---------------|-7---------------|-6---------------|-7-------4-------||
|-10---------------|-----------------|-----------------|-----------------||
|-10---------------|-9---------------|-8---------------|-9---------------||
|------------------|-----------------|-----------------|---------6-------||
|--8---------------|-7---------------|-6---------------|-7---------------||
|------------------|-----------------|-----------------|---------4-------||
|
|  E E E E E E E E   E E E E E E E E   E E E E E E E E   E E E E E E E E
|------------------|-----------------|-----------------|-----------------||
|------------------|-----------------|-----------------|-----------------||
|--8-8-8-8-8-8-8-8-|-7-7-7-7-7-7-7-7-|-6-6-6-6-6-6-6-6-|-----------------||
|------------------|-----------------|-----------------|-0-0-0-0-4-4-4-4-||


   Out-Chorus
    Am
   4/4
    Gtr II
     <
     W                  +W
||---8---------------|--(8)---------------|
||o-10---------------|-(10)---------------|
||-------------------|--------------------|
||---7---------------|--(7)---------------|
||o------------------|--------------------|
||-------------------|--------------------|
|
|   Gtr I
|    E E E E E E E E     E  E E E E E E E
||-------------------|--------------------|
||o------------------|--------------------|
||o------------------|--------------------|
||---5-5-5-5-5-5-5-5-|---5--5-5-5-5-5-5-5-|


  C
  W                 +W
|-8---------------|-(8)---------------|
|-----------------|-------------------|
|-9---------------|-(9)---------------|
|-----------------|-------------------|
|-----------------|-------------------|
|-8---------------|-(8)---------------|
|
| E E E E E E E E    E  E E E E E E E
|-----------------|-------------------|
|-----------------|-------------------|
|-3-3-3-3-3-3-3-3-|--3--3-3-3-3-3-3-3-|
|-----------------|-------------------|


  Dm
 4/4
  W                 +W
|-5---------------|-(5)---------------|
|-6---------------|-(6)---------------|
|-7---------------|-(7)---------------|
|-----------------|-------------------|
|-5---------------|-(5)---------------|
|-----------------|-------------------|
|
| E E E E E E E E    E  E E E E E E E
|-----------------|-------------------|
|-----------------|-------------------|
|-5-5-5-5-5-5-5-5-|--5--5-5-5-5-5-5-5-|
|-----------------|-------------------|


  Em
  W                 +W
|-----------------|--------------------------|
|-8---------------|-(8)----------------------|
|-9---------------|-(9)----------------------|
|-9---------------|-(9)----------------------|
|-7---------------|-(7)----------------------|
|-----------------|--------------------------|
|
| E E E E E E E E    E   E  E E  E  E  E  E
|-----------------|--9--10----9--------------|
|-----------------|--------12---10-12--------|
|-7-7-7-7-7-7-7-7-|-------------------14-15--|
|-----------------|--------------------------|


  Am                                      C
 4/4
   W                  +W                  W                 +W
|--8---------------|--(8)---------------|-8---------------|-(8)----------------|
|-10---------------|-(10)---------------|-----------------|--------------------|
|------------------|--------------------|-9---------------|-(9)----------------|
|--7---------------|--(7)---------------|-----------------|--------------------|
|------------------|--------------------|-----------------|--------------------|
|------------------|--------------------|-8---------------|-(8)----------------|
|
|  E E E E E E E E     E  E E E E E E E   E E E E E E E E    E  E E E E E E E
|------------------|--------------------|-----------------|--------------------|
|------------------|--------------------|-----------------|--------------------|
|------------------|--------------------|-3-3-3-3-3-3-3-3-|--3--3-3-3-3-3-3-3--|
|--5-5-5-5-5-5-5-5-|---5--5-5-5-5-5-5-5-|-----------------|--------------------|


  N.C.(C)   B           C         E
 4/4
   H         H           H          H
|-[8]-------[7]-------|-[8]-------[12]-------|
|---------------------|----------------------|
|-[5]-------[4]-------|-[5]--------[9]-------|
|---------------------|----------------------|
|---------------------|----------------------|
|---------------------|----------------------|
|
|  E  E E E  E  E E E    E  E E E   E  E E E
|---------------------|----------------------|
|---------------------|----------------------|
|--5--5-5-5--3--3-3-3-|--2--2-2-2------------|
|---------------------|-------------5--5-5-5-|


  E          G#           A
    H          H            W
|-[12]-------[16]-------|-[17]-----------------||
|-----------------------|---------------------o||
|--[9]-------[13]-------|-[14]-----------------||
|-----------------------|----------------------||
|-----------------------|---------------------o||
|-----------------------|----------------------||
|
|   E  E E E   E  E E E     E  E E E E E E E
|-----------------------|----------------------||
|-----------------------|---------------------o||
|-----------------------|---------------------o||
|---0--0-0-0---4--4-4-4-|---5--5-5-5-5-5-5-5---||


   Outro
    A
   3/4
    Gtr V
     E  S  S  E  E  E  E    E  S  S  E  E  E  E
||-----------------------|----------------------|
||o-10-10-12-13-10-12-13-|-15-13-15-12-13-12-10-|
||-----------------------|----------------------|
||-----------------------|----------------------|
||o----------------------|----------------------|
||-----------------------|----------------------|
|
|    E  E     E  E  E  E    E  E     E  E  E  E
||-----------------------|----------------------|
||o----------------------|----------------------|
||o----------------------|----------------------|
||---5--5-----5--5--5--5-|--1--1-----1--1--1--1-|


  G
  E  E  E E  E  E   E S  S  E E  E  E  4x
|-----------------|--------------------||
|-8-10-12-8-10-12-|-8-8-10-12-8-10-12-o||
|-----------------|--------------------||
|-----------------|--------------------||
|-----------------|-------------------o||
|-----------------|--------------------||
|
| E  E  E E  E  E   E E     E E  E  E  4x
|-----------------|--------------------||
|-----------------|-------------------o||
|-----------------|-------------------o||
|-3--3--3-3--3--3-|-0-0-----0-0--0--0--||


  N.C.
                                          ~~
   E  E  E  E  E  E    E  E  E  E  E E    Q  H      W
|-13----------------|------------------|----------|------*|
|----15-17-15-13-15-|-13-12-13-12-10-9-|-10-------|------*|
|-------------------|------------------|----------|------*|
|-------------------|------------------|----------|------*|
|-------------------|------------------|----------|------*|
|-------------------|------------------|----------|------*|
|
|  E  E  E  E  E  E    E  E  E  E  E E    Q  H      W
|-10----------------|------------------|----------|------*|
|----12-14-12-10-12-|-10--9-10--9--7-6-|--7-------|------*|
|-------------------|------------------|----------|------*|
|-------------------|------------------|----------|------*|



Duration Legend
---------------
W - whole; H - half; Q - quarter; E - 8th; S - 16th; T - 32nd; X - 64th; a - acciaccatura
+ - note tied to previous; . - note dotted; .. - note double dotted
Uncapitalized letters represent notes that are staccato (1/2 duration)
Irregular groupings are notated above the duration line
Duration letters will always appear directly above the note/fret number it represents the
duration for.  Duration letters with no fret number below them represent rests.  Multi-
bar rests are notated in the form Wxn, where n is the number of bars to rest for.  Low
melody durations appear below the staff

Tablature Legend
----------------
 h   - hammer-on
 p   - pull-off
 b   - bend
 pb  - pre-bend
 r   - bend release (if no number after the r, then release immediately)
 /\  - slide into or out of (from/to "nowhere")
 s   - legato slide
 S   - shift slide
 - natural harmonic
[n]  - artificial harmonic
n(n) - tapped harmonic
 ~   - vibrato
 tr  - trill
 T   - tap
 TP  - trem. picking
 PM  - palm muting
\n/  - tremolo bar dip; n = amount to dip
 \n  - tremolo bar down
 n/  - tremolo bar up
/n\  - tremolo bar inverted dip
 =   - hold bend; also acts as connecting device for hammers/pulls
 <> - volume swell (louder/softer)
 x   - on rhythm slash represents muted slash
 o   - on rhythm slash represents single note slash

Misc Legend
-----------
 |  - bar
||  - double bar
||o - repeat start
o|| - repeat end
*|  - double bar (ending)
 :  - bar (freetime)
 $  - Segno
 &  - Coda
Tempo markers -  = BPM(8/16=s8/s16), where s8 = swing 8ths, s16 = swing 16ths

comments
We did not receive enough feedback on this tab! Please rate:
1 2 3 4 5
I want to post or [tab]
guest
You may want to rate the tab now too:
select rating
Please do not post tabs as comments. Select "correction" instead!