Oops, an error
Loading. Please wait.

Blank File Bass Tab

ver1
ver1

Whole song

Interactive

More versions @911Tabs.com
538 views 1 this week
no commentswrite comment
1 2 3 4 5
please rate
Autoscroll
+/-
esc
set tempo
stop
Contributor
Tuning
D# G# C# F# A# D#
Hey! There's an official Ultimate Guitar app which is ideal
for learning songs when you're away from computer. Get the app
WARNING: You are trying to view
                                    content from Ultimate-Guitar.com
                                    in an unauthorized application,
                                    which is prohibited.

                                    Please use an official Ultimate
                                    Guitar Tabs application for iPhone,
                                    iPad or Android to access legitimate
                                    chords, guitar, bass, and drum tabs
                                    from Ultimate-Guitar.com database.

                                    Type "ultimate guitar tabs" in Apple
                                    App Store's or Android Market's
                                    search to find the application.
#----------------------------------PLEASE NOTE---------------------------------#
#This file is the author's own work and represents their interpretation of the #
#song. You may only use this file for private study, scholarship, or research. #
#------------------------------------------------------------------------------#

BLANK FILE (Bassline)
As recorded by Sonata Arctica
(From the 1998 Album ECLIPTICA)

Transcribed by Tomohiro Harada
	

Words and Music by Tony Kakko
Arranged by Sonata Arctica

Gtr I (D# G# C# F# A# D#) - 'mikko'
Gtr II (D# G# C# F# A# D#) - 'mikko solo'
Gtr III (D# G# C# F#) - 'marko'

 Intro Drum                Verse
  Q=180
 4/4
  Gtr III
  W          H.      Q       E E S S E E E S S E    E E S S E E E S S E
|----------|------------||-----------------------|----------------------|
|----------|------------||o----------------------|----------------------|
|----------|------------||o----------------------|----------------------|
|----------|---------4--||---3-3-3-3-3-3-3-3-3-3-|--3-3-3-3-3-3-3-3-3-3-|
|
|                           Gtr I
| W          W               W                      W
|----------|------------||-----------------------|----------------------|
|----------|------------||o----------------------|----------------------|
|----------|------------||---7-------------------|--8-------------------|
|----------|------------||---8-------------------|--8-------------------|
|----------|------------||o-10-------------------|-10-------------------|
|----------|------------||-----------------------|----------------------|


   E E S S E E E S S E    E E S S E E E S S E
|----------------------|----------------------|
|----------------------|----------------------|
|----------------------|----------------------|
|--3-3-3-3-3-3-3-3-3-3-|--3-3-3-3-3-3-3-3-3-3-|
|
|  W                      W
|----------------------|----------------------|
|----------------------|----------------------|
|--7-------------------|--8-------------------|
|--8-------------------|--8-------------------|
|-10-------------------|-10-------------------|
|----------------------|----------------------|


  E E S S E E E S S E    E  E S S E E E S S E
|---------------------|-----------------------|
|---------------------|-----------------------|
|---------------------|-----------------------|
|-1-1-1-1-1-1-1-1-1-1-|--1--1-1-1-1-1-1-1-1-1-|
|
| W                     +W
|---------------------|-----------------------|
|---------------------|-----------------------|
|-5-------------------|-(5)-------------------|
|-7-------------------|-(7)-------------------|
|-8-------------------|-(8)-------------------|
|---------------------|-----------------------|


   E E S S E E E S S E    E E S S E E E S S E
|----------------------|----------------------|
|----------------------|----------------------|
|----------------------|----------------------|
|--3-3-3-3-3-3-3-3-3-3-|--3-3-3-3-3-3-3-3-3-3-|
|
|  W                      H         H
|----------------------|----------------------|
|----------------------|----------------------|
|--7-------------------|--8---------5---------|
|--8-------------------|--8---------5---------|
|-10-------------------|-10---------7---------|
|----------------------|----------------------|


   E E S S E E E S S E    E E S S E E E S S E
|----------------------|----------------------|
|----------------------|----------------------|
|----------------------|----------------------|
|--3-3-3-3-3-3-3-3-3-3-|--3-3-3-3-3-3-3-3-3-3-|
|
|  W                      W
|----------------------|----------------------|
|----------------------|----------------------|
|--7-------------------|--8-------------------|
|--8-------------------|--8-------------------|
|-10-------------------|-10-------------------|
|----------------------|----------------------|


   E E S S E E E S S E    E E S S E E E S S E
|----------------------|----------------------|
|----------------------|----------------------|
|----------------------|----------------------|
|--3-3-3-3-3-3-3-3-3-3-|--3-3-3-3-3-3-3-3-3-3-|
|
|  W                      W
|----------------------|----------------------|
|----------------------|----------------------|
|--7-------------------|--8-------------------|
|--8-------------------|--8-------------------|
|-10-------------------|-10-------------------|
|----------------------|----------------------|


  E E S S E E E S S E   E E S S E E E S S E
|---------------------|---------------------|
|---------------------|---------------------|
|---------------------|---------------------|
|-1-1-1-1-1-1-1-1-1-1-|-6-6-6-6-6-6-6-6-6-6-|
|
| W                     W
|---------------------|---------------------|
|---------------------|---------------------|
|-5-------------------|-7-------------------|
|-7-------------------|-8-------------------|
|-8-------------------|-8-------------------|
|---------------------|---------------------|


   E E S S E E E S S E     E  E S S E E E S S S S
|----------------------|--------------------------|
|----------------------|--------------------------|
|--6-6-6-6-6-6-6-6-6-6-|---6--6-6-6-6-6-6-6-6-6-6-|
|----------------------|--------------------------|
|
|  W                      +W
|----------------------|--------------------------|
|----------------------|--------------------------|
|--8-------------------|--(8)---------------------|
|--8-------------------|--(8)---------------------|
|-10-------------------|-(10)---------------------|
|----------------------|--------------------------|


  Bridge
   E S S S S S S S S S S S S S S    S  S S S S S S S S S S S S S S S
||-------------------------------|-----------------------------------|
||-------------------------------|-----------------------------------|
||-8-8-8-8-8-8-8-8-8-8-8-8-8-8-8-|--8--8-8-8-8-8-8-8-8-8-8-8-8-8-8-8-|
||-------------------------------|-----------------------------------|
|
|  W                               +W
||-------------------------------|-----------------------------------|
||-------------------------------|-----------------------------------|
||-5-----------------------------|-(5)-------------------------------|
||-7-----------------------------|-(7)-------------------------------|
||-8-----------------------------|-(8)-------------------------------|
||-------------------------------|-----------------------------------|


   E   S  S  S  S  S  S  S  S  S  S  S  S  S  S
|-----------------------------------------------|
|-----------------------------------------------|
|-10--10-10-10-10-10-10-10-10-10-10-13-13-12-12-|
|-----------------------------------------------|
|
|  H.                                Q
|-----------------------------------------------|
|-----------------------------------------------|
|--7---------------------------------8----------|
|--8---------------------------------8----------|
|-10--------------------------------10----------|
|-----------------------------------------------|


   S  S  S  S  S  S  S  S  S  S  S  S  S  S  S  S
|--------------------------------------------------|
|--------------------------------------------------|
|-13-13-13-13-12-12-12-12-10-10-10-10-12-12-12-12--|
|--------------------------------------------------|
|
|  W
|--------------------------------------------------|
|--------------------------------------------------|
|--7-----------------------------------------------|
|--8-----------------------------------------------|
|-10-----------------------------------------------|
|--------------------------------------------------|


  E S S S S S S S S S S S S S S    S  S S S S S S S S S S S S S S S
|-------------------------------|-----------------------------------|
|-------------------------------|-----------------------------------|
|-8-8-8-8-8-8-8-8-8-8-8-8-8-8-8-|--8--8-8-8-8-8-8-8-8-8-8-8-8-8-8-8-|
|-------------------------------|-----------------------------------|
|
| W                               +W
|-------------------------------|-----------------------------------|
|-------------------------------|-----------------------------------|
|-5-----------------------------|-(5)-------------------------------|
|-7-----------------------------|-(7)-------------------------------|
|-8-----------------------------|-(8)-------------------------------|
|-------------------------------|-----------------------------------|


  E S S S S S S S S S S S S S S    S  S S S S S S S S S S S S S S S
|-------------------------------|--------------------------------------|
|-------------------------------|--------------------------------------|
|-6-6-6-6-6-6-6-6-6-6-6-6-6-6-6-|--6--6-6-6-6-6-6-6-6-6-6-6-6-6-6-6----|
|-------------------------------|--------------------------------------|
|
| W                               +W
|-------------------------------|--------------------------------------|
|-------------------------------|--------------------------------------|
|-3-----------------------------|-(3)----------------------------------|
|-5-----------------------------|-(5)----------------------------------|
|-6-----------------------------|-(6)----------------------------------|
|-------------------------------|--------------------------------------|


  Chorus
   E S S S S S S S S S S S S S S   E S S S S S S S S S S S S S S
||-------------------------------|-------------------------------|
||-------------------------------|-------------------------------|
||-6-6-6-6-6-6-6-6-6-6-6-6-6-6-6-|-------------------------------|
||-------------------------------|-6-6-6-6-6-6-6-6-6-6-6-6-6-6-6-|
|
|  W                               W
||-------------------------------|-------------------------------|
||-------------------------------|-------------------------------|
||-3-----------------------------|-3-----------------------------|
||-5-----------------------------|-3-----------------------------|
||-6-----------------------------|-5-----------------------------|
||-------------------------------|-------------------------------|


  E S S S S S S S S S S S S S S   E S S S S S S S S S S S S S S
|-------------------------------|-------------------------------|
|-------------------------------|-------------------------------|
|-5-5-5-5-5-5-5-5-5-5-5-5-5-5-5-|-------------------------------|
|-------------------------------|-3-3-3-3-3-3-3-3-3-3-3-3-3-3-3-|
|
| W                               W
|-------------------------------|-------------------------------|
|-------------------------------|-------------------------------|
|-2-----------------------------|-3-----------------------------|
|-3-----------------------------|-5-----------------------------|
|-5-----------------------------|-5-----------------------------|
|-------------------------------|-------------------------------|


  E S S S S S S S S S S S S S S   E S S S S S S S S S S S S S S
|-------------------------------|-------------------------------|
|-------------------------------|-------------------------------|
|-6-6-6-6-6-6-6-6-6-6-6-6-6-6-6-|-------------------------------|
|-------------------------------|-6-6-6-6-6-6-6-6-6-6-6-6-6-6-6-|
|
| W                               W
|-------------------------------|-------------------------------|
|-------------------------------|-------------------------------|
|-3-----------------------------|-3-----------------------------|
|-5-----------------------------|-3-----------------------------|
|-6-----------------------------|-5-----------------------------|
|-------------------------------|-------------------------------|


                                 1.
  E S S S S S S S S S S S S S S   E S S S S S S S S S S Q
|-------------------------------|------------------------------||
|-------------------------------|-----------------------------o||
|-5-5-5-5-5-5-5-5-5-5-5-5-5-5-5-|-8-8-8-8-8-8-8-8-8-8-8-8\----o||
|-------------------------------|------------------------------||
|
| W                               H             H
|-------------------------------|------------------------------||
|-------------------------------|-----------------------------o||
|-2-----------------------------|-2-------------5--------------||
|-3-----------------------------|-3-------------7--------------||
|-5-----------------------------|-3-------------8-------------o||
|-------------------------------|------------------------------||


  2.
  E S S S S S S S S S S S S S S    E S S S S S S S S S S S S S S   E S S S S S S S S S S S S S S
|-------------------------------||-------------------------------|-------------------------------|
|-------------------------------||-------------------------------|-------------------------------|
|-8-8-8-8-8-8-8-8-8-8-8-8-8-8-8-||-6-6-6-6-6-6-6-6-6-6-6-6-6-6-6-|-------------------------------|
|-------------------------------||-------------------------------|-6-6-6-6-6-6-6-6-6-6-6-6-6-6-6-|
|
| W                                W                               W
|-------------------------------||-------------------------------|-------------------------------|
|-------------------------------||-------------------------------|-------------------------------|
|-2-----------------------------||-3-----------------------------|-3-----------------------------|
|-3-----------------------------||-5-----------------------------|-3-----------------------------|
|-3-----------------------------||-6-----------------------------|-5-----------------------------|
|-------------------------------||-------------------------------|-------------------------------|


  E S S S S S S S S S S S S S S   E S S S S S S S S S S S S S S
|-------------------------------|----------------------------------|
|-------------------------------|----------------------------------|
|-5-5-5-5-5-5-5-5-5-5-5-5-5-5-5-|----------------------------------|
|-------------------------------|-3-3-3-3-3-3-3-3-3-3-3-3-3-3-3----|
|
| W                               W
|-------------------------------|----------------------------------|
|-------------------------------|----------------------------------|
|-2-----------------------------|-3--------------------------------|
|-3-----------------------------|-5--------------------------------|
|-5-----------------------------|-5--------------------------------|
|-------------------------------|----------------------------------|


  E S S S S S S S S S S S S S S   E S S S S S S S S S S S S S S
|-------------------------------|-------------------------------|
|-------------------------------|-------------------------------|
|-6-6-6-6-6-6-6-6-6-6-6-6-6-6-6-|-------------------------------|
|-------------------------------|-6-6-6-6-6-6-6-6-6-6-6-6-6-6-6-|
|
| W                               W
|-------------------------------|-------------------------------|
|-------------------------------|-------------------------------|
|-3-----------------------------|-3-----------------------------|
|-5-----------------------------|-3-----------------------------|
|-6-----------------------------|-5-----------------------------|
|-------------------------------|-------------------------------|


  E S S S S S S S S S S S S S S   E S S S S S S S S S S S S S S
|-------------------------------|--------------------------------|
|-------------------------------|--------------------------------|
|-5-5-5-5-5-5-5-5-5-5-5-5-5-5-5-|-8-8-8-8-8-8-8-8-8-8-8-8-8-8-8--|
|-------------------------------|--------------------------------|
|
| W                               W
|-------------------------------|--------------------------------|
|-------------------------------|--------------------------------|
|-2-----------------------------|-2------------------------------|
|-3-----------------------------|-3------------------------------|
|-5-----------------------------|-3------------------------------|
|-------------------------------|--------------------------------|


  Guiter Solo
   E E S S E E E S S E   E E S S E E E S S E
||---------------------|---------------------|
||---------------------|---------------------|
||-5-5-5-5-5-5-5-5-5-5-|-3-3-3-3-3-3-3-3-3-3-|
||---------------------|---------------------|
|
|  W                     W
||---------------------|---------------------|
||---------------------|---------------------|
||-7-------------------|-5-------------------|
||-7-------------------|-5-------------------|
||-8-------------------|-7-------------------|
||---------------------|---------------------|


  E E S S E E E S S E   E E S S E E E S S E
|---------------------|-----------------------|
|---------------------|-----------------------|
|-5-5-5-5-5-5-5-5-5-5-|-8-8-8-8-8-7-7-7-7-7---|
|---------------------|-----------------------|
|
| W                     W
|---------------------|-----------------------|
|---------------------|-----------------------|
|-7-------------------|-5---------------------|
|-7-------------------|-7---------------------|
|-8-------------------|-8---------------------|
|---------------------|-----------------------|


  E E S S E E E S S E   E E S S E  E E S S E
|---------------------|----------------------|
|---------------------|----------------------|
|-5-5-5-5-5-5-5-5-5-5-|-3-3-3-3-3--3-3-3-3-3-|
|---------------------|----------------------|
|
| W                     H          H
|---------------------|----------------------|
|---------------------|----------------------|
|-7-------------------|-5----------9---------|
|-7-------------------|-5---------10---------|
|-8-------------------|-7---------10---------|
|---------------------|----------------------|


   E E S S E  E E S S E   E E S S E E E S S E
|-----------------------|---------------------|
|-----------------------|---------------------|
|--8-8-8-8-8--7-7-7-7-7-|-5-5-7-7-5-3-3-3-3-3-|
|-----------------------|---------------------|
|
|  H          H           H         H
|-----------------------|---------------------|
|-----------------------|---------------------|
|-10----------9---------|-7---------5---------|
|-10---------10---------|-7---------5---------|
|-12---------10---------|-8---------7---------|
|-----------------------|---------------------|


   E    E S S E   E   E S S  E    E     E S S  E   E  E  S  S E
|------------------------------|--------------------------------|
|------------------------------|--------------------------------|
|--5----5-5-5-5---5---5-5-5--5-|--3-----3-3-3--3---3--3--3--3-3-|
|------------------------------|--------------------------------|
|
| Gtr II
|                                                        \1
|  H             +E   Q      E    Q.           E  +Q     Q
|------------------------------|--------------------------------|
|------------------------------|--------------------------------|
|------------------------------|--------------------------------|
|--------------------12-----15-|-14tr15-------12-(12)---10------|
|-10b12---------(10)-----------|--------------------------------|
|------------------------------|--------------------------------|


  E E  S    S    E        E     E     S   S    E
|------------------------------------------------------|
|------------------------------------------------------|
|-5-5--5----5----5--------5-----5-----5---5----5-------|
|------------------------------------------------------|
|
|      |-------5-------|              |------5-------|
| E E  S  S    S    S  S  S  S  S  S  S S    S    S  S
|------------------------------------------------------|
|------------------------------------------------------|
|------------------------------------------------------|
|-9---15-17---15------------14-15-17-15-7--------------|
|------------------17-16-17-----------------17---16-14-|
|------------------------------------------------------|


   E       E        S    S    E        E    E    S  S E
|----------------------------------------------------------|
|----------------------------------------------------------|
|--8-------8--------8----8----8--------7----7----7--7-7----|
|----------------------------------------------------------|
|
|  |------5------|  |-------5-------|
|  S  S  S    S  S  S  S    S    S  S  S S  S  S S  S S S
|----------------------------------------------------------|
|----------------------------------------------------------|
|----------------------------------------------------------|
|------------12--------------------------------------------|
|-12-14-15------15-14-12-------------------------8-10-8-7--|
|--------------------------15---13-12-10-9-10-12-----------|


  E  E S S E  E  E S S E
|------------------------|
|------------------------|
|-5--5-5-5-5--5--5-5-5-5-|
|------------------------|
|
| Q.       E +Q    Q
|------------------------|
|------------------------|
|------------------------|
|------------------------|
|-5--------7-(7)---8-----|
|------------------------|


  E        E        S    S     E        E        E  S S  E
|--------------------------------------------------------------|
|--------------------------------------------------------------|
|-3--------3--------3----3-----3--------3--------3--3-3--3-----|
|--------------------------------------------------------------|
|
| |------6-------|  |-------6--------|  |--3--|
| S  S  S  S  S  S  S  S    S  S  S  S  S  S  S  E  E    S  S
|--------------------------------------------15-17-15---13-15--|
|------------------13------------------13-17-------------------|
|--------------------------------------------------------------|
|------------14-17----17---14----14-17-------------------------|
|------10-15------------------15-------------------------------|
|-8-12---------------------------------------------------------|


   E  E S S  E     E E  S S E    E    E  S S  E     E E  S S  E
|-----------------------------|---------------------------------|
|-----------------------------|---------------------------------|
|--8--8-8-8--8-----7-7--7-7-7-|--5----5--7-7--5-----3-3--3-3--3-|
|-----------------------------|---------------------------------|
|
|  Q.        S  S  Q    Q        Q       E    S  S  Q    E    E
|-17--------15-13-12----------|-18b20---20---25-22-20---24---22-|
|----------------------13-----|---------------------------------|
|-----------------------------|---------------------------------|
|-----------------------------|---------------------------------|
|-----------------------------|---------------------------------|
|-----------------------------|---------------------------------|
|
| Gtr I
|  W                             W
|-----------------------------|---------------------------------|
|-----------------------------|---------------------------------|
|-----------------------------|---------------------------------|
|-----------------------------|---------------------------------|
|-----------------------------|---------------------------------|
|-----------------------------|---------------------------------|


   E     E S S E   E   E S S E
|------------------------------|
|------------------------------|
|--1-----1-1-1-1---1---1-1-1-1-|
|------------------------------|
|
|  H              +Q     Q
|-18tr20---------(18)\---------|
|------------------------------|
|------------------------------|
|------------------------------|
|------------------------------|
|------------------------------|
|
|  W
|------------------------------|
|------------------------------|
|--7---------------------------|
|--8---------------------------|
|--8---------------------------|
|------------------------------|


  E E S S E E E S S E   E E S S E  E E S S E    E  E S S E S S E  S S E
|---------------------|----------------------|--------------------------|
|---------------------|----------------------|--------------------------|
|-----------3-3-3-3-3-|--------------------4-|--5--5-5-5-5-5-5-7--5-5-3-|
|-1-1-1-1-1-----------|-5-5-5-5-5--5-5-5-5---|--------------------------|
|
| Gtr I
| H         H           H          H            H.                Q
|---------------------|----------------------|--------------------------|
|---------------------|----------------------|--------------------------|
|-5---------5---------|-5----------9---------|-10-----------------9-----|
|-7---------5---------|-7---------10---------|-12----------------10-----|
|-8---------7---------|-7---------12---------|-12----------------10-----|
|---------------------|----------------------|--------------------------|


  E E S S E E E S S E    E  E S S E E E S S E
|---------------------|-----------------------|
|---------------------|-----------------------|
|-1-1-1-1-1-1-1-1-1-1-|--1--1-1-1-1-1-1-1-1-1-|
|---------------------|-----------------------|
|
| W                     +W
|---------------------|-----------------------|
|---------------------|-----------------------|
|-7-------------------|-(7)-------------------|
|-8-------------------|-(8)-------------------|
|-8-------------------|-(8)-------------------|
|---------------------|-----------------------|


   E E S S E E E S S E     E  E S S E E E S S E
|----------------------|------------------------|
|----------------------|------------------------|
|--3-3-3-3-3-3-3-3-3-3-|---3--3-3-3-3-3-3-3-3-3-|
|----------------------|------------------------|
|
|  W                      +W
|----------------------|------------------------|
|----------------------|------------------------|
|--9-------------------|--(9)-------------------|
|-10-------------------|-(10)-------------------|
|-10-------------------|-(10)-------------------|
|----------------------|------------------------|


  E   E     S S  E     E        E        S S E
|----------------------------------------------|
|----------------------------------------------|
|-1---1-----1-1--1-----1--------1--------1-1-1-|
|----------------------------------------------|
|
| Gtr II
|                      |------6-------|
| S S S  S  S S  S  S  S  S  S  S  S  S  Q
|---------------------------13-18-13-----------|
|---------------------11-15----------15-11-----|
|----------10------10--------------------------|
|-8---8-12----8-12-----------------------------|
|---8------------------------------------------|
|----------------------------------------------|


   E        E        S S E  E        E        S  S E
|--------------------------------------------------------|
|--------------------------------------------------------|
|---------------------------3--------3--------3--3-3-----|
|--1--------1--------1-1-1-------------------------------|
|
|  |------6-------|         |------6-------|
|  S  S  S  S  S  S  Q      S  S  S  S  S  S  S  S S  S
|-13-17-20-25-20-17-13-----------15-20-15----------------|
|--------------------------13-17----------17-13----------|
|-----------------------------------------------12-9-----|
|----------------------------------------------------10--|
|--------------------------------------------------------|
|--------------------------------------------------------|


   E     E     S  S  E     E     E     S  S  E
|-------------------------------------------------|
|-------------------------------------------------|
|--------------------------------------------4----|
|--5-----5-----5--5--5-----5-----5-----5--5-------|
|
|  S  S  S  S  S  S  S  S  S  S  S  S  S  S  S  S
|-18-17-15----------------------------------------|
|----------18-17-15-14----------------------------|
|----------------------16-14-12-------------------|
|-------------------------------15-14-12-11-------|
|-------------------------------------------14-12-|
|-------------------------------------------------|


   E     E    S  S  E     S S E   S S E
|----------------------------------------|
|----------------------------------------|
|--5-----5----5--5--5-----5-5-7---5-5-3--|
|----------------------------------------|
|
|  S  S  S  S S  S  S  S  S S S S S S E
|----------------------------------------|
|----------------------------------------|
|----------------------------------------|
|----------------------------------------|
|-10---------------------10-8-7-5--------|
|----13-12-10-9-10-12-13----------8-7-5--|


  E E S S E   E E S S E     E  E S S  E   E  E S S  E
|-----------------------|-----------------------------|
|-----------------------|-----------------------------|
|-1-1-1-1-1---1-1-1-1-1-|---1--1-1-1--1---1--1-1-1--1-|
|-----------------------|-----------------------------|
|
| H           E Q     E     E  Q      E   E  Q      E
|-----------------------|-----------------------------|
|-----------------------|---------------/13-11--------|
|-----------------------|-/12-10-------------------10-|
|-----------/10-8-------|------------10---------------|
|---------------------8-|-----------------------------|
|-6---------------------|-----------------------------|
|
| W                         W
|-----------------------|-----------------------------|
|-----------------------|-----------------------------|
|-----------------------|-----------------------------|
|-----------------------|-----------------------------|
|-----------------------|-----------------------------|
|-----------------------|-----------------------------|


    E E S S E   E  E S S  E     E  E S S  E   q       q
|---------------------------|-------------------------------|
|---------------------------|-------------------------------|
|---3-3-3-3-3---3--3-3-3--3-|---3--3-3-3--3---3-------4-----|
|---------------------------|-------------------------------|
|
|   E Q     E   E  Q      E     E  Q      E   E.  E.     E
|-/10-8-------/15-13--------|-/22-20--------/25--24-----22--|
|-----------8------------13-|------------20-----------------|
|---------------------------|-------------------------------|
|---------------------------|-------------------------------|
|---------------------------|-------------------------------|
|---------------------------|-------------------------------|
|
|                             Gtr I
|   W                           H             Q       Q
|---------------------------|-------------------------------|
|---------------------------|-------------------------------|
|---------------------------|-----------------9-------9-----|
|---------------------------|----------------10------11-----|
|---------------------------|----------------10------12-----|
|---------------------------|-------------------------------|


  E S S S S S S S S S S S S S S    S  S S S S S S S S S S S S S S S
|-------------------------------|-----------------------------------|
|-------------------------------|-----------------------------------|
|-5-5-5-5-5-5-5-5-5-5-5-5-5-5-5-|--5--5-5-5-5-5-5-5-5-5-5-5-5-5-5-5-|
|-------------------------------|-----------------------------------|
|
| Gtr I
| W                               +W
|-------------------------------|-----------------------------------|
|-------------------------------|-----------------------------------|
|-7-----------------------------|-(7)-------------------------------|
|-7-----------------------------|-(7)-------------------------------|
|-8-----------------------------|-(8)-------------------------------|
|-------------------------------|-----------------------------------|


  E S S S S S S S S S S S S S S    S  S S S S S S S S S S S S S S S
|-------------------------------|--------------------------------------|
|-------------------------------|--------------------------------------|
|-------------------------------|--------------------------------------|
|-6-6-6-6-6-6-6-6-6-6-6-6-6-6-6-|--6--6-6-6-6-6-6-6-6-6-6-6-6-6-6-6----|
|
| W                               +W
|-------------------------------|--------------------------------------|
|-------------------------------|--------------------------------------|
|-7-----------------------------|-(7)----------------------------------|
|-8-----------------------------|-(8)----------------------------------|
|-8-----------------------------|-(8)----------------------------------|
|-------------------------------|--------------------------------------|


  E S S S S S S S S S S S S S S    S  S S S S S S S S S S S S S S S
|-------------------------------|-----------------------------------|
|-------------------------------|-----------------------------------|
|-5-5-5-5-5-5-5-5-5-5-5-5-5-5-5-|--5--5-5-5-5-5-5-5-5-5-5-5-5-5-5-5-|
|-------------------------------|-----------------------------------|
|
| W                               +W
|-------------------------------|-----------------------------------|
|-------------------------------|-----------------------------------|
|-7-----------------------------|-(7)-------------------------------|
|-7-----------------------------|-(7)-------------------------------|
|-8-----------------------------|-(8)-------------------------------|
|-------------------------------|-----------------------------------|


  q         H.                          W
|-------------------------------------|------------------------------------|
|-------------------------------------|------------------------------------|
|-------------------------------------|------------------------------------|
|-5-----------------------------------|------------------------------------|
|
| Gtr II
| S  S  S S S   S S S S S S S S S S S   S S S S S S S S S S S S S S S S
|-------------------------------------|------------------------------------|
|-8-11-10-8-6--10-8-6-5-8-6-5-3-6-5-3-|------------------------------------|
|-------------------------------------|-6-7-9-6-4-7-6-4--------------------|
|-------------------------------------|-----------------5-7-9-7-5----------|
|-------------------------------------|---------------------------8-7-5----|
|-------------------------------------|------------------------------------|


   E S S S S S S S S S S S S S S    E S S S S S S  S S S S S S S S
|--------------------------------|---------------------------------|
|--------------------------------|---------------------------------|
|--------------------------------|--6-6-6-6-6-6-6--6-6-6-6-6-6-6-6-|
|--3-3-3-3-3-3-3-3-3-3-3-3-3-3-3-|---------------------------------|
|
| Gtr I
|  W                                H              Q       Q
|--------------------------------|---------------------------------|
|--------------------------------|---------------------------------|
|--7-----------------------------|--8-------------10-------8-------|
|--8-----------------------------|--8------------------------------|
|-10-----------------------------|-10------------------------------|
|--------------------------------|---------------------------------|


   E  S S S S S S S S S S S S S S   E  S S S S S S S S S S S S S S
|---------------------------------|---------------------------------|
|-------------------------5-5-----|---------------------------------|
|--5--5-5-5-5-5-5-5-5-6-6-----6-6-|-5--5-5-5-5-5-5-5-5-5-5-5-3------|
|---------------------------------|----------------------------6-5--|
|
|  H.                     Q         H.                     Q
|---------------------------------|---------------------------------|
|---------------------------------|---------------------------------|
|--7----------------------8-------|-7----------------------8--------|
|--7------------------------------|-7-------------------------------|
|-10------------------------------|-9-------------------------------|
|---------------------------------|---------------------------------|


   E S S S S S S S S S S S S S S    E S S S S S S  S S S S S S S S
|--------------------------------|---------------------------------|
|--------------------------------|---------------------------------|
|--------------------------------|--6-6-6-6-6-6-6--6-6-6-6-6-6-6-6-|
|--3-3-3-3-3-3-3-3-3-3-3-3-3-3-3-|---------------------------------|
|
|  W                                H              Q       Q
|--------------------------------|---------------------------------|
|--------------------------------|---------------------------------|
|--7-----------------------------|--8-------------10-------8-------|
|--8-----------------------------|--8------------------------------|
|-10-----------------------------|-10------------------------------|
|--------------------------------|---------------------------------|


   E  S S S S S S S S S S S S S S   E  S S S S S S S S S S S S S S
|---------------------------------|---------------------------------|
|---------------------------------|---------------------------------|
|--5--5-5-5-5-5-5-5-5-5-5-5-6-6-3-|-5--5-5-5-5-5-5-5-5-5-5-5-5-5-5--|
|---------------------------------|---------------------------------|
|
|  H.                     Q         H.                     Q
|---------------------------------|---------------------------------|
|---------------------------------|---------------------------------|
|--7----------------------8-------|-7----------------------8--------|
|--7------------------------------|-7-------------------------------|
|-10------------------------------|-9-------------------------------|
|---------------------------------|---------------------------------|


  Chorus 2
   E S S S S S S S S S S S S S S   E S S S S S S S S S S S S S S
||-------------------------------|-------------------------------|
||-------------------------------|-------------------------------|
||-6-6-6-6-6-6-6-6-6-6-6-6-6-6-6-|-------------------------------|
||-------------------------------|-6-6-6-6-6-6-6-6-6-6-6-6-6-6-6-|
|
|  W                               W
||-------------------------------|-------------------------------|
||-------------------------------|-------------------------------|
||-3-----------------------------|-3-----------------------------|
||-5-----------------------------|-3-----------------------------|
||-6-----------------------------|-5-----------------------------|
||-------------------------------|-------------------------------|


  E S S S S S S S S S S S S S S   E S S S S S S S S S S S S S S
|-------------------------------|-------------------------------|
|-------------------------------|-------------------------------|
|-5-5-5-5-5-5-5-5-5-5-5-5-5-5-5-|-------------------------------|
|-------------------------------|-3-3-3-3-3-3-3-3-3-3-3-3-3-3-3-|
|
| W                               W
|-------------------------------|-------------------------------|
|-------------------------------|-------------------------------|
|-2-----------------------------|-3-----------------------------|
|-3-----------------------------|-5-----------------------------|
|-5-----------------------------|-5-----------------------------|
|-------------------------------|-------------------------------|


  E S S S S S S S S S S S S S S   E S S S S S S S S S S S S S S
|-------------------------------|-------------------------------|
|-------------------------------|-------------------------------|
|-6-6-6-6-6-6-6-6-6-6-6-6-6-6-6-|-------------------------------|
|-------------------------------|-6-6-6-6-6-6-6-6-6-6-6-6-6-6-6-|
|
| W                               W
|-------------------------------|-------------------------------|
|-------------------------------|-------------------------------|
|-3-----------------------------|-3-----------------------------|
|-5-----------------------------|-3-----------------------------|
|-6-----------------------------|-5-----------------------------|
|-------------------------------|-------------------------------|


  E S S S S S S S S S S S S S S   E S S S S S S S S S S Q
|-------------------------------|-----------------------------|
|-------------------------------|-----------------------------|
|-5-5-5-5-5-5-5-5-5-5-5-5-5-5-5-|-8-8-8-8-8-8-8-8-8-8-8-8\----|
|-------------------------------|-----------------------------|
|
| W                               W
|-------------------------------|-----------------------------|
|-------------------------------|-----------------------------|
|-2-----------------------------|-2---------------------------|
|-3-----------------------------|-3---------------------------|
|-5-----------------------------|-3---------------------------|
|-------------------------------|-----------------------------|


  Interlude
   E S S S S S S S S S S S S S S   S S S S S S S S S S S S S S S S
||-------------------------------|---------------------------------|
||-------------------------------|---------------------------------|
||-3-3-3-3-3-3-3-3-3-3-3-3-3-3-3-|---------------------------------|
||-------------------------------|-3-3-3-3-3-3-3-3-3-3-3-3-3-3-3-3-|


  S S S S S S S S S S S S S S S S   S S S S S S S S S S S S S S S S
|---------------------------------|---------------------------------|
|---------------------------------|---------------------------------|
|---------------------------------|-1-1-1-1-1-1-1-1-1-1-1-1-1-1-1-1-|
|-1-1-1-1-1-1-1-1-1-1-1-1-1-1-1-1-|---------------------------------|


  S S S S S S S S S S S S S S S S
|---------------------------------|
|---------------------------------|
|-3-3-3-3-3-3-3-3-3-3-3-3-3-3-3-3-|
|---------------------------------|


                                    5/4
  S S S S S S S S S S S S S S S S    E E E E E E E E E E
|---------------------------------||----------------------|
|---------------------------------||-4--------------------|
|---------------------------------||---6-5-6-5-3-5---3----|
|-3-3-3-3-3-3-3-3-3-3-3-3-3-3-3-3-||---------------6---5--|


  Breakdown
  4/4
   E E E E E E E E   E E E E E E E E   E E E E E E E E   E E E E E E E E
||-----------------|-----------------|-----------------|------------------|
||-----------------|-----------------|-----------------|------------------|
||-6-6-6-6-6-6-6-6-|-----------------|-5-5-5-5-5-5-5-5-|------------------|
||-----------------|-6-6-6-6-6-6-6-6-|-----------------|-3-3-3-3-3-3-3-3--|


  E E E E E E E E   E E E E E E E E   E E E E E E E E   H    Q  Q
|-----------------|-----------------|-----------------|-------------|
|-----------------|-----------------|-----------------|-------------|
|-6-6-6-6-6-6-6-6-|-----------------|-5-5-5-5-5-5-5-5-|-8----8--8---|
|-----------------|-6-6-6-6-6-6-6-6-|-----------------|-------------|


  Chorus 3
   E S S S S S S S S S S S S S S   E S S S S S S S S S S S S S S
||-------------------------------|-------------------------------|
||-------------------------------|-------------------------------|
||-6-6-6-6-6-6-6-6-6-6-6-6-6-6-6-|-------------------------------|
||-------------------------------|-6-6-6-6-6-6-6-6-6-6-6-6-6-6-6-|
|
|  Gtr I
|  W                               W
||-------------------------------|-------------------------------|
||-------------------------------|-------------------------------|
||-3-----------------------------|-3-----------------------------|
||-5-----------------------------|-3-----------------------------|
||-6-----------------------------|-5-----------------------------|
||-------------------------------|-------------------------------|


  E S S S S S S S S S S S S S S   E S S S S S S S S S S S S S S
|-------------------------------|-------------------------------|
|-------------------------------|-------------------------------|
|-5-5-5-5-5-5-5-5-5-5-5-5-5-5-5-|-------------------------------|
|-------------------------------|-3-3-3-3-3-3-3-3-3-3-3-3-3-3-3-|
|
| W                               W
|-------------------------------|-------------------------------|
|-------------------------------|-------------------------------|
|-2-----------------------------|-3-----------------------------|
|-3-----------------------------|-5-----------------------------|
|-5-----------------------------|-5-----------------------------|
|-------------------------------|-------------------------------|


  E S S S S S S S S S S S S S S   E S S S S S S S S S S S S S S
|-------------------------------|-------------------------------|
|-------------------------------|-------------------------------|
|-6-6-6-6-6-6-6-6-6-6-6-6-6-6-6-|-------------------------------|
|-------------------------------|-6-6-6-6-6-6-6-6-6-6-6-6-6-6-6-|
|
| W                               W
|-------------------------------|-------------------------------|
|-------------------------------|-------------------------------|
|-3-----------------------------|-3-----------------------------|
|-5-----------------------------|-3-----------------------------|
|-6-----------------------------|-5-----------------------------|
|-------------------------------|-------------------------------|


  E S S S S S S S S S S S S S S   E S S S S S S S S S S S S S S
|-------------------------------|--------------------------------|
|-------------------------------|--------------------------------|
|-5-5-5-5-5-5-5-5-5-5-5-5-5-5-5-|-8-8-8-8-8-8-8-8-8-8-8-8-8-8-8--|
|-------------------------------|--------------------------------|
|
| W                               H             H
|-------------------------------|--------------------------------|
|-------------------------------|--------------------------------|
|-2-----------------------------|-2-------------5----------------|
|-3-----------------------------|-3-------------7----------------|
|-5-----------------------------|-3-------------8----------------|
|-------------------------------|--------------------------------|


  Out-Chorus
   S S S S S S S S S S S S S S S S   S S S S S S S S S S S S S S S S
||---------------------------------|---------------------------------|
||---------------------------------|---------------------------------|
||---------------------------------|-5-5-5-5-5-5-5-5-5-5-5-5-5-5-5-5-|
||-3-3-3-3-3-3-3-3-3-3-3-3-3-3-3-3-|---------------------------------|
|
|  W                                 W
||---------------------------------|---------------------------------|
||-8-------------------------------|-7-------------------------------|
||-4-------------------------------|-2-------------------------------|
||-0-------------------------------|-0-------------------------------|
||---------------------------------|---------------------------------|
||---------------------------------|---------------------------------|


  S S S S S S S S S S S S S S S S   S S S S S S S S S S S S S S S S
|---------------------------------|-----------------------------------|
|---------------------------------|-----------------------------------|
|---------------------------------|-2-2-2-2-2-2-2-2-2-2-2-2-2-2-2-2---|
|-2-2-2-2-2-2-2-2-2-2-2-2-2-2-2-2-|-----------------------------------|
|
| W                                 W
|---------------------------------|-----------------------------------|
|-7-------------------------------|-7---------------------------------|
|-2-------------------------------|-4---------------------------------|
|---------------------------------|-0---------------------------------|
|-4-------------------------------|-----------------------------------|
|---------------------------------|-----------------------------------|


  S S S S S S S S S S S S S S S S   S S S S S S S S S S S S S S S S
|---------------------------------|---------------------------------|
|---------------------------------|---------------------------------|
|---------------------------------|-5-5-5-5-5-5-5-5-5-5-5-5-5-5-5-5-|
|-3-3-3-3-3-3-3-3-3-3-3-3-3-3-3-3-|---------------------------------|
|
| W                                 W
|---------------------------------|---------------------------------|
|-8-------------------------------|-7-------------------------------|
|-4-------------------------------|-2-------------------------------|
|-0-------------------------------|-0-------------------------------|
|---------------------------------|---------------------------------|
|---------------------------------|---------------------------------|


  S S S S S S S S S S S S S S S S   S S S S S S S S S S S S S S S S
|---------------------------------|------------------------------------|
|---------------------------------|------------------------------------|
|---------------------------------|------------------------------------|
|-2-2-2-2-2-2-2-2-2-2-2-2-2-2-2-2-|-5-5-5-5-5-5-5-5-5-5-5-5-5-5-5-5----|
|
| W                                 W
|---------------------------------|------------------------------------|
|-7-------------------------------|-5----------------------------------|
|-2-------------------------------|-2----------------------------------|
|---------------------------------|------------------------------------|
|-4-------------------------------|-4----------------------------------|
|---------------------------------|------------------------------------|


  S S S S S S S S S S S S S S S S   S S S S S S S S S S S S S S S S
|---------------------------------|---------------------------------|
|---------------------------------|---------------------------------|
|---------------------------------|-5-5-5-5-5-5-5-5-5-5-5-5-5-5-5-5-|
|-3-3-3-3-3-3-3-3-3-3-3-3-3-3-3-3-|---------------------------------|
|
| W                                 W
|---------------------------------|---------------------------------|
|-8-------------------------------|-7-------------------------------|
|-4-------------------------------|-2-------------------------------|
|-0-------------------------------|-0-------------------------------|
|---------------------------------|---------------------------------|
|---------------------------------|---------------------------------|


  S S S S S S S S S S S S S S S S   S S S S S S S S S S S S S S S S
|---------------------------------|------------------------------------|
|---------------------------------|------------------------------------|
|---------------------------------|-2-2-2-2-2-2-2-2-2-2-2-2-2-2-2-2----|
|-2-2-2-2-2-2-2-2-2-2-2-2-2-2-2-2-|------------------------------------|
|
| W                                 W
|---------------------------------|------------------------------------|
|-7-------------------------------|-7----------------------------------|
|-2-------------------------------|-4----------------------------------|
|---------------------------------|-0----------------------------------|
|-4-------------------------------|------------------------------------|
|---------------------------------|------------------------------------|


  S S S S S S S S S S S S S S S S   S S S S S S S S S S S S S S S S
|---------------------------------|---------------------------------|
|---------------------------------|---------------------------------|
|---------------------------------|-5-5-5-5-5-5-5-5-5-5-5-5-5-5-5-5-|
|-3-3-3-3-3-3-3-3-3-3-3-3-3-3-3-3-|---------------------------------|
|
| W                                 W
|---------------------------------|---------------------------------|
|-8-------------------------------|-7-------------------------------|
|-4-------------------------------|-2-------------------------------|
|-0-------------------------------|-0-------------------------------|
|---------------------------------|---------------------------------|
|---------------------------------|---------------------------------|


  S S S S S S S S S S S S S S S S   S S S S S S S S S S S S S S S S   H       H
|---------------------------------|---------------------------------|--------------*|
|---------------------------------|---------------------------------|--------------*|
|---------------------------------|---------------------------------|--------------*|
|-2-2-2-2-2-2-2-2-2-2-2-2-2-2-2-2-|-5-5-5-5-5-5-5-5-5-5-5-5-5-5-5-5-|-7\-----------*|
|
| W                                 W                                 Q   H.
|---------------------------------|---------------------------------|--------------*|
|-7-------------------------------|-5-------------------------------|-7------------*|
|-2-------------------------------|-2-------------------------------|-6------------*|
|---------------------------------|---------------------------------|-0------------*|
|-4-------------------------------|-4-------------------------------|--------------*|
|---------------------------------|---------------------------------|--------------*|



Duration Legend
---------------
W - whole; H - half; Q - quarter; E - 8th; S - 16th; T - 32nd; X - 64th; a - acciaccatura
+ - note tied to previous; . - note dotted; .. - note double dotted
Uncapitalized letters represent notes that are staccato (1/2 duration)
Irregular groupings are notated above the duration line
Duration letters will always appear directly above the note/fret number it represents the
duration for.  Duration letters with no fret number below them represent rests.  Multi-
bar rests are notated in the form Wxn, where n is the number of bars to rest for.  Low
melody durations appear below the staff

Tablature Legend
----------------
 h   - hammer-on
 p   - pull-off
 b   - bend
 pb  - pre-bend
 r   - bend release (if no number after the r, then release immediately)
 /\  - slide into or out of (from/to "nowhere")
 s   - legato slide
 S   - shift slide
<n> - natural harmonic
[n]  - artificial harmonic
n(n) - tapped harmonic
 ~   - vibrato
 tr  - trill
 T   - tap
 TP  - trem. picking
 PM  - palm muting
\n/  - tremolo bar dip; n = amount to dip
 \n  - tremolo bar down
 n/  - tremolo bar up
/n\  - tremolo bar inverted dip
 =   - hold bend; also acts as connecting device for hammers/pulls
 <> - volume swell (louder/softer)
 x   - on rhythm slash represents muted slash
 o   - on rhythm slash represents single note slash

Misc Legend
-----------
 |  - bar
||  - double bar
||o - repeat start
o|| - repeat end
*|  - double bar (ending)
 :  - bar (freetime)
 $  - Segno
 &  - Coda
Tempo markers - <E/E./Q/Q./H/H.> = BPM(8/16=s8/s16), where s8 = swing 8ths, s16 = swing 16ths

comments
We did not receive enough feedback on this tab! Please rate:
print report bad tab
1 2 3 4 5
I want to post or [tab]
guest
You may want to rate the tab now too:
select rating
Please do not post tabs as comments. Select "correction" instead!