Oops, an error
Loading. Please wait.

Blank File Tab

ver2
ver2

Whole song

Interactive

More versions @911Tabs.com
501 views 1 this week
no commentswrite comment
1 2 3 4 5
accurate
x 1
add to favorites launch autoscroll
font size
0
reset
Autoscroll
+/-
esc
set tempo
stop
Contributor
Tuning
D# G# C# F# A# D#
WARNING: You are trying to view
                                    content from Ultimate-Guitar.com
                                    in an unauthorized application,
                                    which is prohibited.

                                    Please use an official Ultimate
                                    Guitar Tabs application for iPhone,
                                    iPad or Android to access legitimate
                                    chords, guitar, bass, and drum tabs
                                    from Ultimate-Guitar.com database.

                                    Type "ultimate guitar tabs" in Apple
                                    App Store's or Android Market's
                                    search to find the application.
#----------------------------------PLEASE NOTE---------------------------------#
#This file is the author's own work and represents their interpretation of the #
#song. You may only use this file for private study, scholarship, or research. #
#------------------------------------------------------------------------------#

BLANK FILE
As recorded by Sonata Arctica
(From the 1998 Album ECLIPTICA)

Transcribed by Tomohiro Harada
        

Words and Music by Tony Kakko
Arranged by Sonata Arctica

Gtr I (D# G# C# F# A# D#) - 'Jani Riff'
Gtr II (D# G# C# F# A# D#) - 'Jani Solo'
Gtr III (D# G# C# F# A# D#) - 'Jani Solo2'

 Intro Drum                 Verse
  Q=180
  N.C.               Ab      Gm
 4/4
  Gtr I
                                 PM------|           PM------------|
  W          H    Q   Q       E  S  S  S  S  E  +E   S  S  S  S  S  S
|----------|-------------||-------------------------------------------|
|----------|-------------||o------------------------------------------|
|----------|-------------||-------------------------------------------|
|----------|---------13--||--12-------------12-(12)-------------------|
|----------|---------11--||o-10-10-10-10-10-10-(10)-10-10-10-10-10-10-|
|----------|-------------||-------------------------------------------|


  Eb/Gb
      PM------|           PM------------|
   E  S  S  S  S  E  +E   S  S  S  S  S  S
|------------------------------------------|
|------------------------------------------|
|------------------------------------------|
|-13-------------13-(13)-------------------|
|-10-10-10-10-10-10-(10)-10-10-10-10-10-10-|
|------------------------------------------|


  Gm
      PM------|           PM------------|
   E  S  S  S  S  E  +E   S  S  S  S  S  S
|------------------------------------------|
|------------------------------------------|
|------------------------------------------|
|-12-------------12-(12)-------------------|
|-10-10-10-10-10-10-(10)-10-10-10-10-10-10-|
|------------------------------------------|


  Eb/Gb                                      F
      PM------|           PM------------|
   E  S  S  S  S  E  +E   S  S  S  S  S  S    W           W
|------------------------------------------|-----------|-------|
|------------------------------------------|-----------|-------|
|------------------------------------------|-----------|-------|
|-13-------------13-(13)-------------------|-10--------|-10----|
|-10-10-10-10-10-10-(10)-10-10-10-10-10-10-|--8--------|--8----|
|------------------------------------------|-----------|-------|


  Gm
      PM------|           PM------------|
   E  S  S  S  S  E  +E   S  S  S  S  S  S
|------------------------------------------|
|------------------------------------------|
|------------------------------------------|
|-12-------------12-(12)-------------------|
|-10-10-10-10-10-10-(10)-10-10-10-10-10-10-|
|------------------------------------------|


  Eb/Gb
      PM------|           PM------------|
   E  S  S  S  S  E  +E   S  S  S  S  S  S
|------------------------------------------|
|------------------------------------------|
|------------------------------------------|
|-13-------------13-(13)-------------------|
|-10-10-10-10-10-10-(10)-10-10-10-10-10-10-|
|------------------------------------------|


  Gm                                         Eb/Gb
      PM------|           PM------------|        PM------|           PM------------|
   E  S  S  S  S  E  +E   S  S  S  S  S  S    E  S  S  S  S  E  +E   S  S  S  S  S  S
|------------------------------------------|------------------------------------------|
|------------------------------------------|------------------------------------------|
|------------------------------------------|------------------------------------------|
|-12-------------12-(12)-------------------|-13-------------13-(13)-------------------|
|-10-10-10-10-10-10-(10)-10-10-10-10-10-10-|-10-10-10-10-10-10-(10)-10-10-10-10-10-10-|
|------------------------------------------|------------------------------------------|


  Gm                                         Eb/Gb
      PM------|           PM------------|        PM------|           PM------------|
   E  S  S  S  S  E  +E   S  S  S  S  S  S    E  S  S  S  S  E  +E   S  S  S  S  S  S
|------------------------------------------|---------------------------------------------|
|------------------------------------------|---------------------------------------------|
|------------------------------------------|---------------------------------------------|
|-12-------------12-(12)-------------------|-13-------------13-(13)----------------------|
|-10-10-10-10-10-10-(10)-10-10-10-10-10-10-|-10-10-10-10-10-10-(10)-10-10-10-10-10-10----|
|------------------------------------------|---------------------------------------------|


  F           Bb         Eb
   W          W          W          W
|-----------|----------|----------|------|
|-----------|----------|----------|------|
|-----------|----------|----------|------|
|-10--------|----------|-8--------|-8----|
|--8--------|-8--------|-6--------|-6----|
|-----------|-6--------|----------|------|


  Bridge
   F
      PM----------------------------------------------------------|
    E S S S S S S S S S S S S S S   S S S S S S S S S S S S S S S S
||--------------------------------|---------------------------------|
||--------------------------------|---------------------------------|
||--------------------------------|---------------------------------|
||-10-----------------------------|---------------------------------|
||--8-8-8-8-8-8-8-8-8-8-8-8-8-8-8-|-8-8-8-8-8-8-8-8-8-8-8-8-8-8-8-8-|
||--------------------------------|---------------------------------|


  Gm                            Eb/Gb
      PM------|      PM------|      PM----
   E  S  S  S  S  E  S  S  S  S  E  S  S
|----------------------------------------|
|----------------------------------------|
|----------------------------------------|
|-12-------------12-------------13-------|
|-10-10-10-10-10-10-10-10-10-10-10-10-10-|
|----------------------------------------|


  Gm
 ----|      PM------|      PM|      PM|
   S  S  E  S  S  S  S  E  S  S  E  S  S
|----------------------------------------|
|----------------------------------------|
|----------------------------------------|
|-------12-------------10-------12-------|
|-10-10-10-10-10-10-10-10-10-10-10-10-10-|
|----------------------------------------|


  F
   W           +W           W          +W
|-----------|-------------|----------|--------|
|-----------|-------------|----------|--------|
|-----------|-------------|----------|--------|
|-10--------|-(10)--------|-8--------|-(8)----|
|--8--------|--(8)--------|-6--------|-(6)----|
|-----------|-------------|----------|--------|


  Chorus
   Eb         Bb         Dm         Gm
   W          W          W          W
||----------|----------|----------|------|
||----------|----------|----------|------|
||----------|----------|----------|------|
||-8--------|----------|-7--------|------|
||-6--------|-8--------|-5--------|-5----|
||----------|-6--------|----------|-3----|


                                  1.
  Eb         Bb         Dm         F
  W          W          W           W
|----------|----------|----------|--------||
|----------|----------|----------|-------o||
|----------|----------|----------|--------||
|-8--------|----------|-7--------|-10-----||
|-6--------|-8--------|-5--------|--8----o||
|----------|-6--------|----------|--------||


  2.
  F            Eb         Bb         Dm         Gm
   W           W          W          W          H    E E E E
|-----------||----------|----------|----------|----------------|
|-----------||----------|----------|----------|----------------|
|-----------||----------|----------|----------|----------------|
|-10--------||-8--------|----------|-7--------|----------------|
|--8--------||-6--------|-8--------|-5--------|-5----------5---|
|-----------||----------|-6--------|----------|-3----3-5-6-----|


  Eb         Bb         Dm         F
  W          W          W           W
|----------|----------|----------|-------|
|----------|----------|----------|-------|
|----------|----------|----------|-------|
|-8--------|----------|-7--------|-10----|
|-6--------|-8--------|-5--------|--8----|
|----------|-6--------|----------|-------|


  Guiter Solo
   Dm                                         C
   Gtrs II, III
                                    ~~                           ~~~~~~~
    E.    S     +E     E  +E   E    Q          S  S  S  S  S  S  E  +H
||-10---------------------------------------|---------------------------------------|
||-10----12b13-(12)---12-(12)---------------|---------------------------------------|
||-------12b13-(12)---12-(12)-10------------|---------------------------------------|
||---------------------------------12-------|-12p10----10-10h12---------------------|
||------------------------------------------|-------12----------10-(10)-------------|
||------------------------------------------|---------------------------------------|
|
|  Gtr I
|      PM-----------|          PM---------|          PM------|          PM--------|
|   E  S  S      S  S  E  +E   S S  S S S S    E     S  S  S  S  E  +E  S S S S S S
||------------------------------------------|---------------------------------------|
||------------------------------------------|---------------------------------------|
||------------------------------------------|---------------------------------------|
||--7------------------7--(7)---------------|--5-----------------5--(5)-------------|
||--5--5--5------5--5--5--(5)--5-5--5-5-5-5-|--3-----3--3--3--3--3--(3)-3-3-3-3-3-3-|
||------------------------------------------|---------------------------------------|


  Dm                                                    F                       F/E
                           |--3---|
   S  S  S  S  S  S  S  S  S   S  S  S  S  S  S  S  S    S  S  S  S  S  S  S  S  Q   +Q
|-----------------------------------------------------|--------------------------------------|
|-------------------------10h=13p10-------------------|--------------------------------------|
|-------------------10h12-----------12p10-------------|--------------------------------------|
|-------------10h12-----------------------12p10-12p10-|----10--------------------------------|
|-------10h12-----------------------------------------|-12----12p10----10--------------------|
|-10h13-----------------------------------------------|-------------13----13p10-13--(13)\----|
|
|        PM------|                   PM------------|
|  E     S  S  S  S  E    +E         S  S  S  S  S  S    W
|-----------------------------------------------------|--------------------------------------|
|-----------------------------------------------------|--------------------------------------|
|-----------------------------------------------------|--------------------------------------|
|--7-----------------7----(7)-------------------------|-10-----------------------------------|
|--5-----5--5--5--5--5----(5)--------5--5--5--5--5--5-|--8-----------------------------------|
|-----------------------------------------------------|--------------------------------------|


  Dm
            T  T               T
   |--3--|
   S  S  S  S  S  S  S  S  S   E   S  S  S  S  S  S
|---------------------------------------------------|
|-15h17h18-20s21-18p17p15---------------------------|
|-------------------------17-/21--14-17p15p14----14-|
|---------------------------------------------17----|
|---------------------------------------------------|
|---------------------------------------------------|
|
|           PM------|              PM------------|
|  E        S  S  S  S  E     +E   S  S  S  S  S  S
|---------------------------------------------------|
|---------------------------------------------------|
|---------------------------------------------------|
|--7--------------------7-----(7)-------------------|
|--5--------5--5--5--5--5-----(5)--5--5--5--5--5--5-|
|---------------------------------------------------|


  C
                                       |--3---|
   S  S  S  S  S  S  S  S  S   S  S  S S  S   S  S  S
|------------------------------------------------------|
|------------------------------------------------------|
|------------------------------------------------------|
|-17p15p14----12h14p12---------------------------------|
|----------17----------15-12h=13p12----8h10p==8--------|
|-----------------------------------15----------12-10--|
|
|        PM------|                PM---------------|
|  E     S  S  S  S  E    +E      S  S S    S    S  S
|------------------------------------------------------|
|------------------------------------------------------|
|------------------------------------------------------|
|--5-----------------5----(5)--------------------------|
|--3-----3--3--3--3--3----(3)-----3--3-3----3----3--3--|
|------------------------------------------------------|


  F        C/E     Dm           C
            ~~
   Q.    E  H       Q.      S S  H
|----------------|--------------10b12----|
|----------------|-----------------------|
|----------------|-10b12---10p8----------|
|-------10-------|-----------------------|
|----------10----|-----------------------|
|--8-------------|-----------------------|
|
|  H        H       H            H
|----------------|-----------------------|
|----------------|-----------------------|
|----------------|-----------------------|
|-10-------10----|--7------------5-------|
|--8--------7----|--5------------3-------|
|----------------|-----------------------|


  Dm                             C
   ~~
   W                             W
|-10---------------------------|-----------------------------|
|------------------------------|-----------------------------|
|------------------------------|-----------------------------|
|------------------------------|-----------------------------|
|------------------------------|-----------------------------|
|------------------------------|-----------------------------|
|
|    PM----|       PM--------|     PM----|       PM--------|
|  E S S S S E +E  S S S S S S   E S S S S E +E  S S S S S S
|------------------------------|-----------------------------|
|------------------------------|-----------------------------|
|------------------------------|-----------------------------|
|--7---------7-(7)-------------|-5---------5-(5)-------------|
|--5-5-5-5-5-5-(5)-5-5-5-5-5-5-|-3-3-3-3-3-3-(3)-3-3-3-3-3-3-|
|------------------------------|-----------------------------|


  Dm                            F
  Gtr I
    PM----|       PM--------|
  E S S S S E +E  S S S S S S    W
|-----------------------------|-------|
|-----------------------------|-------|
|-----------------------------|-------|
|-7---------7-(7)-------------|-10----|
|-5-5-5-5-5-5-(5)-5-5-5-5-5-5-|--8----|
|-----------------------------|-------|


  Dm                            C
    PM----|       PM--------|     PM----|       PM--------|
  E S S S S E +E  S S S S S S   E S S S S E +E  S S S S S S
|-----------------------------|-----------------------------|
|-----------------------------|-----------------------------|
|-----------------------------|-----------------------------|
|-7---------7-(7)-------------|-5---------5-(5)-------------|
|-5-5-5-5-5-5-(5)-5-5-5-5-5-5-|-3-3-3-3-3-3-(3)-3-3-3-3-3-3-|
|-----------------------------|-----------------------------|


  F     F/E     Dm   C
   H     H      H    H
|-------------|-----------|
|-------------|-----------|
|-------------|-----------|
|-10----10----|-7----5----|
|--8-----7----|-5----3----|
|-------------|-----------|


  Bb                            F                    C
  Gtr II
                                                      ~~
    Q.    S  S  E.  S  +E   E    a  E.  S  +E   E  a  H
|-----------------------------|----------------------------|
|-----------------------------|----------------------------|
|-/10----10-10-10--12-(12)-14-|-12-14--12-(12)-10-10-12----|
|-----------------------------|----------------------------|
|-----------------------------|----------------------------|
|-----------------------------|----------------------------|
|
| Gtr III
|                                                     ~~
|   Q.    S  S  E.  S  +E   E    a  E.  S  +E   E  a  H
|-/13----13-13-13--15-(15)-17-|-15-17--15-(15)-13-13-15----|
|-----------------------------|----------------------------|
|-----------------------------|----------------------------|
|-----------------------------|----------------------------|
|-----------------------------|----------------------------|
|-----------------------------|----------------------------|
|
| Gtr I
|   W                               H                 H
|-----------------------------|----------------------------|
|-----------------------------|----------------------------|
|-----------------------------|----------------------------|
|---3-------------------------|-----------------------5----|
|---1-------------------------|-----3-----------------3----|
|-----------------------------|-----1----------------------|


  A                             Dm              C
    Q.    S  S  E.  S  +E   E    a  Q    Q   Q   Q
|-----------------------------|----------------------|
|-----------------------------|----------------------|
|--/9-----9--9--9--10-(10)-12-|-10-12---10---9--10---|
|-----------------------------|----------------------|
|-----------------------------|----------------------|
|-----------------------------|----------------------|
|
|   Q.    S  S  E.  S  +E   E    a  Q    Q   Q   Q
|-/12----12-12-12--13-(13)-15-|-13-15---13--12--15---|
|-----------------------------|----------------------|
|-----------------------------|----------------------|
|-----------------------------|----------------------|
|-----------------------------|----------------------|
|-----------------------------|----------------------|
|
|   W                               H.           Q
|-----------------------------|----------------------|
|-----------------------------|----------------------|
|-----------------------------|----------------------|
|---2-------------------------|-----7------------5---|
|---0-------------------------|-----5------------3---|
|-----------------------------|----------------------|


  Bb                                        C
   Q.    E  +Q    Q     +E   Q.    Q   Q        S  S  S  S  S  S  S  S  S  S  S  S  S  S  S  S
|--------------------|--------------------|----------------------------------------------------|
|--------------------|--------------------|----------------------11h13h15----------------13h15h|
|--7-----9--(9)--10--|-(10)--7-----9--10--|-------------10h12h14----------------12h14h15-------|
|--------------------|--------------------|----10h12h14-------------------14h15----------------|
|--------------------|--------------------|----------------------------------------------------|
|--------------------|--------------------|----------------------------------------------------|
|
|                                               ~~~~~~~~~~~~~~~~~~~~~~~~~~~~~~~~~~~~~~~~~~~~~~~~
|  Q.    E  +Q    Q     +E   Q.    Q   Q     a  W
|-13----15-(15)--17--|-(17)-13----15--17--|-17-20----------------------------------------------|
|--------------------|--------------------|----------------------------------------------------|
|--------------------|--------------------|----------------------------------------------------|
|--------------------|--------------------|----------------------------------------------------|
|--------------------|--------------------|----------------------------------------------------|
|--------------------|--------------------|----------------------------------------------------|
|
|  W                    +W                      W
|--------------------|--------------------|----------------------------------------------------|
|--------------------|--------------------|----------------------------------------------------|
|--------------------|--------------------|----------------------------------------------------|
|--3-----------------|--(3)---------------|-----5----------------------------------------------|
|--1-----------------|--(1)---------------|-----3----------------------------------------------|
|--------------------|--------------------|----------------------------------------------------|


    S   S  S  S  S  S  S  S  S  S  S  S  S  S  S  S
|------------------------15h17h18p17p15---------------|
|--17-----------15h17h18----------------18p17p15------|
|------14h15h17----------------------------------17---|
|-----------------------------------------------------|
|-----------------------------------------------------|
|-----------------------------------------------------|
|
|~~~~~~
|  +W
|-(20)------------------------------------------------|
|-----------------------------------------------------|
|-----------------------------------------------------|
|-----------------------------------------------------|
|-----------------------------------------------------|
|-----------------------------------------------------|
|
|  +W
|-----------------------------------------------------|
|-----------------------------------------------------|
|-----------------------------------------------------|
|--(5)------------------------------------------------|
|--(3)------------------------------------------------|
|-----------------------------------------------------|


  Bb                F    C      A          Dm      C
   H.       +Q      W           W          W
|-----------------|-----------|----------|-------------|
|-15-------(15)\--|-----------|----------|-------------|
|-----------------|-----------|----------|-------------|
|-----------------|-----------|----------|-------------|
|-----------------|-----------|----------|-------------|
|-----------------|-----------|----------|-------------|
|
| Gtr I
|  W                H    H      W          H.      Q
|-----------------|-----------|----------|-------------|
|-----------------|-----------|----------|-------------|
|-----------------|-----------|----------|-------------|
|--3--------------|------5----|-2--------|-7-------5---|
|--1--------------|-3----3----|-0--------|-5-------3---|
|-----------------|-1---------|----------|-------------|


  Bb                      C                    A/C#
  Gtr I
  W          +W           W          +H     q  q
|----------|------------|----------|---------------|
|----------|------------|----------|---------------|
|----------|------------|----------|---------------|
|-3--------|-(3)--------|-5--------|-(5)----5--7---|
|-1--------|-(1)--------|-3--------|-(3)----3--4---|
|----------|------------|----------|---------------|


  Dm
   S  S  S  S  S  S  S  S  S  S  S  S  S  S  S  S
|-13-10-10-12-10-10-15-10-10-13-10-10-12-10-13-10-|
|-------------------------------------------------|
|-------------------------------------------------|
|-------------------------------------------------|
|-------------------------------------------------|
|-------------------------------------------------|
|
| Gtr III
|  S  S  S  S  S  S  S  S  S  S  S  S  S  S  S  S
|-17-13-13-15-13-13-18-13-13-17-13-13-15-13-17-13-|
|-------------------------------------------------|
|-------------------------------------------------|
|-------------------------------------------------|
|-------------------------------------------------|
|-------------------------------------------------|
|
| Gtr I
|  W
|-------------------------------------------------|
|-------------------------------------------------|
|-------------------------------------------------|
|--7----------------------------------------------|
|--5----------------------------------------------|
|-------------------------------------------------|


   S  S  S  S  S  S  S  S  S  S  S  S  S  S  S  S
|-13-10-10-12-10-10-15-10-10-13-10-10-12-10-13-10-|
|-------------------------------------------------|
|-------------------------------------------------|
|-------------------------------------------------|
|-------------------------------------------------|
|-------------------------------------------------|
|
|  S  S  S  S  S  S  S  S  S  S  S  S  S  S  S  S
|-17-13-13-15-13-13-18-13-13-17-13-13-15-13-17-13-|
|-------------------------------------------------|
|-------------------------------------------------|
|-------------------------------------------------|
|-------------------------------------------------|
|-------------------------------------------------|
|
|  W
|-------------------------------------------------|
|-------------------------------------------------|
|-------------------------------------------------|
|--7----------------------------------------------|
|--5----------------------------------------------|
|-------------------------------------------------|


  Bb
   S  S  S  S  S  S  S  S  S  S  S  S  S  S  S  S
|-13-10-10-12-10-10-15-10-10-13-10-10-12-10-13-10-|
|-------------------------------------------------|
|-------------------------------------------------|
|-------------------------------------------------|
|-------------------------------------------------|
|-------------------------------------------------|
|
|  S  S  S  S  S  S  S  S  S  S  S  S  S  S  S  S
|-17-13-13-15-13-13-18-13-13-17-13-13-15-13-17-13-|
|-------------------------------------------------|
|-------------------------------------------------|
|-------------------------------------------------|
|-------------------------------------------------|
|-------------------------------------------------|
|
|  W
|-------------------------------------------------|
|-------------------------------------------------|
|-------------------------------------------------|
|--3----------------------------------------------|
|--1----------------------------------------------|
|-------------------------------------------------|


   S  S  S  S  S  S  S  S  S  S  S  S  S  S  S  S
|-13-10-10-12-10-10-15-10-10-13-10-10-12-10-13-10-|
|-------------------------------------------------|
|-------------------------------------------------|
|-------------------------------------------------|
|-------------------------------------------------|
|-------------------------------------------------|
|
|  S  S  S  S  S  S  S  S  S  S  S  S  S  S  S  S
|-17-13-13-15-13-13-18-13-13-17-13-13-15-13-17-13-|
|-------------------------------------------------|
|-------------------------------------------------|
|-------------------------------------------------|
|-------------------------------------------------|
|-------------------------------------------------|
|
|  W
|-------------------------------------------------|
|-------------------------------------------------|
|-------------------------------------------------|
|--3----------------------------------------------|
|--1----------------------------------------------|
|-------------------------------------------------|


  Dm
   S  S  S  S  S  S  S  S  S  S  S  S  S  S  S  S
|-13-10-10-12-10-10-15-10-10-13-10-10-12-10-13-10-|
|-------------------------------------------------|
|-------------------------------------------------|
|-------------------------------------------------|
|-------------------------------------------------|
|-------------------------------------------------|
|
|  S  S  S  S  S  S  S  S  S  S  S  S  S  S  S  S
|-17-13-13-15-13-13-18-13-13-17-13-13-15-13-17-13-|
|-------------------------------------------------|
|-------------------------------------------------|
|-------------------------------------------------|
|-------------------------------------------------|
|-------------------------------------------------|
|
|  W
|-------------------------------------------------|
|-------------------------------------------------|
|-------------------------------------------------|
|--7----------------------------------------------|
|--5----------------------------------------------|
|-------------------------------------------------|


   S  S  S  S  S  S  S  S  S  S  S  S  S  S  S  S
|-13-10-10-12-10-10-15-10-10-13-10-10-12-10-13-10-|
|-------------------------------------------------|
|-------------------------------------------------|
|-------------------------------------------------|
|-------------------------------------------------|
|-------------------------------------------------|
|
|  S  S  S  S  S  S  S  S  S  S  S  S  S  S  S  S
|-17-13-13-15-13-13-18-13-13-17-13-13-15-13-17-13-|
|-------------------------------------------------|
|-------------------------------------------------|
|-------------------------------------------------|
|-------------------------------------------------|
|-------------------------------------------------|
|
|  W
|-------------------------------------------------|
|-------------------------------------------------|
|-------------------------------------------------|
|--7----------------------------------------------|
|--5----------------------------------------------|
|-------------------------------------------------|


  A
   S  S  S  S  S   S  S  S  S  S  S  S  S  S  S  S
|-18-22-20-18-----20-18-------18-------------------|
|-------------22--------22-20----22-20-18-22-20-18-|
|--------------------------------------------------|
|--------------------------------------------------|
|--------------------------------------------------|
|--------------------------------------------------|
|
| Gtr I
|  q           H.
|--------------------------------------------------|
|--------------------------------------------------|
|--------------------------------------------------|
|--2-----------------------------------------------|
|--0-----------------------------------------------|
|--------------------------------------------------|


   S  S  S  S  S  S  S  S  S  S  S  S  S  S  S  S
|-------------------------------------------------|
|----20-18-------18-------------------------------|
|-21-------21-19----21-19-------19-17-------------|
|-------------------------20-22-------20-19-17----|
|----------------------------------------------20-|
|-------------------------------------------------|
|
|  W
|-------------------------------------------------|
|-------------------------------------------------|
|-------------------------------------------------|
|-------------------------------------------------|
|-------------------------------------------------|
|-------------------------------------------------|


   Gm         Eb         Dsus4      D
   Gtr I
   W          W          W          W
||----------|----------|----------|------|
||----------|----------|----------|------|
||----------|----------|----------|------|
||----------|-8--------|-7--------|-7----|
||-5--------|-6--------|-5--------|-5----|
||-3--------|----------|----------|------|


  Gm         Eb         Dsus4      D
  W          W          W          +W
|----------|----------|----------|--------|
|----------|----------|----------|--------|
|----------|----------|----------|--------|
|----------|-8--------|-7--------|-(7)----|
|-5--------|-6--------|-5--------|-(5)----|
|-3--------|----------|----------|--------|


  Chorus 2
   Eb         Bb         Dm         Gm
   W          W          W          W
||----------|----------|----------|------|
||----------|----------|----------|------|
||----------|----------|----------|------|
||-8--------|----------|-7--------|------|
||-6--------|-8--------|-5--------|-5----|
||----------|-6--------|----------|-3----|


  Eb         Bb         Dm         F
  W          W          W           W
|----------|----------|----------|-------|
|----------|----------|----------|-------|
|----------|----------|----------|-------|
|-8--------|----------|-7--------|-10----|
|-6--------|-8--------|-5--------|--8----|
|----------|-6--------|----------|-------|


  Interlude
   Cm                              Gm
     PM----------------------------------------------------------|
   E S S S S S S S S S S S S S S   S S S S S S S S S S S S S S S S
||-------------------------------|---------------------------------|
||-------------------------------|---------------------------------|
||-------------------------------|---------------------------------|
||-5-----------------------------|-5-5-5-5-5-5-5-5-5-5-5-5-5-5-5-5-|
||-3-3-3-3-3-3-3-3-3-3-3-3-3-3-3-|---------------------------------|
||-------------------------------|---------------------------------|


  F                                 Bb
  PM--------------------------------------------------------------|
  S S S S S S S S S S S S S S S S   S S S S S S S S S S S S S S S S
|---------------------------------|---------------------------------|
|---------------------------------|---------------------------------|
|---------------------------------|---------------------------------|
|-3-3-3-3-3-3-3-3-3-3-3-3-3-3-3-3-|---------------------------------|
|---------------------------------|-1-1-1-1-1-1-1-1-1-1-1-1-1-1-1-1-|
|---------------------------------|---------------------------------|


  Cm
  PM-------------------------------
  S S S S S S S S S S S S S S S S
|---------------------------------|
|---------------------------------|
|---------------------------------|
|---------------------------------|
|-3-3-3-3-3-3-3-3-3-3-3-3-3-3-3-3-|
|---------------------------------|


                                    Breakdown
  Gm                                 D7
                                    5/4
 -------------------------------|      PM--------------|
  S S S S S S S S S S S S S S S S    E E E E E E E E E E
|---------------------------------||----------------------|
|---------------------------------||----------------------|
|---------------------------------||----------------------|
|---------------------------------||-4--------------------|
|---------------------------------||---6-5-6-5-3-5---3----|
|-3-3-3-3-3-3-3-3-3-3-3-3-3-3-3-3-||---------------6---5--|


   Eb                Bb                Dm                Gm
  4/4
   PM|   PM--|   PM----|   PM--|   PM----|   PM--|   PM----|   PM--|   PM
   E E E E E E E E   E E E E E E E E   E E E E E E E E   E E E E E E E E
||-----------------|-----------------|-----------------|------------------|
||-----------------|-----------------|-----------------|------------------|
||-----------------|-----------------|-----------------|------------------|
||-----8-------8---|-----------------|-----7-------7---|------------------|
||-6-6-6-6-6-6-6-6-|-----8-------8---|-5-5-5-5-5-5-5-5-|-----5-------5----|
||-----------------|-6-6-6-6-6-6-6-6-|-----------------|-3-3-3-3-3-3-3-3--|


  Eb                Bb                Dm                F
  PM|   PM--|   PM----|   PM--|   PM----|   PM--|   PM
  E E E E E E E E   E E E E E E E E   E E E E E E E E    W
|-----------------|-----------------|-----------------|-------|
|-----------------|-----------------|-----------------|-------|
|-----------------|-----------------|-----------------|-------|
|-----8-------8---|-----------------|-----7-------7---|-10----|
|-6-6-6-6-6-6-6-6-|-----8-------8---|-5-5-5-5-5-5-5-5-|--8----|
|-----------------|-6-6-6-6-6-6-6-6-|-----------------|-------|


  Chorus 3
   Eb         Bb         Dm         Gm
   W          W          W          W
||----------|----------|----------|------|
||----------|----------|----------|------|
||----------|----------|----------|------|
||-8--------|----------|-7--------|------|
||-6--------|-8--------|-5--------|-5----|
||----------|-6--------|----------|-3----|


  Eb         Bb         Dm         F
  W          W          W           W
|----------|----------|----------|-------||
|----------|----------|----------|-------||
|----------|----------|----------|-------||
|-8--------|----------|-7--------|-10----||
|-6--------|-8--------|-5--------|--8----||
|----------|-6--------|----------|-------||


   Out-Chorus
    G          D          F#m        Bm
    W          W          W          W
||-----------|----------|----------|------|
||o----------|----------|----------|------|
||-----------|----------|----------|------|
||-----------|-7--------|----------|-4----|
||o-5--------|-5--------|-4--------|-2----|
||--3--------|----------|-2--------|------|


                                  1.
  G          D          F#m        A
  W          W          W          W
|----------|----------|----------|-------||
|----------|----------|----------|------o||
|----------|----------|----------|-------||
|----------|-7--------|----------|-------||
|-5--------|-5--------|-4--------|-7----o||
|-3--------|----------|-2--------|-5-----||


  2.
  A          Bm
  W          H     H
|----------|------------*|
|----------|------------*|
|----------|------------*|
|----------|------------*|
|-7--------|-9\---------*|
|-5--------|-7\---------*|



Duration Legend
---------------
W - whole; H - half; Q - quarter; E - 8th; S - 16th; T - 32nd; X - 64th; a - acciaccatura
+ - note tied to previous; . - note dotted; .. - note double dotted
Uncapitalized letters represent notes that are staccato (1/2 duration)
Irregular groupings are notated above the duration line
Duration letters will always appear directly above the note/fret number it represents the
duration for.  Duration letters with no fret number below them represent rests.  Multi-
bar rests are notated in the form Wxn, where n is the number of bars to rest for.  Low
melody durations appear below the staff

Tablature Legend
----------------
 h   - hammer-on
 p   - pull-off
 b   - bend
 pb  - pre-bend
 r   - bend release (if no number after the r, then release immediately)
 /\  - slide into or out of (from/to "nowhere")
 s   - legato slide
 S   - shift slide
<n> - natural harmonic
[n]  - artificial harmonic
n(n) - tapped harmonic
 ~   - vibrato
 tr  - trill
 T   - tap
 TP  - trem. picking
 PM  - palm muting
\n/  - tremolo bar dip; n = amount to dip
 \n  - tremolo bar down
 n/  - tremolo bar up
/n\  - tremolo bar inverted dip
 =   - hold bend; also acts as connecting device for hammers/pulls
 <> - volume swell (louder/softer)
 x   - on rhythm slash represents muted slash
 o   - on rhythm slash represents single note slash

Misc Legend
-----------
 |  - bar
||  - double bar
||o - repeat start
o|| - repeat end
*|  - double bar (ending)
 :  - bar (freetime)
 $  - Segno
 &  - Coda
Tempo markers - <E/E./Q/Q./H/H.> = BPM(8/16=s8/s16), where s8 = swing 8ths, s16 = swing 16ths

comments
We did not receive enough feedback on this tab! Please rate:
print report bad tab
1 2 3 4 5
I want to post or [tab]
guest
You may want to rate the tab now too:
select rating
Please do not post tabs as comments. Select "correction" instead!