Oops, an error
Loading. Please wait.

Caleb Tab

ver1
ver1

Whole song

Interactive

More versions @911Tabs.com
4,347 views 9 this week
no commentswrite comment
1 2 3 4 5
excellent!
x 3
Autoscroll
+/-
esc
set tempo
stop
Contributor
WARNING: You are trying to view
                                    content from Ultimate-Guitar.com
                                    in an unauthorized application,
                                    which is prohibited.

                                    Please use an official Ultimate
                                    Guitar Tabs application for iPhone,
                                    iPad or Android to access legitimate
                                    chords, guitar, bass, and drum tabs
                                    from Ultimate-Guitar.com database.

                                    Type "ultimate guitar tabs" in Apple
                                    App Store's or Android Market's
                                    search to find the application.
I DO NOT TAKE CREDIT FOR THIS TAB. I DID NOT MAKE IT. IT'S TAKEN DIRECTLY FROM SONATA 
SITE AND INCLUDES ORIGINAL INFORMATION. UPLOADING IT FOR THE COMMUNITY.

************************************************************************
*               SONATA ARCTICA – CALEB                                 *
*                 FROM THE ALBUM UNIA                                  *
************************************************************************
Music By: Sonata Arctica
Transcribed By: Martin Steinkopf (<3 jani <3)
Day tabbed: 25th may 2007
Email: martin_emppu@hotmail.com
Tuning: Bb - Eb - Ab - Db - Gb - Bb - Eb (1/2 step down, 7 string)

---------------------------------------------------------------------------

| Intro (00:31)
|--------------------------------------------------------------------------|
|--------------------------------------------------------------------------|
|--------------------------------------------------------------------------|
|--------------------------------------------------------------------------|
|--------------------------------------------------------------------------|
|--5-5-5--5-5--5-5-5-5--5-5--5-5-5-5--5-5--5-5-5-5--5-5--5-5-5-5--5-5--5-5-|
|--------------------------------------------------------------------------|
PM:. . .  . .  . . . .  . .  . . . .  . .  . . . .  . .  . . . .  . .  . .

|--------------------------------------------------------------------------|
|--------------------------------------------------------------------------|
|--------------------------------------------------------------------------|
|--------------------------------------------------------------------------|
|--------------------------------------------5--------------7--------------|
|--5-5--5-5--5-5-5-5--5-5--5-5-5-5--5-5--5---5--------------7--------------|
|--------------------------------------------3--3-3-3-3-3---5--5-5-5-5-5---|
PM:. .  . .  . . . .  . .  . . . .  . .         . . . . .      . . . . .

|--------------------------------------------------------------------------|
|--------------------------------------------------------------------------|
|--------------------------------------------------------------------------|
|--3-------------5-----------------------------------------3-------------5-|
|--3-------------5-------------5-------------7-------------3-------------5-|
|--1--1-1-1-1-1--3--3-3-3-3-3--5-------------7-------------1--1-1-1-1-1--3-|
|------------------------------3--3-3-3-3-3--5--5-5-5-5-5------------------|
PM:   . . . . .     . . . . .     . . . . .     . . . . .     . . . . .

               | Verse 1
|--------------|------------------------------------------------------------|
|--------------|------------------------------------------------------------|
|--------------|------------------------------------------------------------|
|--------------|------------------------------------------------------------|
|--------------|------------------------------------------------------------|
|--3-3-3-3-3\--|--5-5-5--5-5--5-5-5-5--5-5--5-5-5-5--5-5--5-5-5-5--5-5------|
|--------------|--------------------------------------------------------3-3-|
PM:. . . . .      . . .  . .  . . . .  . .  . . . .  . .  . . . .  . .  . .

                                                   x2 |
|-----------------------------------------------------|-------------------|
|-----------------------------------------------------|-------------------|
|-----------------------------------------------------|-------------------|
|-----------------------------------------------------|---Play the same---|
|--5----5--------5----5--------5----5--------5--------|---as the intro----|
|--5----5--------5----5--------5----5--------5---A.H.-|-------------------|
|--3--3-3--3-3-3-3--3-3--3-3-3-3--3-3--3-3-3-3--3-3---|-------------------|
      .    . . .    .    . . .    .    . . .    .


| Break                                          | Verse 2
|------------------------------------------------|------------------------|
|------------------------------------------------|------------------------|
|------------------------------------------------|------------------------|
|-------A little break without any guitars-------|-----Same as verse 1----|
|------------------------------------------------|------------------------|
|------------------------------------------------|------------------------|
|------------------------------------------------|------------------------|
PM:  . . . . . . .   . . . . . . .

| Bridge 3                                          x2 | Pre-Chorus 1
|------------------------------------------------------|-------------------|
|------------------------------------------------------|-------------------|
|------------------------------------------------------|-------------------|
|------6-------6-------3-------5------5------5------5--|--6-------3-3-3-3--|
|--3---6---3---6---6---3-------5------5------5------5--|--6-6-6-6-1-1-1-1--|
|--3---4---3---4---6---1---3-3-3--3-3-3--3-3-3--3-3-3--|--4-4-4-4----------|
|--1-------1-------4-----------------------------------|-------------------|
PM:                        . .    . .    . .    . .         . . . . . . .

                   |                               x2 | w/ fill 1
|------------------|----------------------------------|--------------------|
|------------------|----------------------------------|--------------------|
|------------------|----------------------------------|--------------------|
|--5-5-5-5---------|----------3-3-3-3-5-5-5-5---------|----------3-3-3-3-5-|
|--3-3-3-3-5-5-5-5-|--6-6-6-6-1-1-1-1-3-3-3-3-5-5-5-5-|--6-6-6-6-1-1-1-1-3-|
|----------3-3-3-3-|--4-4-4-4-----------------3-3-3-3-|--4-4-4-4-----------|
|------------------|----------------------------------|--------------------|
PM:. . . . . . . .    . . . . . . . . . . . . . . . .    . . . . . . . . .

                  | Chorus 1
|-----------------|--------------------------------------------------------|
|-----------------|--------------------------------------------------------|
|-----------------|--------------------------------------------------------|
|--5-5-5-7-7-7-7--|--------------------------------------------------------|
|--3-3-3-5-5-5-5--|--6-6-6--6-6--6-6-6--6-6--6-6-6--6-6--6-6-6--6-6--4-4-4-|
|-----------------|--6-6-6--6-6--6-6-6--6-6--7-7-7--7-7--7-7-7--7-7--4-4-4-|
|-----------------|--4-4-4--4-4--4-4-4--4-4--4-4-4--4-4--4-4-4--4-4--2-2-2-|
PM:. . . . . . .     . .    .    . .    .    . .    .    . .    .    . .

                                         x2 |            | Verse 3 02:59
|-------------------------------------------|------------|----------------|
|-------------------------------------------|------------|----------------|
|-------------------------------------------|---Little---|----------------|
|-------------------4-4-4--4-4--3-3-3--3-3--|---bridge---|-Same as Verse 1|
|--4-4--4-4-4--4-4--4-4-4--4-4--4-4-4--4-4--|--without---|----------------|
|--4-4--4-4-4--4-4--2-2-2--2-2--1-1-1--1-1--|---guitar---|----------------|
|--2-2--2-2-2--2-2--------------------------|------------|----------------|
PM:.    . .    .    . .    .    . .    .

| Bridge 4           |                | Interlude 1 03:45
|--------------------|----------------|------------------------------------|
|--------------------|----------------|------------------------------------|
|--------------------|--Then a little-|------------------------------------|
|--Same as bridge 3--|--bridge again--|--7---------7---------7---------7---|
|--------------------|-without guitar-|--7---------7---------8---------8---|
|--------------------|----------------|--5--5-5-5--5--5-5-5--5--5-5-5--5---|
|--------------------|----------------|------------------------------------|
PM:                                         . . .     . . .     . . .

                                                 |
|------------------------------------------------|--------------------------|
|------------------------------------------------|--------------------------|
|------------------------------------------------|--------------------------|
|------------------------------------------------|-9------9--9------9--5----|
|---------3---------5---------7---------7--------|-9------9--9------9--5----|
|--5-5-5--3---------5---------7---------7--------|-7--7-7-7--7--7-7-7--3--3-|
|---------1--1-1-1--3--3-3-3--5--5-5-5--5--5-5-5-|--------------------------|
PM:. . .     . . .     . . .     . . .     . . .     . .       . .       .

                                                       x2 |            x2 |
|---------------------------------------------------------|---------------|
|---------------------------------------------------------|---------------|
|---------------------------------------------------------|---------------|
|----5--5------5------------------------------------------|-7-------------|
|----5--5------5--5------5--7------7--9------9--9------9--|-7---7---8---10|
|--3-3--3--3-3-3--5------5--7------7--9------9--9------9--|-5---7---8---10|
|-----------------3--3-3-3--5--5-5-5--7--7-7-7--7--7-7-7--|-----5---6---8-|
PM:.       . .       . .       . .       . .       . .

                                                    | Guitar solo
|---------------------------------------------------|----------------------|
|---------------------------------------------------|-------------8---8h10-|
|---------------------------------------------------|-----9---7------------|
|---------------------------------------------------|-7-7---7---7---7------|
|--5------------------------------------------------|----------------------|
|--5------------------------------------------------|----------------------|
|--3-3-3-3-3-3-3-3-3-3-3-3-3-3-3-3-3-3-3-3-3-3-3-3--|----------------------|
PM:  . . . . . . . . . . . . . . . . . . . . . . .

                                    w/Fill 2 (there’s two guitars here, the
                                    2nd one is tabbed in the end of the tab.)
|-------------------------------------------------------------10--8---------|
|-------------------------------------------------8---8h10-----------12-----|
|--9-7----10----10h12----12----14h16------9---7------------9-7-----------12-|
|------10----10-------12----12--------7-7---7---7---7-----------------------|
|---------------------------------------------------------------------------|
|---------------------------------------------------------------------------|
|---------------------------------------------------------------------------|

|--------------------------------------------------------------------------|
|-----------------------------------------------------A.H--------------A.H-|
|--14p12-----16p12-----17p12------12-12~-14p12-----14--14—14p12-----16-16~-|
|-------14p12-----14p12-----14p12-12-12~------14p12------------14p12-------|
|--------------------------------------------------------------------------|
|--------------------------------------------------------------------------|
|--------------------------------------------------------------------------|

|--------------------------------------------------------------------------|
|--------------------------------------------------------------20p17-------|
|--17p14-----19p14-----17p14-----19p17-----21p19-----19p17----------19p17--|
|-------17p14-----17p14-----17p14-----19p17-----19p17-----19p17------------|
|--------------------------------------------------------------------------|
|--------------------------------------------------------------------------|
|--------------------------------------------------------------------------|

                                                       | Bridge 5
|----------------------20p17-----22p17-----20p17-------|-------------------|
|--22p17-----20p17----------20p17-----20p17-----20p17--|-------------------|
|-------19p17-----19p17--------------------------------|-------------------|
|------------------------------------------------------|--4----4----5----7-|
|------------------------------------------------------|--2----4----5----7-|
|------------------------------------------------------|-------2----3----5-|
|------------------------------------------------------|-------------------|

|--------------------------------------------------------------------------|
|--------------------------------------------------------------------------|
|--------------------------------------------------------------------------|
|--4----4----5----7----4---------------4---------------5-----------2-----4-|
|--2----4----5----7----2-2-2-2-2-2-2-2-4---------------5-----5-----2-----2-|
|-------2----3----5--------------------2-2-2-2-2-2-2-2-3-3-3-5-----0-0-0---|
|------------------------------------------------------------3-3-3---------|

|-------------------------------------------------------------------------|
|-------------------------------------------------------------------------|
|-------------------------------------------------------------------------|
|-----------4---------------4---------------5-----------2-----4-----2-4\--|
|------2-4--2-2-2-2-2-2-2-2-4---------------5-----5-----2-----2-2-2-0-2\--|
|--2-2-0-2------------------2-2-2-2-2-2-2-2-3-3-3-5-----0-0-0-------------|
|-------------------------------------------------3-3-3-------------------|

| Keyboard part | Interlude 2 05:03 |
|---------------|-------------------|--------------------------------------|
|---------------|-------------------|--------------------------------------|
|---------------|-------------------|--------------------------------------|
|---No guitars--|--5~-----10--9-----|--7-----7---7----7-----7---7----5-----|
|---------------|--5~-----10--10----|--7-----7---7----8-----8---8----5-----|
|---------------|--3~-----8---7-----|--5-5-5-55555-55-5-5-5-55555-55-3-3-3-|
|---------------|-------------------|--------------------------------------|
PM:                                      . .  ...  ..   . .  ...  ..   . .

                  x4 |                                                 x2 |
|--------------------|----------------------------------------------------|
|--------------------|----------------------------------------------------|
|--------------------|----------------------------------------------------|
|--5---5-----10--9---|--9-----9---9----9-----9---9----7-----7---7----7--7-|
|--5---5-----10--10--|--9-----9---9----10----10--10---7-----7---7----5--4-|
|--33333-33--8---7---|--7-7-7-77777-77-7-7-7-77777-77-5-5-5-55555-55------|
|--------------------|----------------------------------------------------|
PM: ...  ..               . .  ...  ..   . .  ...  ..   . .  ...  ..

|-----------------------|
|-----------------------|
|-----------------------|
|--9~-------------------|
|--9~-------------------|
|--7~-------------------|
|-----------------------|


---------------------------------------------------------------------------

| Fill 1                        | Fill 2
|-------------------------------|----------------10-10h12-------10-8------|
|-------------------------------|-----13---12------------13p12--------8---|
|------------3-------5-------7~-|-9-9----9----9---------------------------|
|----6--------------------------|-----------------------------------------|
|---------1----1--3----3--5-----|-----------------------------------------|
|-4----4------------------------|-----------------------------------------|
|-------------------------------|-----------------------------------------|

|Guitar solo rhythm x4 |
|----------------------|
|----------------------|
|----------------------|
|----7-----------------|
|----7---7---8---10----|
|----5---7---8---10----|
|--------5---6---8-----|


End...

Transcribed by: Martin Steinkopf
comments
We did not receive enough feedback on this tab! Please rate:
print report bad tab
1 2 3 4 5
I want to post or [tab]
guest
You may want to rate the tab now too:
select rating
Please do not post tabs as comments. Select "correction" instead!