Oops, an error
Loading. Please wait.

Fullmoon Bass Tab

ver2
ver2

Whole song

Interactive

More versions @911Tabs.com
1,635 views 6 this week
no commentswrite comment
1 2 3 4 5
please rate
Autoscroll
+/-
esc
set tempo
stop
Contributor
Difficulty
Tuning
Tabbers playing skills
intermediate
E A D G B E
intermediate +
Hey! There's an official Ultimate Guitar app which is ideal
for learning songs when you're away from computer. Get the app
WARNING: You are trying to view
                                    content from Ultimate-Guitar.com
                                    in an unauthorized application,
                                    which is prohibited.

                                    Please use an official Ultimate
                                    Guitar Tabs application for iPhone,
                                    iPad or Android to access legitimate
                                    chords, guitar, bass, and drum tabs
                                    from Ultimate-Guitar.com database.

                                    Type "ultimate guitar tabs" in Apple
                                    App Store's or Android Market's
                                    search to find the application.
Fullmoon - Sonata Arctica
he uses a 5 string but he doesn't hit any notes on it



      W                   W                   W                 

F#||-------------------|-------------------|-------------------|

C#||-------------------|-------------------|-------------------|

G#||-------------------|-------------------|-------------------|

D#||-------------------|-------------------|-------------------|







  W                   W                   W                   W                 

-------------------|-------------------|-------------------|-------------------|

-------------------|-------------------|-------------------|-------------------|

-------------------|-------------------|-------------------|-------------------|

-------------------|-------------------|-------------------|-------------------|







  W                   W                   W                   W                 

-------------------|-------------------|-------------------|-------------------|

-------------------|-------------------|-------------------|-------------------|

-------------------|-------------------|-------------------|-------------------|

-------------------|-------------------|-------------------|-------------------|







  W                   W                   W                   W                 

-------------------|-------------------|-------------------|-------------------|

-------------------|-------------------|-------------------|-------------------|

-------------------|-------------------|-------------------|-------------------|

-------------------|-------------------|-------------------|-------------------|







  W                   W                   W                   W                 

-------------------|-------------------|-------------------|-------------------|

-------------------|-------------------|-------------------|-------------------|

-------------------|-------------------|-------------------|-------------------|

-------------------|-------------------|-------------------|-------------------|







  W                   W                   W                   W                 

-------------------|-------------------|-------------------|-------------------|

-------------------|-------------------|-------------------|-------------------|

-------------------|-------------------|-------------------|-------------------|

-------------------|-------------------|-------------------|-------------------|







  W                   W                   W                   W                 

-------------------|-------------------|-------------------|-------------------|

-------------------|-------------------|-------------------|-------------------|

-------------------|-------------------|-------------------|-------------------|

-------------------|-------------------|-------------------|-------------------|







  W                   W                   W                   W                 

-------------------|-------------------|-------------------|-------------------|

-------------------|-------------------|-------------------|-------------------|

-------------------|-------------------|-------------------|-------------------|

-------------------|-------------------|--1----------------|--L----------------|







  W                   W                   W                   W                 

-------------------|-------------------|-------------------|-------------------|

-------------------|-------------------|-------------------|-------------------|

--3----------------|-------------------|-------------------|--0----------------|

-------------------|--3----------------|--1----------------|-------------------|







  W                   W                   W                   W                 

-------------------|-------------------|-------------------|-------------------|

-------------------|-------------------|-------------------|-------------------|

--3----------------|-------------------|-------------------|--0----------------|

-------------------|--3----------------|--1----------------|-------------------|







  Q    Q    Q    Q       Q    Q    Q    Q       Q    Q    Q    E  E   

----------------------|----------------------|-----------------------|

----------------------|----------------------|-----------------0--2--|

----------------------|----------------------|--0----2----3----------|

--0----0----0----0----|--0----0----0----0----|-----------------------|







  Q.     S S Q    Q       S S S S S S S S S S S S S S S S  

-----------------------|----------------------------------|

--3------2-0-----------|----------------------------------|

-------------3----2----|--0---0-0-0---0-0-0---0-0-0---0-0-|

-----------------------|----------------------------------|







  S S S S S S S S S S S S S S S S    S S S S S S S S S S S S S S S S  

----------------------------------|----------------------------------|

----------------------------------|----------------------------------|

--0---0-0-0---0-0-0---0-0-0---0-0-|--0---0-0-0---0-0-0---0-0-0---0-0-|

----------------------------------|----------------------------------|







  S S S S S S S S S S S S S S S S    S S S S S S S S S S S S S S S S  

----------------------------------|----------------------------------|

----------------------------------|----------------------------------|

--0---0-0-0---0-0-0---0-0-0---0-0-|--0---0-0-0---0-0-0---0-0-0---0-0-|

----------------------------------|----------------------------------|







  S S S S S S S S S S S S S S S S    S S S S S S S S S S S S S S S S  

----------------------------------|----------------------------------|

----------------------------------|----------------------------------|

--0---0-0-0---0-0-0---0-0-0---0-0-|----------------------------------|

----------------------------------|--1---1-1-1---1-1-1---1-1-1---1-1-|





  S S S S S S S S S S S S S S S S    S S S S S S S S S S S S S S S S  

----------------------------------|----------------------------------|

----------------------------------|----------------------------------|

----------------------------------|--0---0-0-0---0-0-0---0-0-0---0-0-|

--0---0-0-0---0-0-0---0-0-0---0-0-|----------------------------------|







  S S S S S S S S S S S S S S S S    S S S S S S S S S S S S S S S S  

----------------------------------|----------------------------------|

----------------------------------|----------------------------------|

--0---0-0-0---0-0-0---0-0-0---0-0-|--0---0-0-0---0-0-0---0-0-0---0-0-|

----------------------------------|----------------------------------|







  S S S S S S S S S S S S S S S S    S S S S S S S S S S S S S S S S  

----------------------------------|----------------------------------|

----------------------------------|----------------------------------|

--0---0-0-0---0-0-0---0-0-0---0-0-|----------------------------------|

----------------------------------|--1---1-1-1---1-1-1---1-1-1---1-1-|







  S S S S S S S S S S S S S S S S    S S S S S S S S S S S S S S S S  

----------------------------------|----------------------------------|

----------------------------------|----------------------------------|

----------------------------------|--3---3-3-3---3-3-3---3-3-3---3-3-|

--1---1-1-1---1-1-1---1-1-1---1-1-|----------------------------------|







  S S S S S S S S S S S S S S S S    S S S S S S S S S S S S S S S S  

----------------------------------|----------------------------------|

----------------------------------|----------------------------------|

----------------------------------|--0---0-0-0---0-0-0---0-0-0---0-0-|

--3---3-3-3---3-3-3---3-3-3---3-3-|----------------------------------|







  S S S S S S S S S S S S S S S S    S S S S S S S S S S S S S S S S  

----------------------------------|----------------------------------|

----------------------------------|----------------------------------|

--0---0-0-0---0-0-0---0-0-0---0-0-|--0---0-0-0---0-0-0---0-0-0---0-0-|

----------------------------------|----------------------------------|







  S S S S S S S S S S S S S S S S    S S S S S S S S S S S S S S S S  

----------------------------------|----------------------------------|

----------------------------------|----------------------------------|

--0---0-0-0---0-0-0---0-0-0---0-0-|----------------------------------|

----------------------------------|--1---1-1-1---1-1-1---1-1-1---1-1-|







  S S S S S S S S S S S S S S S S    S S S S S S S S S S S S S S S S  

----------------------------------|----------------------------------|

----------------------------------|----------------------------------|

----------------------------------|--3---3-3-3---3-3-3---3-3-3---3-3-|

--1---1-1-1---1-1-1---1-1-1---1-1-|----------------------------------|







  S S S S S S S S S S S S S S S S    Q    E  E  E  E  E  E   

----------------------------------|-------------------------|

----------------------------------|-------------------------|

----------------------------------|-------------------------|

--3---3-3-3---3-3-3---3-3-3---3-3-|--1----1--1--1--1--1--1--|







  Q    E  E  E  E  E  E     Q    E  E  E  E  E  E     Q    E  E  E  E  E  E   

-------------------------|-------------------------|-------------------------|

-------------------------|-------------------------|-------------------------|

--0----0--0--0--0--0--0--|--3----3--3--3--3--3--3--|-------------------------|

-------------------------|-------------------------|--3----3--3--3--3--3--3--|







  Q    E  E  E  E  E  E     Q    E  E  E  E  E  E     E  E  E  E  E  E  E  E   

-------------------------|-------------------------|--------------------------|

-------------------------|-------------------------|--------------------------|

-------------------------|--0----0--0--0--0--0--0--|--------------------------|

--1----1--1--1--1--1--1--|-------------------------|--0--0--0--0--0--0--0--0--|







  E  E  E  E  E  E  E  E     S S S S S S S S S S S S Q     

--------------------------|-------------------------------|

--------------------------|-------------------------------|

--------------------------|--0---0-0-0---0-0-0---0-0------|

--0--0--0--0--0--0--0--0--|--------------------------3----|







  S S S S S S S S S S S S S S S S    S S S S S S S S S S S S S S S S  

----------------------------------|----------------------------------|

----------------------------------|----------------------------------|

----------------------------------|--3---3-3-3---3-3-3---3-3-3---3-3-|

--1---1-1-1---1-1-1---1-1-1---1-1-|----------------------------------|







  S S S S S S S S S S S S S S S S    S S S S S S S S S S S S Q     

----------------------------------|-------------------------------|

----------------------------------|-------------------------------|

----------------------------------|--0---0-0-0---0-0-0---0-0------|

--3---3-3-3---3-3-3---3-3-3---3-3-|--------------------------3----|







  S S S S S S S S S S S S S S S S    S S S S S S S S S S S S S S S S  

----------------------------------|----------------------------------|

----------------------------------|----------------------------------|

----------------------------------|--3---3-3-3---3-3-3---3-3-3---3-3-|

--1---1-1-1---1-1-1---1-1-1---1-1-|----------------------------------|







  S S S S S S S S S S S S S S S S    S S S S S S S S S S S S Q     

----------------------------------|-------------------------------|

----------------------------------|-------------------------------|

----------------------------------|--0---0-0-0---0-0-0---0-0------|

--3---3-3-3---3-3-3---3-3-3---3-3-|--------------------------3----|







  S S S S S S S S S S S S S S S S    S S S S S S S S S S S S S S S S  

----------------------------------|----------------------------------|

----------------------------------|----------------------------------|

----------------------------------|--3---3-3-3---3-3-3---3-3-3---3-3-|

--1---1-1-1---1-1-1---1-1-1---1-1-|----------------------------------|







  S S S S S S S S S S S S S S S S    S S S S S S S S S S S S Q     

----------------------------------|-------------------------------|

----------------------------------|-------------------------------|

----------------------------------|--0---0-0-0---0-0-0---0-0------|

--3---3-3-3---3-3-3---3-3-3---3-3-|--------------------------3----|







  S S S S S S S S S S S S S S S S    S S S S S S S S S S S S S S S S  

----------------------------------|----------------------------------|

----------------------------------|----------------------------------|

----------------------------------|--0---0-0-0---0-0-0---0-0-0---0-0-|

--1---1-1-1---1-1-1---1-1-1---1-1-|----------------------------------|







  E.  E.  E  Q    Q       S S S S S S S S S S S S S S S S  

-----------------------|----------------------------------|

-----------------------|----------------------------------|

--3---2----------------|--0---0-0-0---0-0-0---0-0-0---0-0-|

----------3--3---------|----------------------------------|







  S S S S S S S S S S S S S S S S    S S S S S S S S S S S S S S S S  

----------------------------------|----------------------------------|

----------------------------------|----------------------------------|

--0---0-0-0---0-0-0---0-0-0---0-0-|--0---0-0-0---0-0-0---0-0-0---0-0-|

----------------------------------|----------------------------------|







  S S S S S S S S S S S S S S S S    S S S S S S S S S S S S S S S S  

----------------------------------|----------------------------------|

----------------------------------|----------------------------------|

--0---0-0-0---0-0-0---0-0-0---0-0-|----------------------------------|

----------------------------------|--1---1-1-1---1-1-1---1-1-1---1-1-|







  S S S S S S S S S S S S S S S S    S S S S S S S S S S S S S S S S  

----------------------------------|----------------------------------|

----------------------------------|----------------------------------|

----------------------------------|--3---3-3-3---3-3-3---3-3-3---3-3-|

--1---1-1-1---1-1-1---1-1-1---1-1-|----------------------------------|







  S S S S S S S S S S S S S S S S    S S S S S S S S S S S S S S S S  

----------------------------------|----------------------------------|

----------------------------------|----------------------------------|

----------------------------------|--0---0-0-0---0-0-0---0-0-0---0-0-|

--3---3-3-3---3-3-3---3-3-3---3-3-|----------------------------------|







  S S S S S S S S S S S S S S S S    S S S S S S S S S S S S S S S S  

----------------------------------|----------------------------------|

----------------------------------|----------------------------------|

--0---0-0-0---0-0-0---0-0-0---0-0-|--0---0-0-0---0-0-0---0-0-0---0-0-|

----------------------------------|----------------------------------|







  S S S S S S S S S S S S S S S S    S S S S S S S S S S S S S S S S  

----------------------------------|----------------------------------|

----------------------------------|----------------------------------|

--0---0-0-0---0-0-0---0-0-0---0-0-|----------------------------------|

----------------------------------|--1---1-1-1---1-1-1---1-1-1---1-1-|





  S S S S S S S S S S S S S S S S    S S S S S S S S S S S S S S S S  

----------------------------------|----------------------------------|

----------------------------------|----------------------------------|

----------------------------------|--3---3-3-3---3-3-3---3-3-3---3-3-|

--1---1-1-1---1-1-1---1-1-1---1-1-|----------------------------------|







  S S S S S S S S S S S S S S S S    Q    E  E  E  E  E  E   

----------------------------------|-------------------------|

----------------------------------|-------------------------|

----------------------------------|-------------------------|

--3---3-3-3---3-3-3---3-3-3---3-3-|--1----1--1--1--1--1--1--|







  Q    E  E  E  E  E  E     Q    E  E  E  E  E  E     Q    E  E  E  E  E  E   

-------------------------|-------------------------|-------------------------|

-------------------------|-------------------------|-------------------------|

--0----0--0--0--0--0--0--|--3----3--3--3--3--3--3--|-------------------------|

-------------------------|-------------------------|--3----3--3--3--3--3--3--|







  Q    E  E  E  E  E  E     Q    E  E  E  E  E  E     E  E  E  E  E  E  E  E   

-------------------------|-------------------------|--------------------------|

-------------------------|-------------------------|--------------------------|

-------------------------|--0----0--0--0--0--0--0--|--------------------------|

--1----1--1--1--1--1--1--|-------------------------|--0--0--0--0--0--0--0--0--|







  E  E  E  E  E  E  E  E     S S S S S S S S S S S S Q     

--------------------------|-------------------------------|

--------------------------|-------------------------------|

--------------------------|--0---0-0-0---0-0-0---0-0------|

--0--0--0--0--0--0--0--0--|--------------------------3----|







  S S S S S S S S S S S S S S S S    S S S S S S S S S S S S S S S S  

----------------------------------|----------------------------------|

----------------------------------|----------------------------------|

----------------------------------|--3---3-3-3---3-3-3---3-3-3---3-3-|

--1---1-1-1---1-1-1---1-1-1---1-1-|----------------------------------|







  S S S S S S S S S S S S S S S S    S S S S S S S S S S S S Q     

----------------------------------|-------------------------------|

----------------------------------|-------------------------------|

----------------------------------|--0---0-0-0---0-0-0---0-0------|

--3---3-3-3---3-3-3---3-3-3---3-3-|--------------------------3----|





  S S S S S S S S S S S S S S S S    S S S S S S S S S S S S S S S S  

----------------------------------|----------------------------------|

----------------------------------|----------------------------------|

----------------------------------|--3---3-3-3---3-3-3---3-3-3---3-3-|

--1---1-1-1---1-1-1---1-1-1---1-1-|----------------------------------|







  S S S S S S S S S S S S S S S S    S S S S S S S S S S S S Q     

----------------------------------|-------------------------------|

----------------------------------|-------------------------------|

----------------------------------|--0---0-0-0---0-0-0---0-0------|

--3---3-3-3---3-3-3---3-3-3---3-3-|--------------------------3----|







  S S S S S S S S S S S S S S S S    S S S S S S S S S S S S S S S S  

----------------------------------|----------------------------------|

----------------------------------|----------------------------------|

----------------------------------|--3---3-3-3---3-3-3---3-3-3---3-3-|

--1---1-1-1---1-1-1---1-1-1---1-1-|----------------------------------|







  S S S S S S S S S S S S S S S S    S S S S S S S S S S S S Q     

----------------------------------|-------------------------------|

----------------------------------|-------------------------------|

----------------------------------|--0---0-0-0---0-0-0---0-0------|

--3---3-3-3---3-3-3---3-3-3---3-3-|--------------------------3----|







  S S S S S S S S S S S S S S S S    S S S S S S S S S S S S S S S S  

----------------------------------|----------------------------------|

----------------------------------|----------------------------------|

----------------------------------|--0---0-0-0---0-0-0---0-0-0---0-0-|

--1---1-1-1---1-1-1---1-1-1---1-1-|----------------------------------|







  E.  E.  E  Q    E  S S    Q.     Q.     Q       Q.     Q    E  E  E   

-------------------------|---------------------|-----------------------|

-------------------------|---------------------|-----------------------|

--3---2---0----------3-2-|--0------0------0----|--0------0-------0--0--|

-------------4-----------|---------------------|--------------3--------|







  Q.     Q    E  Q       Q.     Q    E  E  E     Q.     Q    E  Q     

----------------------|-----------------------|----------------------|

----------------------|-----------------------|----------------------|

--0------0------------|--0------0-------0--0--|--0------0------------|

----------------------|--------------3--------|----------------------|







  Q.     Q    E  E  E     W                   W                 

-----------------------|-------------------|-------------------|

-----------------------|-------------------|-------------------|

--0------0-------0--0--|-------------------|-------------------|

--------------3--------|--1----------------|--0----------------|







  Q.     Q    E  Q       Q.     Q    E  E  E     Q.     Q    E  Q     

----------------------|-----------------------|----------------------|

----------------------|-----------------------|----------------------|

--0------0------------|--0------0-------0--0--|--0------0------------|

----------------------|--------------3--------|----------------------|







  Q.     Q    E  E  E     Q.     Q.     Q       E  Q.     Q    Q     

-----------------------|---------------------|----------------------|

-----------------------|---------------------|-----------------0----|

--0------0-------0--0--|----------------0----|--L--2------3---------|

--------------3--------|--1------3-----------|----------------------|







  Q    E  E  E  E  E  E     E  E  E  E  E  E  E  E   

-------------------------|--------------------------|

-------------------------|--------------------------|

-------------------------|--------------------------|

--3----3--3--3--3--3--3--|--3--3--3--3--3--3--3--3--|







  S S S S S S S S S S S S S S S S    S S S S S S S S S S S S S S S S  

----------------------------------|----------------------------------|

----------------------------------|----------------------------------|

----------------------------------|--0---0-0-0---0-0-0---0-0-0---0-0-|

--1---1-1-1---1-1-1---1-1-1---1-1-|----------------------------------|







  S S S S S S S S S S S S S S S S    S S S S S S S S S S S S S S S S  

----------------------------------|--0---0-0-0---0-0-0---0-0-0---0-0-|

----------------------------------|----------------------------------|

--3---3-3-3---3-3-3---3-3-3---3-3-|----------------------------------|

----------------------------------|----------------------------------|







  S S S S S S S S S S S S S S S S    S S S S S S S S S S S S S S S S  

----------------------------------|----------------------------------|

----------------------------------|----------------------------------|

----------------------------------|--0---0-0-0---0-0-0---0-0-0---0-0-|

--1---1-1-1---1-1-1---1-1-1---1-1-|----------------------------------|







  S S S S S S S S S S S S S S S S    S S S S S S S S S S S S S S S S  

----------------------------------|--0---0-0-0---0-0-0---0-0-0---0-0-|

----------------------------------|----------------------------------|

--3---3-3-3---3-3-3---3-3-3---3-3-|----------------------------------|

----------------------------------|----------------------------------|







  S S S S S S S S S S S S S S S S    S S S S S S S S S S S S S S S S  

----------------------------------|----------------------------------|

----------------------------------|----------------------------------|

----------------------------------|--0---0-0-0---0-0-0---0-0-0---0-0-|

--1---1-1-1---1-1-1---1-1-1---1-1-|----------------------------------|







  S S S S S S S S S S S S S S S S    S S S S S S S S S S S S S S S S  

----------------------------------|--0---0-0-0---0-0-0---0-0-0---0-0-|

----------------------------------|----------------------------------|

--3---3-3-3---3-3-3---3-3-3---3-3-|----------------------------------|

----------------------------------|----------------------------------|







  S S S S S S S S S S S S S S S S    S S S S S S S S S S S S S S S S  

----------------------------------|----------------------------------|

----------------------------------|----------------------------------|

----------------------------------|--0---0-0-0---0-0-0---0-0-0---0-0-|

--1---1-1-1---1-1-1---1-1-1---1-1-|----------------------------------|







  Q    E  E  Q    E  E     Q    Q    Q    Q       Q    Q    Q    E  E   

------------------------|----------------------|-----------------------|

------------------------|----------------------|-----------------0--2--|

------------------------|----------------------|--0----2----3----------|

--0----0--0--0----0--0--|--0----0----0----0----|-----------------------|







  Q.     S S Q    Q       S S S S S S S S S S S S Q     

-----------------------|-------------------------------|

--3------2-0-----------|-------------------------------|

-------------3----2----|----------0---0-0-0---0-0------|

-----------------------|--------------------------3----|







  S S S S S S S S S S S S S S S S    S S S S S S S S S S S S S S S S  

----------------------------------|----------------------------------|

----------------------------------|----------------------------------|

----------------------------------|--3---3-3-3---3-3-3---3-3-3---3-3-|

--1---1-1-1---1-1-1---1-1-1---1-1-|----------------------------------|







  S S S S S S S S S S S S S S S S    S S S S S S S S S S S S Q     

----------------------------------|-------------------------------|

----------------------------------|-------------------------------|

----------------------------------|--0---0-0-0---0-0-0---0-0------|

--3---3-3-3---3-3-3---3-3-3---3-3-|--------------------------3----|







  S S S S S S S S S S S S S S S S    S S S S S S S S S S S S S S S S  

----------------------------------|----------------------------------|

----------------------------------|----------------------------------|

----------------------------------|--3---3-3-3---3-3-3---3-3-3---3-3-|

--1---1-1-1---1-1-1---1-1-1---1-1-|----------------------------------|







  S S S S S S S S S S S S S S S S    S S S S S S S S S S S S Q     

----------------------------------|-------------------------------|

----------------------------------|-------------------------------|

----------------------------------|--0---0-0-0---0-0-0---0-0------|

--3---3-3-3---3-3-3---3-3-3---3-3-|--------------------------3----|







  S S S S S S S S S S S S S S S S    S S S S S S S S S S S S S S S S  

----------------------------------|----------------------------------|

----------------------------------|----------------------------------|

----------------------------------|--3---3-3-3---3-3-3---3-3-3---3-3-|

--1---1-1-1---1-1-1---1-1-1---1-1-|----------------------------------|







  S S S S S S S S S S S S S S S S    S S S S S S S S S S S S Q     

----------------------------------|-------------------------------|

----------------------------------|-------------------------------|

----------------------------------|--0---0-0-0---0-0-0---0-0------|

--3---3-3-3---3-3-3---3-3-3---3-3-|--------------------------3----|







  S S S S S S S S S S S S S S S S    S S S S S S S S S S S S S S S S  

----------------------------------|----------------------------------|

----------------------------------|----------------------------------|

----------------------------------|--3---3-3-3---3-3-3---3-3-3---3-3-|

--1---1-1-1---1-1-1---1-1-1---1-1-|----------------------------------|







  S S S S S S S S S S S S S S S S    S S S S S S S S S S S S Q     

----------------------------------|-------------------------------|

----------------------------------|-------------------------------|

----------------------------------|--0---0-0-0---0-0-0---0-0------|

--3---3-3-3---3-3-3---3-3-3---3-3-|--------------------------3----|







  S S S S S S S S S S S S S S S S    S S S S S S S S S S S S S S S S  

----------------------------------|----------------------------------|

----------------------------------|----------------------------------|

----------------------------------|--3---3-3-3---3-3-3---3-3-3---3-3-|

--1---1-1-1---1-1-1---1-1-1---1-1-|----------------------------------|







  S S S S S S S S S S S S S S S S    S S S S S S S S S S S S Q     

----------------------------------|-------------------------------|

----------------------------------|-------------------------------|

----------------------------------|--0---0-0-0---0-0-0---0-0------|

--3---3-3-3---3-3-3---3-3-3---3-3-|--------------------------3----|







  S S S S S S S S S S S S S S S S    S S S S S S S S S S S S S S S S  

----------------------------------|----------------------------------|

----------------------------------|----------------------------------|

----------------------------------|--3---3-3-3---3-3-3---3-3-3---3-3-|

--1---1-1-1---1-1-1---1-1-1---1-1-|----------------------------------|







  S S S S S S S S S S S S S S S S    S S S S S S S S S S S S Q     

----------------------------------|-------------------------------|

----------------------------------|-------------------------------|

----------------------------------|--0---0-0-0---0-0-0---0-0------|

--3---3-3-3---3-3-3---3-3-3---3-3-|--------------------------3----|







  S S S S S S S S S S S S S S S S    S S S S S S S S S S S S S S S S  

----------------------------------|----------------------------------|

----------------------------------|----------------------------------|

----------------------------------|--3---3-3-3---3-3-3---3-3-3---3-3-|

--1---1-1-1---1-1-1---1-1-1---1-1-|----------------------------------|







  S S S S S S S S S S S S S S S S    S S S S S S S S S S S S Q     

----------------------------------|-------------------------------|

----------------------------------|-------------------------------|

----------------------------------|--0---0-0-0---0-0-0---0-0------|

--3---3-3-3---3-3-3---3-3-3---3-3-|--------------------------3----|







  S S S S S S S S S S S S S S S S    S S S S S S S S S S S S S S S S  

----------------------------------|----------------------------------|

----------------------------------|----------------------------------|

----------------------------------|--0---0-0-0---0-0-0---0-0-0---0-0-|

--1---1-1-1---1-1-1---1-1-1---1-1-|----------------------------------|







  E  E  E  E  E  E  Q       E  Q    H        E     W                 

-------------------------|----------------------|-------------------|

-------------------------|----------------------|-------------------|

--3--2--0-----3--2--0----|--L--0----------------|-------------------|

-----------4-------------|----------------------|-------------------|







  W                   W                                      

-------------------|-------------------|-------------------||

-------------------|-------------------|-------------------||

-------------------|-------------------|-------------------||

-------------------|-------------------|-------------------||











Duration Legend

---------------

W - whole

H - half

Q - quarter

E - 8th

S - 16th

T - 32nd

X - 64th

. - note dotted

|-n-|  - n-tuplets





Tablature Legend

----------------

L - tied note

x - dead note

g - grace note

(n) - ghost note

> - accentuded note

NH - natural harmonic

AH - artificial harmonic

TH - tapped harmonic

SH - semi harmonic

PH - pitch harmonic

h - hammer on

p - pull off

b - bend

br - bendRelease

pb - preBend

pbr - preBendRelease

brb - bendReleaseBend

\n/ - tremolo bar dip

\n - tremolo bar dive

-/n - tremolo bar Release up

/n\ - tremolo bar inverted dip

/n - tremolo bar return

-\n - tremolo bar Release down

S - shift slide

s - legato slide

/ -  slide into from below or out of upwards

\ -  slide into from above or out of downwards

~ - vibrato

W - wide vibrato

tr - trill

TP - tremolo picking

T - tapping

S - slap

P - pop

< - fade in

^ - brush up

v - brush down

comments
We did not receive enough feedback on this tab! Please rate:
print report bad tab
1 2 3 4 5
I want to post or [tab]
guest
You may want to rate the tab now too:
select rating
Please do not post tabs as comments. Select "correction" instead!