Oops, an error
Loading. Please wait.

Tallulah Bass Tab

ver2
ver2

Whole song

More versions @911Tabs.com
609 views 1 this week
no commentswrite comment
1 2 3 4 5
please rate
Autoscroll
+/-
esc
set tempo
stop
Contributor
WARNING: You are trying to view
                                    content from Ultimate-Guitar.com
                                    in an unauthorized application,
                                    which is prohibited.

                                    Please use an official Ultimate
                                    Guitar Tabs application for iPhone,
                                    iPad or Android to access legitimate
                                    chords, guitar, bass, and drum tabs
                                    from Ultimate-Guitar.com database.

                                    Type "ultimate guitar tabs" in Apple
                                    App Store's or Android Market's
                                    search to find the application.
#----------------------------------PLEASE NOTE---------------------------------#
#This file is the author's own work and represents their interpretation of the #
#song. You may only use this file for private study, scholarship, or research. #
#------------------------------------------------------------------------------#

TALLULAH (Bassline)
As recorded by Sonata Arctica
(From the 2001 Album SILENCE)

Transcribed by Rogelio Dionicio (transylvania9@hotmail.com)
	

Words by Tony Kakko. Music by Sonata Arctica

Gtr I (Eb Ab Db Gb Bb Eb) - 'Piano - Mikko Harkin'
Gtr II (Eb Ab Db Gb Bb Eb) - 'Piano - Mikko Harkin'
Gtr III (Eb Ab Db Gb Bb Eb) - 'Keyboard - Mikko Harkin'
Gtr IV (Eb Ab Db Gb) - 'Bass - Marko Paasikoski'

   Intro & Interlude
    Slow Metal Q.=90
    $
    F       G           Am
   4/4
    Gtr I
     E E Q   E  E  Q     E  E  E  E  E  E  E  E
||-------8--------10--|-------15-------15-------|
||o----8-------10-----|-12h13----12h13----13p12-|
||--10------12--------|-------------------------|
||--------------------|-------------------------|
||o-------------------|-------------------------|
||--------------------|-------------------------|
|
|   Gtr II
|    H       H           W
||--------------------|-------------------------|
||o--1-------3--------|--5----------------------|
||---2-------4--------|--5----------------------|
||---3-------5--------|--7----------------------|
||o-------------------|-------------------------|
||--------------------|-------------------------|


 1.
  F       G           Am
   E E Q   E  E  Q     E  E  H.
|------8--------10--|-------12------||
|----8-------10-----|----12--------o||
|-10------12--------|-14------------||
|-------------------|---------------||
|-------------------|--------------o||
|-------------------|---------------||
|
|  H       H           W
|-------------------|---------------||
|--1-------3--------|--5-----------o||
|--2-------4--------|--5------------||
|--3-------5--------|--7------------||
|-------------------|--------------o||
|-------------------|---------------||


  2.                                 1.                 2.
                                                    To Coda
  F       G          Dsus2/B          Am                 Am
   E E Q  E E Q      Q    Q  Q  Q     Q    Q  Q  Q       W
|------8------7--||-----------------|-----------------||-------||
|----8------8----||o-5-------5------|-5-------5------o||-5-----||
|-10-------------||--7-------7------|-5-------5-------||-5-----||
|----------------||-------9-----9---|------7-----7----||-7-----||
|----------------||o----------------|----------------o||-------||
|----------------||-----------------|-----------------||-------||
|
|  H      H          H..          E   H..          E     W
|----------------||-----------------|-----------------||-------||
|--1------3------||o----------------|----------------o||-------||
|--2------4------||-----------------|-----------------||-------||
|--3------5------||--7--------------|-----------------||-------||
|----------------||o--------------7-|--------------7-o||-------||
|----------------||-----------------|-5---------------||-5-----||


   Verse
    Am                          G         C
    E E E E  E E E E   E E  E E E E E E   Q   Q  Q   Q    Q     Q  E E  Q
||------7-8----------|-7-8--------------|-0------0------|-0------------------|
||o---------10-------|-----10-------8---|-8------8------|-8--------8---------|
||----9--------9---9-|--------9p7-----7-|-7------7------|-7--------7h9-------|
||--7------------7---|------------9-----|----10-----10--|------10------10----|
||o------------------|------------------|---------------|--------------------|
||-------------------|------------------|---------------|--------------------|
|
|   W                  H        H         W               H..             E
||-------------------|------------------|---------------|--------------------|
||o------------------|------------------|---------------|--------------------|
||-------------------|------------------|-0-------------|-0------------------|
||--2----------------|-2----------------|-2-------------|-2------------------|
||o-3----------------|-3--------2-------|-3-------------|-3---------------3--|
||--5----------------|-5--------3-------|---------------|--------------------|


  Dm                             G
  Q    Q  Q  Q     Q  Q  Q  Q    Q  Q  Q  Q
|----------------|-------------|-8-----8-----|
|-6-------6------|-6-----6-----|-8-----8-----|
|-7-------7------|-7-----7-----|----7-----7--|
|------7-----7---|----7-----7--|-------------|
|----------------|-------------|-------------|
|----------------|-------------|-------------|
|
| H..          E   W             W
|----------------|-------------|-------------|
|----------------|-------------|-------------|
|-2--------------|-------------|-------------|
|-3------------2-|-3-----------|-------------|
|-5--------------|-5-----------|-3-----------|
|----------------|-------------|-3-----------|


 1.                          2.
                              G
  E  S  S  E  E  Q   E  E     Q  Q  Q  Q
|---20p19------------------||-7-----7-------||
|---------20--------------o||-8-----8-------||
|-0----------19p17--16-----||----7-----7----||
|----------------------17--||---------------||
|-------------------------o||---------------||
|--------------------------||---------------||
|
| W                           W
|--------------------------||---------------||
|-------------------------o||---------------||
|--------------------------||---------------||
|--------------------------||---------------||
|-2-----------------------o||-2-------------||
|-3------------------------||-3-------------||


 Pre-Chorus
  F                G                Am
  Q    Q  Q  Q     Q    Q  Q  Q      Q  Q   Q  Q     Q    Q   Q  Q
|-5-------5------|-7-------7------|--7------7-----|--8--------8------|
|-6-------6------|-8-------8------|-10-----10-----|-10-------10------|
|------5-----5---|------7-----7---|-----9------9--|-------9------9---|
|----------------|----------------|---------------|------------------|
|----------------|----------------|---------------|------------------|
|----------------|----------------|---------------|------------------|
|
| H..          E   H..          E    W               H..           E
|----------------|----------------|---------------|------------------|
|----------------|----------------|---------------|------------------|
|----------------|----------------|---------------|------------------|
|-3------------3-|-5------------5-|--7------------|--7-------------7-|
|----------------|----------------|---------------|------------------|
|----------------|----------------|---------------|------------------|


  F                G                Am
  Q    Q  Q  Q     Q    Q  Q  Q      Q  Q   Q  Q     Q    Q   Q  Q
|-5-------5------|-7-------7------|-10-----10-----|--8--------8------|
|-6-------6------|-8-------8------|-10-----10-----|-10-------10------|
|------5-----5---|------7-----7---|-----9------9--|-------9------9---|
|----------------|----------------|---------------|------------------|
|----------------|----------------|---------------|------------------|
|----------------|----------------|---------------|------------------|
|
| H..          E   H..          E    W               H..           E
|----------------|----------------|---------------|------------------|
|----------------|----------------|---------------|------------------|
|----------------|----------------|---------------|------------------|
|-3------------3-|-5------------5-|--7------------|--7-------------7-|
|----------------|----------------|---------------|------------------|
|----------------|----------------|---------------|------------------|


  F                G                C           G           Am       G
  Q    Q  Q  Q     Q    Q  Q  Q      E  E  E  E  E E E  E   E E  E E E E E E
|-5-------5------|-7-------7------|-12-------12p10---7h10p|=8------8p7-----7-|
|-6-------6------|-8-------8------|-------13-------8------|-----10-------8---|
|------5-----5---|------7-----7---|----12-----------------|---9--------7-----|
|----------------|----------------|-----------------------|------------------|
|----------------|----------------|-----------------------|------------------|
|----------------|----------------|-----------------------|------------------|
|
| H..          E   H..          E    H           H          H        H
|----------------|----------------|-----------------------|------------------|
|----------------|----------------|-----------------------|------------------|
|----------------|----------------|--0-----------0--------|------------------|
|-3------------3-|-5------------5-|--2-----------0--------|-2----------------|
|----------------|----------------|--3-----------2--------|-3--------2-------|
|----------------|----------------|-----------------------|-5--------3-------|


                                    D.S. al Coda
  F             G
  Q  Q  Q  Q    Q    Q  E E E E   Q  Q  Q  Q    W
|-5-----5-----|-5-------3h5-----|-8-----8-----|-7----||
|-6-----6-----|-6-----------6---|-8-----8-----|-8----||
|----5-----5--|------5--------5-|----7-----7--|-7----||
|-------------|-----------------|-------------|------||
|-------------|-----------------|-------------|------||
|-------------|-----------------|-------------|------||
|
| W             H..           E   W             W
|-------------|-----------------|-------------|------||
|-------------|-----------------|-------------|------||
|-2-----------|-----------------|-------------|------||
|-3-----------|-5-------------5-|-5-----------|-5----||
|-3-----------|-----------------|-------------|------||
|-1-----------|-----------------|-------------|------||


   2nd Verse
    &
    Am                           G         C
    E  E E E  E E E E   E E  E E E E E E   Q    Q  Q   Q    Q     Q  E E  Q
||-------7h8----------|-7h8--------------|-0-------0------|-0------------------|
||o----------10-------|-----10-------8---|-8-------8------|-8--------8---------|
||-----9--------9---9-|--------9p7-----7-|-7-------7------|-7--------7-9-------|
||--7-------------7---|------------9-----|-----10-----10--|------10------10----|
||o-------------------|------------------|----------------|--------------------|
||--------------------|------------------|----------------|--------------------|
|
|   W                   H        H         W                H..             E
||--------------------|------------------|----------------|--------------------|
||o-------------------|------------------|----------------|--------------------|
||--------------------|------------------|-0--------------|-0------------------|
||--2-----------------|-2----------------|-2--------------|-2------------------|
||o-3-----------------|-3--------2-------|-3--------------|-3---------------3--|
||--5-----------------|-5--------3-------|----------------|--------------------|
|
|   Gtr IV
|   H.            Q     H        H         H.          Q    W
||--------------------|------------------|----------------|--------------------|
||o-------------------|------------------|----------------|--------------------|
||o-------------------|------------------|-3-----------3--|-3------------------|
||--5-------------5---|-5--------3-------|----------------|--------------------|


  Dm                             G
  Q    Q  Q  Q     Q  Q  Q  Q    Q   Q  Q  Q
|----------------|-------------|-8------8-----|
|-6-------6------|-6-----6-----|-8------8-----|
|-7-------7------|-7-----7-----|-----7-----7--|
|------7-----7---|----7-----7--|--------------|
|----------------|-------------|--------------|
|----------------|-------------|--------------|
|
| H..          E   W             W
|----------------|-------------|--------------|
|----------------|-------------|--------------|
|-2--------------|-------------|--------------|
|-3------------2-|-3-----------|--------------|
|-5--------------|-5-----------|-3------------|
|----------------|-------------|-3------------|
|
| H.         Q     W             H.        Q
|----------------|-------------|--------------|
|----------------|-------------|--------------|
|-5----------5---|-5-----------|--------------|
|----------------|-------------|-3---------3--|


 1.                          2.
  E  S  S  E  E  Q   E  E     Q   Q  Q    Q
|---20-19------------------||-7------7-----------||
|---------20--------------o||-8------8-----------||
|-0----------19-17--16-----||-----7-------7------||
|----------------------17--||--------------------||
|-------------------------o||--------------------||
|--------------------------||--------------------||
|
| W                           W
|--------------------------||--------------------||
|-------------------------o||--------------------||
|--------------------------||--------------------||
|--------------------------||--------------------||
|-2-----------------------o||-2------------------||
|-3------------------------||-3------------------||
|
| W                           H.          Q
|--------------------------||--------------------||
|-------------------------o||--------------------||
|-------------------------o||--------------------||
|-3------------------------||-3---------(12)\----||


 Pre-Chorus
  F                G                Am
  Q    Q  Q  Q     Q    Q  Q  Q      Q   Q   Q  Q     Q    Q   Q  Q
|-5-------5------|-7-------7------|--7-------7-----|--8--------8------|
|-6-------6------|-8-------8------|-10------10-----|-10-------10------|
|------5-----5---|------7-----7---|------9------9--|-------9------9---|
|----------------|----------------|----------------|------------------|
|----------------|----------------|----------------|------------------|
|----------------|----------------|----------------|------------------|
|
| H..          E   H..          E    W                H..           E
|----------------|----------------|----------------|------------------|
|----------------|----------------|----------------|------------------|
|----------------|----------------|----------------|------------------|
|-3------------3-|-5------------5-|--7-------------|--7-------------7-|
|----------------|----------------|----------------|------------------|
|----------------|----------------|----------------|------------------|
|
| H.         Q     H.         Q      H.         Q     H        H
|----------------|----------------|----------------|------------------|
|----------------|----------------|----------------|------------------|
|----------------|----------------|----------------|------------------|
|-1----------1---|-3----------3---|--5----------5--|--5--------3------|


  F                G                Am
  Q    Q  Q  Q     Q    Q  Q  Q      Q   Q   Q  Q     Q    Q   Q  Q
|-5-------5------|-7-------7------|-10------10-----|--8--------8------|
|-6-------6------|-8-------8------|-10------10-----|-10-------10------|
|------5-----5---|------7-----7---|------9------9--|-------9------9---|
|----------------|----------------|----------------|------------------|
|----------------|----------------|----------------|------------------|
|----------------|----------------|----------------|------------------|
|
| H..          E   H..          E    W                H..           E
|----------------|----------------|----------------|------------------|
|----------------|----------------|----------------|------------------|
|----------------|----------------|----------------|------------------|
|-3------------3-|-5------------5-|--7-------------|--7-------------7-|
|----------------|----------------|----------------|------------------|
|----------------|----------------|----------------|------------------|
|
| H.         Q     H.         Q      H.         Q     H        H
|----------------|----------------|----------------|------------------|
|----------------|----------------|----------------|------------------|
|----------------|----------------|----------------|------------------|
|-1----------1---|-3----------3---|--5----------5--|--5--------3------|


  F                G                C           G           Am       G
  Q    Q  Q  Q     Q    Q  Q  Q      E  E  E  E  E E E  E   E E  E E E E E E
|-5-------5------|-7-------7------|-12-------12-10---7-10-|-8------8-7-----7-|
|-6-------6------|-8-------8------|-------13-------8------|-----10-------8---|
|------5-----5---|------7-----7---|----12-----------------|---9--------7-----|
|----------------|----------------|-----------------------|------------------|
|----------------|----------------|-----------------------|------------------|
|----------------|----------------|-----------------------|------------------|
|
| H..          E   H..          E    H           H          H        H
|----------------|----------------|-----------------------|------------------|
|----------------|----------------|-----------------------|------------------|
|----------------|----------------|--0-----------0--------|------------------|
|-3------------3-|-5------------5-|--2-----------0--------|-2----------------|
|----------------|----------------|--3-----------2--------|-3--------2-------|
|----------------|----------------|-----------------------|-5--------3-------|
|
| H.         Q     H.         Q      H           H          H        H
|----------------|----------------|-----------------------|------------------|
|----------------|----------------|-----------------------|------------------|
|----------------|----------------|--3-----------2--------|------------------|
|-1----------1---|-3----------3---|-----------------------|-5--------3-------|


  F                               G
  Q   Q  Q  Q    Q   Q  E E E E   Q  Q  Q  Q    W
|-5------5-----|-5------3-5-----|-8-----8-----|-7----||
|-6------6-----|-6----------6---|-8-----8-----|-8----||
|-----5-----5--|-----5--------5-|----7-----7--|-7----||
|--------------|----------------|-------------|------||
|--------------|----------------|-------------|------||
|--------------|----------------|-------------|------||
|
| W              H.         Q     W             W
|--------------|----------------|-------------|------||
|--------------|----------------|-------------|------||
|-2------------|----------------|-------------|------||
|-3------------|-3----------3---|-5-----------|-5----||
|-3------------|----------------|-------------|------||
|-1------------|----------------|-------------|------||
|
| H.        Q    H.         Q     W             W
|--------------|----------------|-------------|------||
|--------------|----------------|-------------|------||
|--------------|----------------|-------------|------||
|-1---------1--|-1----------1---|-3-----------|-3----||


 Chorus
  C                 G              Dm                 Am
  Q   Q  Q   Q      Q  Q   Q  Q     Q   Q  Q   Q       Q  Q   Q  Q
|-----------------|--------------|------------------|---------------|
|-----------------|--------------|------------------|---------------|
|-5------5--------|-4------4-----|--7------7--------|--5------5-----|
|-5------5--------|-5------5-----|--7------7--------|--7------7-----|
|-----7------7----|----5------5--|------8------8----|-----7------7--|
|-----------------|--------------|------------------|---------------|
|
| Gtr III
| Q   Q  Q   Q      Q  Q   Q  Q     W                  W
|-8------8--------|-7------7-----|-10---------------|--8------------|
|-8------8--------|-8------8-----|-10---------------|-10------------|
|-----9------9----|----7------7--|------------------|---------------|
|-----------------|--------------|------------------|---------------|
|-----------------|--------------|------------------|---------------|
|-----------------|--------------|------------------|---------------|
|
| H.        +E  E   Q  H.           H.        +E  e    Q  H.
|-----------------|--------------|------------------|---------------|
|-----------------|--------------|------------------|---------------|
|-3---------(3)---|--------------|--5---------(5)---|---------------|
|---------------3-|-3--3---------|----------------5-|--5--5---------|


  C                 G              F       G         F         G
  Q   Q  Q   Q      Q  Q   Q  Q    E E E E E E E E   E  E  E E  E  E  E  E
|-----------------|--------------|-----------------|-----------------------|
|-----------------|--------------|---------0-----0-|-1-------1--3--------3-|
|-5------5--------|-4------4-----|-2-----2-----0---|-------2----------4----|
|-5------5--------|-5------5-----|-----3-----0-----|----3----------5-------|
|-----7------7----|----5------5--|---3-------------|-----------------------|
|-----------------|--------------|-----------------|-----------------------|
|
| Q   Q  Q   Q      Q  Q   Q  Q    E E E E E E E E   E  E  E E  E  E  E  E
|-8------8--------|-7------7-----|-5-----5-7-----7-|-8-------8-10-------10-|
|-8------8--------|-8------8-----|-----6-------8---|------10---------12----|
|-----9------9----|----7------7--|---5-------7-----|---10---------12-------|
|-----------------|--------------|-----------------|-----------------------|
|-----------------|--------------|-----------------|-----------------------|
|-----------------|--------------|-----------------|-----------------------|
|
| H.        +E  E   Q  H.          H       H         H          H
|-----------------|--------------|-----------------|-----------------------|
|-----------------|--------------|-----------------|-----------------------|
|-3---------(3)---|--------------|-----------------|-----------------------|
|---------------3-|-3--3---------|-1-------3-------|-5----------7----------|


  C                    G                Dm                   Am
   Q    Q   Q   Q       Q  Q    Q  Q     Q    Q   Q   Q       Q   Q    Q   Q
|--------------------|----------------|--------------------|------------------|
|--------------------|----------------|--------------------|------------------|
|--5--------5--------|--4-------4-----|--7--------7--------|--5--------5------|
|--5--------5--------|--5-------5-----|--7--------7--------|--7--------7------|
|-------7-------7----|-----5-------5--|-------8-------8----|------7--------7--|
|--------------------|----------------|--------------------|------------------|
|
|  Q    Q   Q   Q       Q  Q    Q  Q     Q    Q   Q   Q       Q   Q    Q   Q
|-12-------12--------|-10------10-----|-13-------13--------|-12-------12------|
|-13-------13--------|-12--8---12--8--|-15-------15--------|-13--10---13--10--|
|------12------12----|----------------|------14------14----|------------------|
|--------------------|----------------|--------------------|------------------|
|--------------------|----------------|--------------------|------------------|
|--------------------|----------------|--------------------|------------------|
|
|  H.          +E  E    Q  H.            H.          +E  e    Q   H.
|--------------------|----------------|--------------------|------------------|
|--------------------|----------------|--------------------|------------------|
|--3-----------(3)---|----------------|--5-----------(5)---|------------------|
|------------------3-|--3--3----------|------------------5-|--5---5-----------|


  C                    G
   Q    Q   Q   Q       Q  Q    Q  Q
|--------------------|----------------|
|--5--------5--------|--3-------3-----|
|--5--------5--------|--4-------4-----|
|-------5-------5----|-----5-------5--|
|--------------------|----------------|
|--------------------|----------------|
|
|  Q    Q   Q   Q       Q  Q    Q  Q
|-12-------12--------|-10------10-----|
|-13-------13--------|-12--8---12--8--|
|------12------12----|----------------|
|--------------------|----------------|
|--------------------|----------------|
|--------------------|----------------|
|
|  H.          +E  E    Q  H.
|--------------------|----------------|
|--------------------|----------------|
|--3-----------(3)---|----------------|
|------------------3-|--3--3----------|


  F       G           Am
   E E Q   E  E  Q     E  E  H.         +W
|------8--------10--|-------12-------|-(12)-------------||
|----8-------10-----|----12----------|------------------||
|-10------12--------|-14-------------|------------------||
|-------------------|----------------|------------------||
|-------------------|----------------|------------------||
|-------------------|----------------|------------------||
|
|  E E Q   E  E  Q     E  E  H.          W
|------8--------10--|-------12-------|------------------||
|----8-------10-----|----12-12-------|--13--------------||
|-10------12--------|-14-------------|------------------||
|-------------------|----------------|------------------||
|-------------------|----------------|------------------||
|-------------------|----------------|------------------||
|
|  H       H           W                +H.        Q
|-------------------|----------------|------------------||
|-------------------|----------------|------------------||
|-------------------|----------------|------------------||
|--1-------3--------|--5-------------|--(5)------(12)\--||


   Bridge
    Dm
     Q    Q   Q   Q       Q   Q   Q   Q
||---1--------1--------|--1-------1------|
||o--3--------3--------|--3-------3------|
||--------2-------2----|------2-------2--|
||---------------------|-----------------|
||o--------------------|-----------------|
||---------------------|-----------------|
|
|    Q    Q   Q   Q       Q   Q   Q   Q
||--13-------13--------|-13------13------|
||o-15-------15--------|-15------15------|
||-------14------14----|-----14------14--|
||---------------------|-----------------|
||o--------------------|-----------------|
||---------------------|-----------------|
|
|    H.          +E  E    Q   Q   Q   Q
||---------------------|-----------------|
||o--------------------|-----------------|
||o--5-----------(5)-5-|--5---5---5---7--|
||---------------------|-----------------|


  F
   Q    Q   Q   Q     Q    Q   Q   Q
|--1--------1------|--1--------1-------|
|--1--------1------|--1--------1-------|
|-------2-------2--|-------2-------2---|
|------------------|-------------------|
|------------------|-------------------|
|------------------|-------------------|
|
|  Q    Q   Q   Q     Q    Q   Q   Q
|-13-------13------|-13-------13-------|
|-13-------13------|-13-------13-------|
|------14------14--|------14------14---|
|------------------|-------------------|
|------------------|-------------------|
|------------------|-------------------|
|
|  H.           Q     H.           Q
|------------------|-------------------|
|------------------|-------------------|
|------------------|-------------------|
|--1------------1--|--1------------1---|


  Am
   Q    Q   Q   Q       Q   Q    Q   Q
|--0--------0--------|--0--------0------|
|--1--------1--------|--1--------1------|
|--2--------2--------|--2--------2------|
|-------2-------2----|------2--------2--|
|--------------------|------------------|
|--------------------|------------------|
|
|  Q    Q   Q   Q       Q   Q    Q   Q
|-12-------12--------|-12-------12------|
|-13-------13--------|-13-------13------|
|------14------14----|-----14-------14--|
|--------------------|------------------|
|--------------------|------------------|
|--------------------|------------------|
|
|  H.          +E  e    Q   H.
|--------------------|------------------|
|--------------------|------------------|
|--------------------|------------------|
|--5-----------(5)-5-|--5---5-----------|


 1.
  C
   Q    Q   Q   Q       E E  Q   E E  E E
|--0--------0--------|--1-0------1-0----0--||
|--1--------1--------|-------1--------1---o||
|--0--------0--------|---------------------||
|-------2-------2----|---------------------||
|--------------------|--------------------o||
|--------------------|---------------------||
|
|  Q    Q   Q   Q       Q    Q   Q    Q
|-12-------12--------|-12-------12---------||
|-13-------13--------|-13-------13--------o||
|------12------12----|------12-------12----||
|--------------------|---------------------||
|--------------------|--------------------o||
|--------------------|---------------------||
|
|  H.          +E  E    Q    Q   Q    Q
|--------------------|---------------------||
|--------------------|--------------------o||
|--3-----------(3)-3-|--3----3---3--------o||
|--------------------|----------------3----||


  2.
  G                                    Fsus4              F
   Q    Q   Q   Q     Q   Q   Q   Q     Q    Q   Q   Q     W
|--3--------3------|--3-------3------|--1--------1------|--1------------||
|--3--------3------|--3-------3------|--1--------1------|--1------------||
|--5--------5------|--4-------4------|--3--------3------|--2------------||
|-------5-------5--|------5-------5--|-------3-------3--|---------------||
|------------------|-----------------|------------------|---------------||
|------------------|-----------------|------------------|---------------||
|
|  Q    Q   Q   Q     Q   Q   Q   Q     Q    Q   Q   Q     Q   Q   H
|-10-------10------|-10------10------|------------------|---------------||
|-13-------13------|---------12------|-11-------11------|-10------10----||
|------12------12--|-----12------12--|------10------10--|-----10--------||
|------------------|-----------------|-10-------10------|-10------10----||
|------------------|-----------------|------------------|---------------||
|------------------|-----------------|------------------|---------------||
|
|  H.           Q     W                 H.           Q     W
|------------------|-----------------|------------------|---------------||
|------------------|-----------------|------------------|---------------||
|------------------|-----------------|------------------|---------------||
|--3------------3--|--3--------------|--1------------1--|--1------------||


   Guitar Solo
    Am                                 G
     E  E E E  E E  E  E     E  E  E E  E E E E
||--------7-8------------|---7--8---------------|
||o-----------10---------|--------10--------8---|
||------9--------9-----9-|-----------9--7-----7-|
||---7--------------7----|----------------9-----|
||o----------------------|----------------------|
||-----------------------|----------------------|
|
|    W                      +H          H
||--12-------------------|-(12)--------10-------|
||o-13-------------------|-(13)--------12-------|
||--14-------------------|-(14)--------12-------|
||-----------------------|----------------------|
||o----------------------|----------------------|
||-----------------------|----------------------|
|
|    H.            +E  e     Q     Q    H
||-----------------------|----------------------|
||o----------------------|----------------------|
||o----------------------|----------------------|
||---5-------------(5)-5-|---5-----5----3-------|


  C
   Q    Q  Q   Q     Q   Q  E E  Q
|--0-------0------|--0---------------|
|--8-------8------|--8------8--------|
|--7-------7------|--7------7-9------|
|------10-----10--|-----10------10---|
|-----------------|------------------|
|-----------------|------------------|
|
|  W                 W
|-12--------------|-12---------------|
|-13--------------|-13---------------|
|-12--------------|-12---------------|
|-----------------|------------------|
|-----------------|------------------|
|-----------------|------------------|
|
|  H.          Q     H      Q    Q
|-----------------|------------------|
|-----------------|------------------|
|--3-----------3--|--3------3--------|
|-----------------|--------------5---|


  Dm
   Q   Q  Q   Q        Q   Q  Q  Q
|------------------|----------------|
|--6------6--------|---6------6-----|
|--7------7--------|---7------7-----|
|------7------7----|-------7-----7--|
|------------------|----------------|
|------------------|----------------|
|
|  W                  +W
|-13---------------|-(13)-----------|
|-15---------------|-(15)-----------|
|-14---------------|-(14)-----------|
|------------------|----------------|
|------------------|----------------|
|------------------|----------------|
|
|  H.        +E  e     Q   Q  Q  Q
|------------------|----------------|
|------------------|----------------|
|--5---------(5)-5-|---5---5--5--3--|
|------------------|----------------|


  G
   Q   Q  Q   Q       E  S  S  E  E  Q   E  E
|--8------8--------|----20-19-------------------||
|--8------8--------|----------20---------------o||
|------7------7----|--0----------19-17--16------||
|------------------|-----------------------17---||
|------------------|---------------------------o||
|------------------|----------------------------||
|
|  W                  W
|------------------|----------------------------||
|-15---------------|---------------------------o||
|-17---------------|-16-------------------------||
|-17---------------|----------------------------||
|------------------|---------------------------o||
|------------------|----------------------------||
|
|  H.        +E  E    Q        H         Q
|------------------|----------------------------||
|------------------|---------------------------o||
|------------------|---------------------------o||
|--3---------(3)-3-|--3--------3---------3------||


 Pre-Chorus
  F                  G               Am
   Q    Q   Q   Q     Q   Q  Q  Q     Q   Q   Q  Q      Q   Q   Q  Q
|------------------|--7------7-----|--7-------7-----|---8-------8-----|
|-10-------10------|--8------8-----|-10------10-----|--10------10-----|
|-10-------10------|------7-----7--|------9------9--|-------9------9--|
|------10------10--|--5------------|--7-------------|---7-------------|
|--8---------------|---------------|----------------|-----------------|
|------------------|---------------|----------------|-----------------|
|
|  W                  W               W                 W
|--8---------------|-10------------|-12-------------|-(12)------------|
|-10---------------|-12------------|-12-------------|--13-------------|
|-10---------------|-12------------|-14-------------|-(14)------------|
|------------------|---------------|----------------|-----------------|
|------------------|---------------|----------------|-----------------|
|------------------|---------------|----------------|-----------------|
|
|  H.           Q     H.        Q     H.         Q      H       H
|------------------|---------------|----------------|-----------------|
|------------------|---------------|----------------|-----------------|
|------------------|---------------|----------------|-----------------|
|--1------------1--|--3---------3--|--5----------5--|---5-------3-----|


  F               G               Am
   Q   Q  Q  Q     Q   Q  Q  Q     Q   Q   Q  Q     Q  Q   Q  Q
|--5------5-----|--7------7-----|-10------10-----|--8------8-----|
|--6------6-----|--8------8-----|-10------10-----|-10-----10-----|
|------5-----5--|------7-----7--|------9------9--|-----9------9--|
|---------------|---------------|----------------|---------------|
|---------------|---------------|----------------|---------------|
|---------------|---------------|----------------|---------------|
|
|  W               W               W                W
|--8------------|-10------------|-12-------------|-12------------|
|-10------------|-12------------|-15-------------|-13------------|
|-10------------|-12------------|-14-------------|-14------------|
|---------------|---------------|----------------|---------------|
|---------------|---------------|----------------|---------------|
|---------------|---------------|----------------|---------------|
|
|  H.        Q     H.        Q     H.         Q     H      H
|---------------|---------------|----------------|---------------|
|---------------|---------------|----------------|---------------|
|---------------|---------------|----------------|---------------|
|--1---------1--|--3---------3--|--5----------5--|--5------3-----|


  F               G               C           G           Am        G
   Q   Q  Q  Q     Q   Q  Q  Q     E  E  E  E  E E E  E    E E  E E E E E E
|--5------5-----|--7------7-----|-12-------12-10---7-10-|--8------8-7-----7-|
|--6------6-----|--8------8-----|-------13-------8------|------10-------8---|
|------5-----5--|------7-----7--|----12-----------------|----9--------7-----|
|---------------|---------------|-----------------------|-------------------|
|---------------|---------------|-----------------------|-------------------|
|---------------|---------------|-----------------------|-------------------|
|
|  W               W               H           H           H        H
|--8------------|-10------------|-12----------10--------|--8--------7-------|
|-10------------|-12------------|-13----------12--------|-10--------8-------|
|-10------------|-12------------|-12----------12--------|--9--------7-------|
|---------------|---------------|-----------------------|-------------------|
|---------------|---------------|-----------------------|-------------------|
|---------------|---------------|-----------------------|-------------------|
|
|  H.        Q     H.        Q     H           H           H        H
|---------------|---------------|-----------------------|-------------------|
|---------------|---------------|-----------------------|-------------------|
|---------------|---------------|--3-----------2--------|-------------------|
|--1---------1--|--3---------3--|-----------------------|--5--------3-------|


  F                                 G
   Q   Q  Q  Q     Q   Q  E E E E    Q  Q  Q  Q     W
|--5------5-----|--5------3-5-----|--8-----8-----|--7----||
|--6------6-----|--6----------6---|--8-----8-----|--8----||
|------5-----5--|------5--------5-|-----7-----7--|--7----||
|---------------|-----------------|--------------|-------||
|---------------|-----------------|--------------|-------||
|---------------|-----------------|--------------|-------||
|
|  W               W                 W              W
|---------------|-----------------|--------------|-------||
|-13------------|-13--------------|-15-----------|-15----||
|-14------------|-14--------------|-17-----------|-16----||
|-15------------|-15--------------|-17-----------|-17----||
|---------------|-----------------|--------------|-------||
|---------------|-----------------|--------------|-------||
|
|  H.        Q     H.         Q      W              W
|---------------|-----------------|--------------|-------||
|---------------|-----------------|--------------|-------||
|---------------|-----------------|--------------|-------||
|--1---------1--|--1----------1---|--3-----------|--3----||


   Out-Chorus
    C                 G              Dm                 Am
    Q   Q  Q   Q      Q  Q   Q  Q     Q   Q  Q   Q       Q  Q   Q  Q
||------------------|--------------|------------------|----------------|
||o-----------------|--------------|------------------|----------------|
||--5------5--------|-4------4-----|--7------7--------|--5------5------|
||--5------5--------|-5------5-----|--7------7--------|--7------7------|
||o-----7------7----|----5------5--|------8------8----|-----7------7---|
||------------------|--------------|------------------|----------------|
|
|   Q   Q  Q   Q      Q  Q   Q  Q     W                  W
||--8------8--------|-7------7-----|-10---------------|--8-------------|
||o-8------8--------|-8------8-----|-10---------------|-10-------------|
||------9------9----|----7------7--|------------------|----------------|
||------------------|--------------|------------------|----------------|
||o-----------------|--------------|------------------|----------------|
||------------------|--------------|------------------|----------------|
|
|   H.        +E  E   Q  H.           H.        +E  e    Q  H.
||------------------|--------------|------------------|----------------|
||o-----------------|--------------|------------------|----------------|
||o-3---------(3)---|--------------|--5---------(5)---|----------------|
||----------------3-|-3--3---------|----------------5-|--5--5----------|


  C                 G              F       G         F         G
  Q   Q  Q   Q      Q  Q   Q  Q    E E E E E E E E   E  E  E E  E  E  E  E
|-----------------|--------------|-----------------|------------------------||
|-----------------|--------------|-----------------|-1-------1--3--------3-o||
|-5------5--------|-4------4-----|-2-----2-4-----4-|-------2----------4-----||
|-5------5--------|-5------5-----|-----3-------5---|----3----------5--------||
|-----7------7----|----5------5--|---3-------5-----|-----------------------o||
|-----------------|--------------|-----------------|------------------------||
|
| Q   Q  Q   Q      Q  Q   Q  Q    E E E E E E E E   E  E  E E  E  E  E  E
|-8------8--------|-7------7-----|-5-----5-7-----7-|-8-------8-10-------10--||
|-8------8--------|-8------8-----|-----6-------8---|------10---------12----o||
|-----9------9----|----7------7--|---5-------7-----|---10---------12--------||
|-----------------|--------------|-----------------|------------------------||
|-----------------|--------------|-----------------|-----------------------o||
|-----------------|--------------|-----------------|------------------------||
|
| H.        +E  E   Q  H.          H       H         H          H
|-----------------|--------------|-----------------|------------------------||
|-----------------|--------------|-----------------|-----------------------o||
|-3---------(3)---|--------------|-----------------|-----------------------o||
|---------------3-|-3--3---------|-1-------3-------|-5----------7-----------||


  C                   G
   q   Q   H           Q   Q    Q   Q
|--3-------3--------|------------------|
|--5-------5--------|--3--------3------|
|--5-------5--------|--4--------4------|
|-------------------|------5--------5--|
|-------------------|------------------|
|-------------------|------------------|
|
|  q   Q   H           Q   Q    Q   Q
|-12------12--------|-10-------10------|
|-13------13--------|-12-------12------|
|-12------12--------|-----12-------12--|
|-------------------|------------------|
|-------------------|------------------|
|-------------------|------------------|
|
|  H.         +E  E    Q   H.
|-------------------|------------------|
|-------------------|------------------|
|--3----------(3)---|------------------|
|-----------------3-|--3---3-----------|


    Dm                   Am
     Q    Q   Q   Q       Q   Q    Q   Q
||---------------------|------------------|
||o--6--------6--------|--5--------5------|
||---7--------7--------|--5--------5------|
||--------7-------7----|------7--------7--|
||o--------------------|------------------|
||---------------------|------------------|
|
|    Q    Q   Q   Q       Q   Q    Q   Q
||--13-------13--------|-12-------12------|
||o-15-------15--------|-13-------13------|
||-------14------14----|-----14-------14--|
||---------------------|------------------|
||o--------------------|------------------|
||---------------------|------------------|
|
|    H.          +E  e    Q   H.
||---------------------|------------------|
||o--------------------|------------------|
||o--5-----------(5)---|------------------|
||-------------------5-|--5---5-----------|


  1.
  C                    G
   Q    Q   Q   Q       Q   Q    Q   Q
|--------------------|------------------|
|--5--------5--------|--3--------3------|
|--5--------5--------|--4--------4------|
|-------5-------5----|------5--------5--|
|--------------------|------------------|
|--------------------|------------------|
|
|  Q    Q   Q   Q       Q   Q    Q   Q
|-12-------12--------|-10-------10------|
|-13-------13--------|-12-------12------|
|------12------12----|-----12-------12--|
|--------------------|------------------|
|--------------------|------------------|
|--------------------|------------------|
|
|  H.          +E  E    Q   H.
|--------------------|------------------|
|--------------------|------------------|
|--3-----------(3)---|------------------|
|------------------3-|--3---3-----------|


  F       G         F         G
  E E E E E E E E   E  E  E E  E  E  E  E
|-----------------|-----------------------|
|---------0-----0-|-1-------1--3--------3-|
|-2-----2-----0---|-------2----------4----|
|-----3-----0-----|----3----------5-------|
|---3-------------|-----------------------|
|-----------------|-----------------------|
|
| E E E E E E E E   E  E  E E  E  E  E  E
|-5-----5-7-----7-|-8-------8-10-------10-|
|-----6-------8---|------10---------12----|
|---5-------7-----|---10---------12-------|
|-----------------|-----------------------|
|-----------------|-----------------------|
|-----------------|-----------------------|
|
| H       H         H          H
|-----------------|-----------------------|
|-----------------|-----------------------|
|-----------------|-----------------------|
|-1-------3-------|-5----------7----------|


  C                    G
   Q    Q   Q   Q       Q   Q    Q   Q
|--------------------|-------------------||
|--5--------5--------|--3--------3------o||
|--5--------5--------|--4--------4-------||
|-------5-------5----|------5--------5---||
|--------------------|------------------o||
|--------------------|-------------------||
|
|  Q    Q   Q   Q       Q   Q    Q   Q
|-12-------12--------|-10-------10-------||
|-13-------13--------|-12-------12------o||
|------12------12----|-----12-------12---||
|--------------------|-------------------||
|--------------------|------------------o||
|--------------------|-------------------||
|
|  H.          +E  E    Q   H.
|--------------------|-------------------||
|--------------------|------------------o||
|--3-----------(3)---|------------------o||
|------------------3-|--3---3------------||


 2.
  C                    G
   Q    Q   Q   Q       Q   Q    Q   Q
|--------------------|------------------||
|--5--------5--------|--3--------3------||
|--5--------5--------|--4--------4------||
|-------5-------5----|------5--------5--||
|--------------------|------------------||
|--------------------|------------------||
|
|  Q    Q   Q   Q       Q   Q    Q   Q
|-12-------12--------|-10-------10------||
|-13-------13--------|-12-------12------||
|------12------12----|-----12-------12--||
|--------------------|------------------||
|--------------------|------------------||
|--------------------|------------------||
|
|  H.          +E  E    Q   H.
|--------------------|------------------||
|--------------------|------------------||
|--3-----------(3)---|------------------||
|------------------3-|--3---3-----------||


 Outro
  F       G           Am
   E E Q   E  E  Q     E  E  H.         +W           W
|------8--------10--|-------12-------|-(12)--------|------*|
|----8-------10-----|----12----------|-------------|------*|
|-10------12--------|-14-------------|-------------|------*|
|-------------------|----------------|-------------|------*|
|-------------------|----------------|-------------|------*|
|-------------------|----------------|-------------|------*|
|
|  H       H           W                 W           W
|-------------------|----------------|-------------|------*|
|----------3--------|--5-------------|-------------|------*|
|--5-------4--------|--5-------------|-------------|------*|
|--7-------5--------|--7-------------|-------------|------*|
|--8----------------|----------------|-------------|------*|
|-------------------|----------------|-------------|------*|
|
|  H       H           W                +W           W
|-------------------|----------------|-------------|------*|
|-------------------|----------------|-------------|------*|
|-------------------|----------------|-------------|------*|
|--1-------3--------|--5-------------|--(5)--------|------*|



Duration Legend
---------------
W - whole; H - half; Q - quarter; E - 8th; S - 16th; T - 32nd; X - 64th; a - acciaccatura
+ - note tied to previous; . - note dotted; .. - note double dotted
Uncapitalized letters represent notes that are staccato (1/2 duration)
Irregular groupings are notated above the duration line
Duration letters will always appear directly above the note/fret number it represents the
duration for.  Duration letters with no fret number below them represent rests.  Multi-
bar rests are notated in the form Wxn, where n is the number of bars to rest for.  Low
melody durations appear below the staff

Tablature Legend
----------------
 h   - hammer-on
 p   - pull-off
 b   - bend
 pb  - pre-bend
 r   - bend release (if no number after the r, then release immediately)
 /\  - slide into or out of (from/to "nowhere")
 s   - legato slide
 S   - shift slide
 - natural harmonic
[n]  - artificial harmonic
n(n) - tapped harmonic
 ~   - vibrato
 tr  - trill
 T   - tap
 TP  - trem. picking
 PM  - palm muting
\n/  - tremolo bar dip; n = amount to dip
 \n  - tremolo bar down
 n/  - tremolo bar up
/n\  - tremolo bar inverted dip
 =   - hold bend; also acts as connecting device for hammers/pulls
 <> - volume swell (louder/softer)
 x   - on rhythm slash represents muted slash
 o   - on rhythm slash represents single note slash

Misc Legend
-----------
 |  - bar
||  - double bar
||o - repeat start
o|| - repeat end
*|  - double bar (ending)
 :  - bar (freetime)
 $  - Segno
 &  - Coda
Tempo markers -  = BPM(8/16=s8/s16), where s8 = swing 8ths, s16 = swing 16ths

comments
We did not receive enough feedback on this tab! Please rate:
print report bad tab
1 2 3 4 5
I want to post or [tab]
guest
You may want to rate the tab now too:
select rating
Please do not post tabs as comments. Select "correction" instead!