Oops, an error
Loading. Please wait.

The End Of This Chapter Bass Tab

ver1
ver1

Whole song

Interactive

More versions @911Tabs.com
871 views 1 this week
no commentswrite comment
1 2 3 4 5
please rate
Autoscroll
+/-
esc
set tempo
stop
Contributor
Hey! There's an official Ultimate Guitar app which is ideal
for learning songs when you're away from computer. Get the app
WARNING: You are trying to view
                                    content from Ultimate-Guitar.com
                                    in an unauthorized application,
                                    which is prohibited.

                                    Please use an official Ultimate
                                    Guitar Tabs application for iPhone,
                                    iPad or Android to access legitimate
                                    chords, guitar, bass, and drum tabs
                                    from Ultimate-Guitar.com database.

                                    Type "ultimate guitar tabs" in Apple
                                    App Store's or Android Market's
                                    search to find the application.
#----------------------------------PLEASE NOTE---------------------------------#
#This file is the author's own work and represents their interpretation of the #
#song. You may only use this file for private study, scholarship, or research. #
#------------------------------------------------------------------------------#

THE END OF THIS CHAPTER (Bassline)
As recorded by Sonata Arctica
(From the 2001 Album SILENCE)

Transcribed by Rogelio Dionicio (transylvania9@hotmail.com)
	

Words by Tony Kakko. Music by Sonata Arctica.

Gtr I (Eb Ab Db Gb Bb Eb) - 'Piano - Mikko Harkin'
Gtr II (Db Gb Bb Eb) - 'Bass - Marko Paasikoski'
Gtr III (Eb Ab Db Gb Bb Eb) - 'Keyboard - Mikko Harkin'
Gtr IV (Eb Ab Db Gb Bb Eb) - 'Keyboard (Pad) - Mikko Harkin'

 Narritive       Intro
  Moderate Metal Q=120
  N.C.            (Am)                        (Em)
 4/4
                  Gtr I
  Wx14              E   E  E  E  E  E  E  E     E   E  E  E  E  E  E  E  3x
|-------------||---12--------13----13-------|------------------------12--||
|-------------||o---------15----------13----|--12--------13----13h15----o||
|-------------||---14--14-------14----------|---------14-----------------||
|-------------||-------------------------12-|--14--14-------14-----------||
|-------------||o-(12)----------------------|---------------------------o||
|-------------||----------------------------|-(12)-----------------------||


  (F)                     (G/C)
    Q    Q    Q    E  E     E   E  E  E  E  E  E  E
|-----------------------|---------------------15------|
|--13--------13---------|--13--------13p12-------15---|
|------------12---------|--12-----12-------12---------|
|--15---15--------15----|------12---------------------|
|-----------(15)--------|-----------------------------|
|-(13)---------------13-|-(15)------------------------|


    (Dm)                        (Am)
      E   E  E  E  E  E  E  E     E   E  E  E  E  E  E  E  3x
||---17--------------20p19p17-|----------------------------||
||o--17-----17-18-------------|------------------------17-o||
||-------19----19-19----------|--16-----16-17----17h19-----||
||----------------------------|--19--19----19-19-----------||
||o-(17)----------------------|---------------------------o||
||----------------------------|-(17)-----------------------||


  (F)                     (G/C)
    Q    Q    Q    E  E     E   E  E  E  E  E  E  E
|-----------------------|---------------------15-----||
|--13--------13---------|--13--------13p12-------15--||
|------------12---------|--12-----12-------12--------||
|--15---15--------15----|------12--------------------||
|-----------(15)--------|----------------------------||
|-(13)---------------13-|-(15)-----------------------||


   1st Verse
    Am                    Em
    Gtr III
     W                    W
||---8------------------|-7--------------|
||o-10------------------|-8--------------|
||----------------------|----------------|
||---7------------------|----------------|
||o---------------------|-7--------------|
||----------------------|----------------|
|
|   Gtr I
|    E  E E E  E  E E E   Q  Q   Q   E E
||---8--------------7h8-|-7------7-------|
||o-10-----------10-----|-8------8-------|
||----------------9-----|----9-------9---|
||--------7h9h10--------|----------------|
||o-(0)-7---------------|-7-----(7)----7-|
||----------------------|----------------|


  F                  G
   W                  W
|------------------|---------------------||
|-10---------------|-12-----------------o||
|-10---------------|-12------------------||
|-10---------------|-12------------------||
|--8---------------|-10-----------------o||
|------------------|---------------------||
|
|  Q   Q   Q   E E    E E E E E E  E E
|--8-------8-------|--8-----8p7---10p7---||
|-10------10-------|------8-------------o||
|-----10------10---|----7-------9--------||
|------------------|---------------------||
|--8-------------8-|-10-----------------o||
|------------------|---------------------||


 Pre-Chorus
  Dm                          Bb
    W                          W
|--10-----------------------|--6----------------------|
|--10-----------------------|--6----------------------|
|---------------------------|-------------------------|
|---0-----------------------|-------------------------|
|---------------------------|-------------------------|
|---------------------------|--6----------------------|
|
|   E   E  E  E  E  E  E  E    E  E  E  E  E  E  E  E
|--13--------12-13-------13-|-------------------------|
|--15-----15----15----15----|-17----------15-------15-|
|------14----------14-------|-15-------15-14----14----|
|-(12)----------------------|----12h15-------15-------|
|---------------------------|-------------------------|
|---------------------------|-------------------------|
|
| Gtr II
|   E   E  E  E  E  E  E  E    E  E  E  E  E  E  E  E
|---------------------------|-------------------------|
|---------------------------|-------------------------|
|---5---5--5--5--5--5--5--5-|-------------------------|
|---------------------------|--6--6--6--6--6--6--6--6-|


  Dm                          Bb
    W                          W
|--10-----------------------|--6----------------------||
|--10-----------------------|--6----------------------||
|---------------------------|-------------------------||
|---0-----------------------|-------------------------||
|---------------------------|-------------------------||
|---------------------------|--6----------------------||
|
|   E   E  E  E  E  E  E  E    E  E  E  E  E  E  E  E
|--13--------12-13-------13-|-------------------------||
|--15-----15----15----15----|-17----------15-------15-||
|------14----------14-------|-15-------15-14----14----||
|-(12)----------------------|----12h15-------15-------||
|---------------------------|-------------------------||
|---------------------------|-------------------------||
|
|   E   E  E  E  E  E  E  E    E  E  E  E  E  E  E  E
|---------------------------|-------------------------||
|---------------------------|-------------------------||
|---5---5--5--5--5--5--5--5-|-------------------------||
|---------------------------|--6--6--6--6--6--6--6--6-||


   2nd Verse
    Am                    Em
     W                    W
||---8------------------|-7------------------|
||o-10------------------|-8------------------|
||----------------------|--------------------|
||---7------------------|--------------------|
||o---------------------|-7------------------|
||----------------------|--------------------|
|
|   Gtr IV
|    E E  E E  E E E  E   E E  E E E  E  E E
||---8------7-10---8----|-7------7------10p7-|
||o------10----------10-|-----10-----10------|
||-----9---------9------|---9------9---------|
||----------------------|--------------------|
||o---------------------|--------------------|
||----------------------|--------------------|
|
|    E E  E E  E E E  E   E E  E E E  E  E E
||----------------------|--------------------|
||o---------------------|--------------------|
||o---------------------|--------------------|
||---5-5--5-5--5-5-5--5-|-0-0--0-0-0--0--0-0-|


  F                     G
   W                     W
|---------------------|----------------------||
|-10------------------|-12------------------o||
|-10------------------|-12-------------------||
|-10------------------|-12-------------------||
|--8------------------|-10------------------o||
|---------------------|----------------------||
|
|  E E  E E  E E E  E    E E  E E E E  E E
|--8------7-10---8----|--8------8p7---10p7---||
|------10----------10-|------10-----8-------o||
|----9---------9------|----9-----------------||
|---------------------|----------------------||
|---------------------|---------------------o||
|---------------------|----------------------||
|
|  E E  E E  E E E  E    E E  E E E E  E E
|---------------------|----------------------||
|---------------------|---------------------o||
|---------------------|---------------------o||
|--1-1--1-1--1-1-1--1-|--3-3--3-3-3-3--3-3---||


 2nd Pre-Chorus
  Dm                        Bb                        Dm
   W                         W                         W
|-10----------------------|--6----------------------|-10----------------------|
|-10----------------------|--6----------------------|-10----------------------|
|-------------------------|-------------------------|-------------------------|
|--0----------------------|-------------------------|--0----------------------|
|-------------------------|-------------------------|-------------------------|
|-------------------------|--6----------------------|-------------------------|
|
|  E  E  E  E  E  E  E  E    E  E  E  E  E  E  E  E    E  E  E  E  E  E  E  E
|-13-------12-13-------13-|-------------------------|-13-------12h13-------13-|
|-------15----------15----|-17----------15-------15-|-------15----------15----|
|----14----------14-------|-15-------15-------14----|----14----------14-------|
|-------------------------|----12h15-------15-------|-------------------------|
|-------------------------|-------------------------|-------------------------|
|-------------------------|-------------------------|-------------------------|
|
|  E  E  E  E  E  E  E  E    E  E  E  E  E  E  E  E    E  E  E  E  E  E  E  E
|-------------------------|-------------------------|-------------------------|
|-------------------------|-------------------------|-------------------------|
|--5--5--5--5--5--5--5--5-|-------------------------|--5--5--5--5--5--5--5--5-|
|-------------------------|--6--6--6--6--6--6--6--6-|-------------------------|


  Bb                        F
   W                         W                  +W
|--6----------------------|------------------|--------------------||
|--6----------------------|-10---------------|-(10)---------------||
|-------------------------|-10---------------|-(10)---------------||
|-------------------------|-10---------------|-(10)---------------||
|-------------------------|--8---------------|--(8)---------------||
|--6----------------------|------------------|--------------------||
|
|  E  E  E  E  E  E  E  E    W                   W
|-------------------------|------------------|--------------------||
|-17----------15-------15-|------------------|--------------------||
|-15-------15-------14----|------------------|--------------------||
|----12h15-------15-------|-15---------------|--------------------||
|-------------------------|------------------|--------------------||
|-------------------------|------------------|--------------------||
|
|  E  E  E  E  E  E  E  E    E E E E E E E E     E  E E E E E E E
|-------------------------|------------------|--------------------||
|-------------------------|------------------|--------------------||
|-------------------------|------------------|--------------------||
|--6--6--6--6--6--6--6--6-|--1-1-1-1-1-1-1-1-|---1--1-1-1-1-1-1-1-||


 Chorus
  Dm                     Am
   W                      W
|-10-------------------|--8-------------------|
|-10-------------------|-10-------------------|
|----------------------|----------------------|
|--0-------------------|--7-------------------|
|----------------------|----------------------|
|----------------------|----------------------|
|
|  Q.      Q    E  Q      Q.      Q    E  Q
|-12------13---13------|----------------------|
|-----------------13---|-12------13---15-13---|
|----------------------|----------------------|
|----------------------|----------------------|
|----------------------|----------------------|
|----------------------|----------------------|
|
|  E  E E  E E  E  E E    E  E E  E E  E  E E
|----------------------|----------------------|
|----------------------|----------------------|
|--5--5-5--5-5--5--5-5-|----------------------|
|----------------------|--5--5-5--5-5--5--5-5-|


  F                       C
   W                       W
|-----------------------|--8--------------------|
|-10--------------------|-----------------------|
|-10--------------------|--9--------------------|
|-10--------------------|-----------------------|
|--8--------------------|-----------------------|
|-----------------------|--8--------------------|
|
|  Q.      Q    E  E  E    Q.      Q    E  E  E
|-----------------------|--------------------12-|
|---------10---10-------|--------------13h15----|
|-10--------------12p10-|-12------12------------|
|-----------------------|-----------------------|
|-----------------------|-----------------------|
|-----------------------|-----------------------|
|
|  E  E E  E E  E  E  E    E  E E  E E  E  E  E
|-----------------------|-----------------------|
|-----------------------|-----------------------|
|-----------------------|--3--3-3--3-3--3--3--3-|
|--1--1-1--1-1--1--1--1-|-----------------------|


  Dm                     Am
   W                      W
|-10-------------------|--8-------------------|
|-10-------------------|-10-------------------|
|----------------------|----------------------|
|--0-------------------|--7-------------------|
|----------------------|----------------------|
|----------------------|----------------------|
|
|  Q.      Q    E  Q      Q.      Q    E  Q
|-12------13---13------|----------------------|
|-----------------13---|-12------13---15-13---|
|----------------------|----------------------|
|----------------------|----------------------|
|----------------------|----------------------|
|----------------------|----------------------|
|
|  E  E E  E E  E  E E    E  E E  E E  E  E E
|----------------------|----------------------|
|----------------------|----------------------|
|--5--5-5--5-5--5--5-5-|----------------------|
|----------------------|--5--5-5--5-5--5--5-5-|


  F
   H          a      +H              Q  Q  H
|------------19b21==(19)r=========|=19----------||
|-10------------------------------|-10----------||
|-10------------------------------|-10----------||
|---------------------------------|-------------||
|--8------------------------------|--8----------||
|---------------------------------|-------------||
|
|  Q.      Q              E  E  E    W
|---------------------------------|-------------||
|---------10-------------10-------|-------------||
|-10------------------------12p10-|-------------||
|---------------------------------|-------------||
|---------------------------------|-------------||
|---------------------------------|-------------||
|
|  E  E E  E          E   E  E  E    W
|---------------------------------|-------------||
|---------------------------------|-------------||
|---------------------------------|-------------||
|--1--1-1--1----------1---1--1--1-|-------------||


   3rd Verse
    Cm                          Gm
      W                           W
||----3-----------------------|---3----------------------|
||o---4-----------------------|---3----------------------|
||----5-----------------------|---3----------------------|
||----------------------------|--------------------------|
||o---3-----------------------|--------------------------|
||----------------------------|---3----------------------|
|
|     E   E  E  E  E  E  E  E     E   E E  E  E  E  E  E
||---11-----11p10-13p10-11----|--10-----8----11----10----|
||o--13--13----------------13-|--11--11---11----11----11-|
||----------------------------|--------------------------|
||--(10)----------------------|--------------------------|
||o---------------------------|-(10)---------------------|
||----------------------------|--------------------------|
|
|     E   E  E  E  E  E  E  E     E   E E  E  E  E  E  E
||----------------------------|--------------------------|
||o---------------------------|--------------------------|
||o---3---3--3--3--3--3--3--3-|--------------------------|
||----------------------------|---3---3-3--3--3--3--3--3-|


  Ab                          Bb
    W                          W
|---4-----------------------|--6----------------------||
|---4-----------------------|--6---------------------o||
|---5-----------------------|--7----------------------||
|---------------------------|-------------------------||
|---------------------------|------------------------o||
|---4-----------------------|--6----------------------||
|
|   E   E  E  E  E  E  E  E    E  E  E  E  E E  E  E
|--11-----10----13-10h11p10-|-10--8-10h11-10p8-13p10--||
|--13--13----13-------------|-11---------------------o||
|---------------------------|-------------------------||
|---------------------------|-(8)---------------------||
|-(11)----------------------|------------------------o||
|---------------------------|-------------------------||
|
|   E   E  E  E  E  E  E  E    E  E  E  E  E E  E  E
|---------------------------|-------------------------||
|---------------------------|------------------------o||
|---------------------------|------------------------o||
|---4---4--4--4--4--4--4--4-|--6--6--6--6--6-6--6--6--||


 3rd Pre-Chorus
  Fm
    W
|---1-----------------------|
|---1-----------------------|
|---1-----------------------|
|---------------------------|
|---------------------------|
|---1-----------------------|
|
|   E   E  E  E  E  E  E  E
|--16--------15h16-------16-|
|--18-----18----------18----|
|------17----------17-------|
|-(15)----------------------|
|---------------------------|
|---------------------------|
|
|   E   E  E  E  E  E  E  E
|---------------------------|
|---------------------------|
|---------------------------|
|---1---1--1--1--1--1--1--1-|


  Db                          Fm
    W                           W
|---4-----------------------|---1-----------------------|
|---6-----------------------|---1-----------------------|
|---6-----------------------|---1-----------------------|
|---6-----------------------|---------------------------|
|---4-----------------------|---------------------------|
|---------------------------|---1-----------------------|
|
|   E   E  E  E  E  E  E  E     E   E  E  E  E  E  E  E
|--15-----------------------|--16--------15h16-------16-|
|---------------18-------18-|--18-----18----------18----|
|--18--------18-------17----|------17----------17-------|
|------15h18-------18-------|-(15)----------------------|
|-(16)----------------------|---------------------------|
|---------------------------|---------------------------|
|
|   E   E  E  E  E  E  E  E     E   E  E  E  E  E  E  E
|---------------------------|---------------------------|
|---------------------------|---------------------------|
|---4---4--4--4--4--4--4--4-|---------------------------|
|---------------------------|---1---1--1--1--1--1--1--1-|


  Db                          Ab
    W                          W                  +W
|---4-----------------------|--4---------------|--(4)---------------||
|---6-----------------------|--4---------------|--(4)---------------||
|---6-----------------------|--5---------------|--(5)---------------||
|---6-----------------------|------------------|--------------------||
|---4-----------------------|------------------|--------------------||
|---------------------------|--4---------------|--(4)---------------||
|
|   E   E  E  E  E  E  E  E    W                  +W
|--15-----------------------|-15---------------|-(15)---------------||
|---------------18-------18-|------------------|--------------------||
|--18--------18-------17----|------------------|--------------------||
|------15h18-------18-------|------------------|--------------------||
|-(16)----------------------|------------------|--------------------||
|---------------------------|------------------|--------------------||
|
|   E   E  E  E  E  E  E  E    E E E E E E E E     E  E E E E E E E
|---------------------------|------------------|--------------------||
|---------------------------|------------------|--------------------||
|---4---4--4--4--4--4--4--4-|------------------|--------------------||
|---------------------------|--4-4-4-4-4-4-4-4-|---4--4-4-4-4-4-4-4-||


 2nd Chorus
  Fm                     Cm
   W                      W
|--1-------------------|--3-------------------|
|--1-------------------|--4-------------------|
|--1-------------------|--5-------------------|
|----------------------|----------------------|
|----------------------|--3-------------------|
|--1-------------------|----------------------|
|
|  Q.      Q    E  Q      Q.      Q    E  Q
|-15------16---16------|----------------------|
|-----------------16---|-15------16---18p16---|
|----------------------|----------------------|
|----------------------|----------------------|
|----------------------|----------------------|
|----------------------|----------------------|
|
|  E  E E  E E  E  E E    E  E E  E E  E  E E
|----------------------|----------------------|
|----------------------|----------------------|
|----------------------|--3--3-3--3-3--3--3-3-|
|--1--1-1--1-1--1--1-1-|----------------------|


  Ab                      Eb
   W                       W
|--4--------------------|--6---------------------|
|--4--------------------|--8---------------------|
|--5--------------------|--8---------------------|
|-----------------------|------------------------|
|-----------------------|--6---------------------|
|--4--------------------|------------------------|
|
|  Q.      Q    E  E  E    Q.      Q    E  E  E
|-----------------------|--------------------15--|
|---------13---13-------|--------------16h18-----|
|-13--------------15p13-|-15------15-------------|
|-----------------------|------------------------|
|-----------------------|------------------------|
|-----------------------|------------------------|
|
|  E  E E  E E  E  E  E    E  E E  E E  E  E  E
|-----------------------|------------------------|
|-----------------------|------------------------|
|-----------------------|--6--6-6--6-6--6--6--6--|
|--4--4-4--4-4--4--4--4-|------------------------|


  Fm                     Cm
   W                      W
|--1-------------------|--3-------------------|
|--1-------------------|--4-------------------|
|--1-------------------|--5-------------------|
|----------------------|----------------------|
|----------------------|--3-------------------|
|--1-------------------|----------------------|
|
|  Q.      Q    E  Q      Q.      Q    E  Q
|-15------16---16------|----------------------|
|-----------------16---|-15------16---18p16---|
|----------------------|----------------------|
|----------------------|----------------------|
|----------------------|----------------------|
|----------------------|----------------------|
|
|  E  E E  E E  E  E E    E  E E  E E  E  E E
|----------------------|----------------------|
|----------------------|----------------------|
|----------------------|--3--3-3--3-3--3--3-3-|
|--1--1-1--1-1--1--1-1-|----------------------|


  Ab                 Eb
   W                  W
|--4---------------|--6---------------------|
|--4---------------|--6---------------------|
|--5---------------|--7---------------------|
|------------------|------------------------|
|------------------|------------------------|
|--4---------------|--6---------------------|
|
|  W                  Q.      Q    E  E  E
|------------------|--------------------15--|
|------------------|--------------16h18-----|
|-13---------------|-15------15-------------|
|------------------|------------------------|
|------------------|------------------------|
|------------------|------------------------|
|
|  E E E E E E E E    E  E E  E E  E  E  E
|------------------|------------------------|
|------------------|------------------------|
|------------------|------------------------|
|--4-4-4-4-4-4-4-4-|--6--6-6--6-6--6--6--6--|


  Fm                     Cm
   W                      W
|--1-------------------|--3-------------------|
|--1-------------------|--4-------------------|
|--1-------------------|--5-------------------|
|----------------------|----------------------|
|----------------------|--3-------------------|
|--1-------------------|----------------------|
|
|  Q.      Q.      Q      Q.      Q.      Q
|-18------20------20---|-18------20------20---|
|----------------------|----------------------|
|----------------------|----------------------|
|----------------------|----------------------|
|----------------------|----------------------|
|----------------------|----------------------|
|
|  E  E E  E  E E  E E    E  E E  E  E E  E E
|----------------------|----------------------|
|----------------------|----------------------|
|----------------------|--3--3-3--3--3-3--3-3-|
|--1--1-1--1--1-1--1-1-|----------------------|


  Ab                     Eb
   W                      W
|--4-------------------|--6----------------|
|--4-------------------|--8----------------|
|--5-------------------|--8----------------|
|----------------------|-------------------|
|----------------------|--6----------------|
|--4-------------------|-------------------|
|
|  Q.      Q.      Q      W
|-18------20------18---|-------------------|
|----------------------|-20----------------|
|----------------------|-------------------|
|----------------------|-------------------|
|----------------------|-------------------|
|----------------------|-------------------|
|
|  E  E E  E  E E  E E    E E E E E E E E
|----------------------|-------------------|
|----------------------|-------------------|
|----------------------|--6-6-6-6-6-6-6-6--|
|--4--4-4--4--4-4--4-4-|-------------------|


  Fm                     Cm
                        5/4
   W                      W                     Q
|--1-------------------|--3------------------------||
|--1-------------------|--4------------------------||
|--1-------------------|--5------------------------||
|----------------------|---------------------------||
|----------------------|--3------------------------||
|--1-------------------|---------------------------||
|
|  Q.      Q    E  Q      Q.      Q.      +Q    Q
|-15------16---16------|---------------------------||
|-----------------16---|-15------16------(16)------||
|----------------------|---------------------------||
|----------------------|---------------------------||
|----------------------|---------------------------||
|----------------------|---------------------------||
|
|  E  E E  E E  E  E E    E  E E  E  E E   E  E Q
|----------------------|---------------------------||
|----------------------|---------------------------||
|----------------------|--3--3-3--3--3-3---3--3----||
|--1--1-1--1-1--1--1-1-|---------------------------||


 Bridge
  Bb              C                    Dm                C
 3/4             4/4
  Gtr III
  H        Q      H.            Q      W                 Q.      Q.      Q
|----------1----|---------------3----|-----------------|-----------------------|
|-3-------------|-5------------------|-6---------------|-3-------5-------3-----|
|-3-------(3)---|-5------------(5)---|-7---------------|-5------(5)-----(5)----|
|---------------|--------------------|-----------------|-----------------------|
|-1-------(1)---|-3------------(3)---|-5---------------|-3------(3)-----(3)----|
|---------------|--------------------|-----------------|-----------------------|
|
| Gtr II
| E E E E  E  E   E  E E E E E  E  E   E E E E E E E E   E  E E  E  E E  E  E
|---------------|--------------------|-----------------|-----------------------|
|---------------|--------------------|-----------------|-----------------------|
|-1-1-1-1--1--1-|-3--3-3-3-3-3--3--3-|-5-5-5-5-5-5-5-5-|-3--3-3--3--3-3--3--3--|
|---------------|--------------------|-----------------|-----------------------|


  Bb                   C                    Fm                 Fm
                      5/4                  4/4                3/4
                                                                 >
  H.            Q      W               Q     W                  +H.
|---------------1----|--------------------|--8---------------|--(8)-----------|
|-3------------------|-5------------------|--9---------------|--(9)-----------|
|-3------------(3)---|-5------------------|-10---------------|-(10)-----------|
|--------------------|--------------------|------------------|----------------|
|-1------------(1)---|-3------------------|--8---------------|--(8)-----------|
|--------------------|--------------------|------------------|----------------|
|
| E  E E E E E  E  E   E E E E E E E E Q     E E E E E E E E     E  E E E E E
|--------------------|--------------------|------------------|----------------|
|--------------------|--------------------|------------------|----------------|
|-1--1-1-1-1-1--1--1-|-3-3-3-3-3-3-3-3----|------------------|----------------|
|--------------------|--------------------|--1-1-1-1-1-1-1-0-|---1--0-1-0-1-0-|


  Bb                   C                    Dm                Am
 4/4
  H.            Q      H.            Q      W                 W
|---------------1----|---------------3----|-----------------|-----------------|
|-3------------------|-5------------------|-6---------------|-5---------------|
|-3------------(3)---|-5------------(5)---|-7---------------|-5---------------|
|--------------------|--------------------|-----------------|-7---------------|
|-1------------(1)---|-3------------(3)---|-5---------------|-----------------|
|--------------------|--------------------|-----------------|-5---------------|
|
| E  E E E E E  E  E   E  E E E E E  E  E   E E E E E E E E   E E E E E E E E
|--------------------|--------------------|-----------------|-----------------|
|--------------------|--------------------|-----------------|-----------------|
|-1--1-1-1-1-1--1--1-|-3--3-3-3-3-3--3--3-|-5-5-5-5-5-5-5-5-|-----------------|
|--------------------|--------------------|-----------------|-5-5-5-5-5-5-5-5-|


  Bb                   C
  H.            Q      H.            Q
|---------------1----|---------------3----||
|-3------------------|-5------------------||
|-3------------(3)---|-5------------(5)---||
|--------------------|--------------------||
|-1------------(1)---|-3------------(3)---||
|--------------------|--------------------||
|
| E  E E E E E  E  E   E  E E E E E  E  E
|--------------------|--------------------||
|--------------------|--------------------||
|-1--1-1-1-1-1--1--1-|-3--3-3-3-3-3--3--3-||
|--------------------|--------------------||


 Interlude
  F5                     C5
  Gtr III
   W                      W
|--1-------------------|--3-------------------|
|--1-------------------|--4-------------------|
|--1-------------------|--5-------------------|
|----------------------|----------------------|
|----------------------|--3-------------------|
|--1-------------------|----------------------|
|
| Gtr IV
|  Q.      Q.      Q      Q.      Q.      Q
|-15------16-----------|-----------------13---|
|-----------------16---|-15------16-----------|
|----------------------|----------------------|
|----------------------|----------------------|
|----------------------|----------------------|
|----------------------|----------------------|
|
| Gtr II
|  E  E E  E  E E  E E    E  E E  E  E E  E E
|----------------------|----------------------|
|----------------------|----------------------|
|----------------------|--3--3-3--3--3-3--3-3-|
|--1--1-1--1--1-1--1-1-|----------------------|


  Ab5                    Eb5
   W                      W
|--4-------------------|--6---------------------|
|--4-------------------|--8---------------------|
|--5-------------------|--8---------------------|
|----------------------|------------------------|
|----------------------|--6---------------------|
|--4-------------------|------------------------|
|
|  H        +Q.      E    H        +E   Q    E
|----------------------|---------------13---15--|
|-16-------(16)-----15-|-16-------(16)----------|
|----------------------|------------------------|
|----------------------|------------------------|
|----------------------|------------------------|
|----------------------|------------------------|
|
|  E E E E   E  E E  E    E E E E   E   E E  E
|----------------------|------------------------|
|----------------------|------------------------|
|----------------------|--6-6-6-6---6---6-6--6--|
|--4-4-4-4---4--4-4--4-|------------------------|


  F5                     C5                     Ab5         Ab
                                                              >
   W                      W                      W           +W
|--1-------------------|--3-------------------|--4--------|--(4)----|
|--1-------------------|--4-------------------|--4--------|--(4)----|
|--1-------------------|--5-------------------|--5--------|--(5)----|
|----------------------|----------------------|-----------|---------|
|----------------------|--3-------------------|-----------|---------|
|--1-------------------|----------------------|--4--------|--(4)----|
|
|  Q.      Q.      Q      Q.      Q.      Q      W           +W
|-15------16-----------|----------------------|-----------|---------|
|-----------------16---|-15------16------18---|-16--------|-(16)----|
|----------------------|----------------------|-----------|---------|
|----------------------|----------------------|-----------|---------|
|----------------------|----------------------|-----------|---------|
|----------------------|----------------------|-----------|---------|
|
|  E  E E  E  E E  E E    E  E E  E  E E  E E    W            W
|----------------------|----------------------|-----------|---------|
|----------------------|----------------------|-----------|---------|
|----------------------|--3--3-3--3--3-3--3-3-|-----------|---------|
|--1--1-1--1--1-1--1-1-|----------------------|--4--------|---------|


  A                 E                   F                 G
                                                         2/4
  W                 +H        H         W                 +Q   Q
|-5---------------|-(5)-------3-------|-5---------------|-(5)--7---||
|-----------------|-------------------|-----------------|----------||
|-----------------|-------------------|-----------------|----------||
|-----------------|-------------------|-----------------|----------||
|-----------------|-------------------|-----------------|----------||
|-5---------------|-------------------|-----------------|----------||
|
| Gtr II
| E E E E E E E E    E  E E E E E E E   E E E E E E E E    Q   Q
|-----------------|-------------------|-----------------|----------||
|-----------------|-------------------|-----------------|----------||
|-0-0-0-0-0-0-0-0-|-------------------|-----------------|----------||
|-----------------|--0--0-0-0-0-0-0-0-|-1-1-1-1-1-1-1-1-|--3\------||


   Guitar Solo
    Cm                          Gm
   4/4
    Gtr III
      W                           W
||----3-----------------------|---3----------------------|
||o---4-----------------------|---3----------------------|
||----5-----------------------|---3----------------------|
||----------------------------|--------------------------|
||o---3-----------------------|--------------------------|
||----------------------------|---3----------------------|
|
|   Gtr IV
|     E   E  E  E  E  E  E  E     E   E E  E  E  E  E  E
||---11-----11p10-13p10-11----|--10-----8----11----10----|
||o--13--13----------------13-|--11--11---11----11----11-|
||----------------------------|--------------------------|
||--(10)----------------------|--------------------------|
||o---------------------------|-(10)---------------------|
||----------------------------|--------------------------|
|
|   Gtr II
|     E   E  E  E  E  E  E  E     E   E E  E  E  E  E  E
||----------------------------|--------------------------|
||o---------------------------|--------------------------|
||o---3---3--3--3--3--3--3--3-|--------------------------|
||----------------------------|---3---3-3--3--3--3--3--3-|


  Ab                          Bb
    W                          W
|---4-----------------------|--6-----------------------||
|---4-----------------------|--6----------------------o||
|---5-----------------------|--7-----------------------||
|---------------------------|--------------------------||
|---------------------------|-------------------------o||
|---4-----------------------|--6-----------------------||
|
|   E   E  E  E  E  E  E  E    E  E  E  E  E E  E  E
|--11-----10----13-10h11p10-|-10--8-10h11-10p8-13p10---||
|--13--13----13-------------|-11----------------------o||
|---------------------------|--------------------------||
|---------------------------|-(8)----------------------||
|-(11)----------------------|-------------------------o||
|---------------------------|--------------------------||
|
|   E   E  E  E  E  E  E  E    E  E  E  E  E E  E  E
|---------------------------|--------------------------||
|---------------------------|-------------------------o||
|---------------------------|-------------------------o||
|---4---4--4--4--4--4--4--4-|--6--6--6--6--6-6--6--6---||


   Bridge 2
    (Fm)        (Cm)      (Db)        (Eb)
     q    q      q   q     q    q      q      q
||--15---16-------------|------13-----13-----15-------|
||o-16---18-----15--16--|-14---14-----16-----14-------|
||--------------17--17--|-15--------------------------|
||----------------------|-----------------------------|
||o---------------------|-----------------------------|
||----------------------|-----------------------------|
|
|   Gtr II
|    E q    S S  Q   Q     E Q    S S  E S S  S S S S
||----------------------|-----------------------------|
||o--------------5------|-----------------------------|
||o---------3-3---------|--4-4----6-6--6----------1-3-|
||---1-1----------------|------------------1--3-4-----|


  (Fm)        (Cm)      (Db)        (Eb)
   q    q      q   q     q    q      q   q
|-15---16-------------|------13-----13--15---||
|-16---18-----15--16--|-14---14-----16--14--o||
|-------------17--17--|-15-------------------||
|---------------------|----------------------||
|---------------------|---------------------o||
|---------------------|----------------------||
|
|  E E  E S S  Q   Q     E Q    S S  q   Q
|---------------------|----------------------||
|--------------5------|---------------------o||
|---------3-3---------|--4-4----6-6--6------o||
|--1-1--1-------------|----------------------||


          4th Verse
  (Fm)     (Gm)              (Dm)
 2/4      4/4
  H         Q.    Q.    Q     Q.    E  +H
|------||------------------|------------------|
|------||o-----------------|------------------|
|------||--14----15--------|------------------|
|------||--------------15--|-14----15-(15)----|
|------||o-----------------|------------------|
|------||------------------|------------------|
|
| Gtr IV
| W         W                 W
|------||------------------|------------------|
|------||o--3--------------|------------------|
|------||------------------|--2---------------|
|------||------------------|------------------|
|------||o-----------------|------------------|
|------||------------------|------------------|


  (Bb)              (F)
   Q.    Q.    Q     Q.    E  +H
|-----------------|-------------------||
|-----------------|------------------o||
|-----------------|-------------------||
|-15----17----15--|-17----19-(19)-----||
|-----------------|------------------o||
|-----------------|-------------------||
|
|  W                 W
|-----------------|-------------------||
|-----------------|--1---------------o||
|--3--------------|-------------------||
|-----------------|-------------------||
|-----------------|------------------o||
|-----------------|-------------------||


    (Gm)                 (Dm)
     Q.      Q.     Q     Q.    E  +H
||---------------------|------------------|
||o--------------------|------------------|
||--14------15---------|------------------|
||-----------------15--|-14----15-(15)----|
||o--------------------|------------------|
||---------------------|------------------|
|
|    W                    W
||---------------------|------------------|
||o--3-----------------|------------------|
||---------------------|--2---------------|
||---------------------|------------------|
||o--------------------|------------------|
||---------------------|------------------|
|
|   Gtr II
|    E  E Q     H         W
||---------------------|------------------|
||o--------------------|------------------|
||o--------------------|--5---------------|
||---3--3-3------------|------------------|


  (Bb)                 (F)
   Q.      Q.     Q     Q.    E  +H
|--------------------|-------------------||
|--------------------|------------------o||
|--------------------|-------------------||
|-15------17-----15--|-17----19-(19)-----||
|--------------------|------------------o||
|--------------------|-------------------||
|
|  W                    W
|--------------------|-------------------||
|--------------------|--1---------------o||
|--3-----------------|-------------------||
|--------------------|-------------------||
|--------------------|------------------o||
|--------------------|-------------------||
|
|  E  E Q     H         W
|--------------------|-------------------||
|--------------------|------------------o||
|--------------------|------------------o||
|--6--6-6------------|--1----------------||


 3rd Chorus
  Cm                     Gm
   W                      W
|--3-------------------|--3-------------------|
|--4-------------------|--3-------------------|
|--5-------------------|--3-------------------|
|----------------------|----------------------|
|--3-------------------|----------------------|
|----------------------|--3-------------------|
|
|  Q.      Q.      Q      Q.      Q.      Q
|-10------11-----------|----------------------|
|-----------------11---|-10------11------13---|
|----------------------|----------------------|
|----------------------|----------------------|
|----------------------|----------------------|
|----------------------|----------------------|
|
| Gtr II
|  E  E E  E  E E  E E    E  E E  E  E E  E E
|----------------------|----------------------|
|----------------------|----------------------|
|--3--3-3--3--3-3--3-3-|----------------------|
|----------------------|--3--3-3--3--3-3--3-3-|


  Eb                   Bb
   W                    W
|--6-----------------|--6-------------------|
|--8-----------------|--6-------------------|
|--8-----------------|--7-------------------|
|--------------------|----------------------|
|--6-----------------|----------------------|
|--------------------|--6-------------------|
|
|  H.            Q      H.            E  E
|--------------------|-10---------------10--|
|-11------------13---|---------------13-----|
|--------------------|----------------------|
|--------------------|----------------------|
|--------------------|----------------------|
|--------------------|----------------------|
|
|  E  E E E E E  E E    E  E E E E E  E  E
|--------------------|----------------------|
|--------------------|----------------------|
|--6--6-6-6-6-6--6-6-|----------------------|
|--------------------|--6--6-6-6-6-6--6--6--|


  Cm                     Gm
   W                      W
|--3-------------------|--3-------------------|
|--4-------------------|--3-------------------|
|--5-------------------|--3-------------------|
|----------------------|----------------------|
|--3-------------------|----------------------|
|----------------------|--3-------------------|
|
|  Q.      Q.      Q      Q.      Q.      Q
|-10------11-----------|----------------------|
|-----------------11---|-10------11------13---|
|----------------------|----------------------|
|----------------------|----------------------|
|----------------------|----------------------|
|----------------------|----------------------|
|
| Gtr II
|  E  E E  E  E E  E E    E  E E  E  E E  E E
|----------------------|----------------------|
|----------------------|----------------------|
|--3--3-3--3--3-3--3-3-|----------------------|
|----------------------|--3--3-3--3--3-3--3-3-|


  Eb                   Eb
   W                   +W
|--6-----------------|-(6)----------------|
|--8-----------------|-(8)----------------|
|--8-----------------|-(8)----------------|
|--------------------|--------------------|
|--6-----------------|-(6)----------------|
|--------------------|--------------------|
|
|  H.            Q      W
|--------------------|--------------------|
|-11------------13---|-11-----------------|
|--------------------|--------------------|
|--------------------|--------------------|
|--------------------|--------------------|
|--------------------|--------------------|
|
|  E  E E E E E  E E    E  E E E E E E E
|--------------------|--------------------|
|--------------------|--------------------|
|--6--6-6-6-6-6--6-6-|--6--6-6-6-6-6-6-6--|
|--------------------|--------------------|


    Dm                     Am
     W                      W
||--10-------------------|--8-------------------|
||o-10-------------------|-10-------------------|
||-----------------------|----------------------|
||---0-------------------|--7-------------------|
||o----------------------|----------------------|
||-----------------------|----------------------|
|
|    Q.      Q    E  Q      Q.      Q    E  Q
||--12------13---13------|----------------------|
||o-----------------13---|-12------13---15-13---|
||-----------------------|----------------------|
||-----------------------|----------------------|
||o----------------------|----------------------|
||-----------------------|----------------------|
|
|    E  E E  E E  E  E E    E  E E  E E  E  E E
||-----------------------|----------------------|
||o----------------------|----------------------|
||o--5--5-5--5-5--5--5-5-|----------------------|
||-----------------------|--5--5-5--5-5--5--5-5-|


  F                       C
   W                       W
|-----------------------|--8---------------------|
|-10--------------------|------------------------|
|-10--------------------|--9---------------------|
|-10--------------------|------------------------|
|--8--------------------|------------------------|
|-----------------------|--8---------------------|
|
|  Q.      Q    E  E  E    Q.      Q    E  E  E
|-----------------------|--------------------12--|
|---------10---10-------|--------------13h15-----|
|-10--------------12p10-|-12------12-------------|
|-----------------------|------------------------|
|-----------------------|------------------------|
|-----------------------|------------------------|
|
|  E  E E  E E  E  E  E    E  E E  E E  E  E  E
|-----------------------|------------------------|
|-----------------------|------------------------|
|-----------------------|--3--3-3--3-3--3--3--3--|
|--1--1-1--1-1--1--1--1-|------------------------|


  Dm                     Am
   W                      W
|-10-------------------|--8-------------------|
|-10-------------------|-10-------------------|
|----------------------|----------------------|
|--0-------------------|--7-------------------|
|----------------------|----------------------|
|----------------------|----------------------|
|
|  Q.      Q    E  Q      Q.      Q    E  Q
|-12------13---13------|----------------------|
|-----------------13---|-12------13---15-13---|
|----------------------|----------------------|
|----------------------|----------------------|
|----------------------|----------------------|
|----------------------|----------------------|
|
|  E  E E  E E  E  E E    E  E E  E E  E  E E
|----------------------|----------------------|
|----------------------|----------------------|
|--5--5-5--5-5--5--5-5-|----------------------|
|----------------------|--5--5-5--5-5--5--5-5-|


  F                       G
   W                       W
|-----------------------|--3----------------||
|-10--------------------|--3---------------o||
|-10--------------------|--4----------------||
|-----------------------|-------------------||
|--8--------------------|------------------o||
|-----------------------|--3----------------||
|
|  Q.      Q    E  E  E    W
|-----------------------|-------------------||
|---------10---10-------|------------------o||
|-10--------------12p10-|-12----------------||
|-----------------------|-------------------||
|-----------------------|------------------o||
|-----------------------|-------------------||
|
|  E  E E  E E  E  E  E    E E E E E E E E
|-----------------------|-------------------||
|-----------------------|------------------o||
|-----------------------|------------------o||
|--1--1-1--1-1--1--1--1-|--3-3-3-3-3-3-3-3--||


 Out-Chorus
  Dm                              Am
 7/8                             4/4
   E  E  q        E     Q          W
|-10-10-10----------------------|--8-----------------|
|-10-10-10----------------------|-10-----------------|
|-10-10-10----------------------|--------------------|
|--0--0--0----------------------|--7-----------------|
|-------------------------------|--------------------|
|-------------------------------|--------------------|
|
| Gtr I
|  Q     E  S  S  S  S  S  S  E    E  E  E E E E E E
|-------------10-12h13p12-10----|-(7)------8---8-----|
|----------10----------------10-|-------10-------8---|
|-------------------------------|--9--9------9-------|
|-------------------------------|--------------------|
|-------------------------------|--7---------------7-|
|-------------------------------|--------------------|
|
|  E  E  Q        E     Q          E  E  E E E E E E
|-------------------------------|--------------------|
|-------------------------------|--------------------|
|--5--5--5----------------------|--------------------|
|-------------------------------|--5--5--5-5-5-5-5-5-|


  F                          C
   W                          W
|--------------------------|--8-------------------|
|-10-----------------------|----------------------|
|-10-----------------------|--9-------------------|
|-10-----------------------|----------------------|
|--8-----------------------|----------------------|
|--------------------------|--8-------------------|
|
|  E   E  E  E  E  E  E  E    E   E E E E E E  E
|--------------------------|------------8---------|
|-10--------10----10-------|--8-------8---8-------|
|-10-----10----------12p10-|--9-----9-------9-----|
|-----10-------10----------|-----10-----------10--|
|-(8)----------------------|----------------------|
|--------------------------|-(8)------------------|
|
|  E   E  E  E  E  E  E  E    E   E E E E E E  E
|--------------------------|----------------------|
|--------------------------|----------------------|
|--------------------------|--3---3-3-3-3-3-3--3--|
|--1---1--1--1--1--1--1--1-|----------------------|


  Dm                          Am
    W                           W
|--10-----------------------|---8-----------------------|
|--10-----------------------|--10-----------------------|
|--10-----------------------|---------------------------|
|---0-----------------------|---7-----------------------|
|---------------------------|---------------------------|
|---------------------------|---------------------------|
|
|   E   E  E  E  E  E  E  E     E   E  E  E  E  E  E  E
|--12--------13----13-------|---------------------------|
|---------15----------13----|--12--------13----13h15----|
|--14--14-------14----------|---------14----------------|
|------------------------12-|--14--14-------14----------|
|-(12)----------------------|-(12)-------------------12-|
|---------------------------|---------------------------|
|
|   E   E  E  E  E  E  E  E     E   E  E  E  E  E  E  E
|---------------------------|---------------------------|
|---------------------------|---------------------------|
|---5---5--5--5--5--5--5--5-|---------------------------|
|---------------------------|---5---5--5--5--5--5--5--5-|


  F                           G
    W                           W
|---------------------------|---3--------------------------|
|--10-----------------------|---3--------------------------|
|--10-----------------------|---4--------------------------|
|--10-----------------------|------------------------------|
|---8-----------------------|------------------------------|
|---------------------------|---3--------------------------|
|
|   E   E  E  E  E  E  E  E     E   E  E  E  E  S  S  E  E
|---------------------------|------------------------------|
|---------------13----------|--13--------13p12-13p12-10----|
|--14-----12h14----14p12----|--12-----12----------------12-|
|--15--15----------------15-|------12----------------------|
|---------------------------|-(10)-------------------------|
|-(13)----------------------|------------------------------|
|
|   E   E  E  E  E  E  E  E     E   E  E  E  E  E     E  E
|---------------------------|------------------------------|
|---------------------------|------------------------------|
|---------------------------|------------------------------|
|---1---1--1--1--1--1--1--1-|---3---3--3--3--3--3-----3--3-|


  Dm                          Am
    W                           W
|--10-----------------------|---8-----------------------|
|--10-----------------------|--10-----------------------|
|--10-----------------------|---------------------------|
|---0-----------------------|---7-----------------------|
|---------------------------|---------------------------|
|---------------------------|---------------------------|
|
|   E   E  E  E  E  E  E  E     E   E  E  E  E  E  E  E
|--12--------13----13-------|---------------------------|
|---------15----------13----|--12--------13----13h15----|
|--14--14-------14----------|---------14----------------|
|------------------------12-|--14--14-------14----------|
|-(12)----------------------|-(12)-------------------12-|
|---------------------------|---------------------------|
|
|   E   E  E  E  E  E  E  E     E   E  E  E  E  E  E  E
|---------------------------|---------------------------|
|---------------------------|---------------------------|
|---5---5--5--5--5--5--5--5-|---------------------------|
|---------------------------|---5---5--5--5--5--5--5--5-|


  F                          C
   W                          W
|--------------------------|--8------------------|
|-10-----------------------|---------------------|
|-10-----------------------|--9------------------|
|-10-----------------------|---------------------|
|--8-----------------------|---------------------|
|--------------------------|--8------------------|
|
|  E   E  E  E  E  E  E  E    E   E E E E E E  E
|--------------------------|------------8--------|
|-10--------10----10-------|--8-------8---8------|
|-10-----10----------12p10-|--9-----9-------9----|
|-----10-------10----------|-----10-----------10-|
|-(8)----------------------|---------------------|
|--------------------------|-(8)-----------------|
|
|  E   E  E  E  E  E  E  E    E   E E E E E E  E
|--------------------------|---------------------|
|--------------------------|---------------------|
|--------------------------|--3---3-3-3-3-3-3--3-|
|--1---1--1--1--1--1--1--1-|---------------------|


  Dm                          Am
    W                           W
|--10-----------------------|---8-----------------------|
|--10-----------------------|--10-----------------------|
|--10-----------------------|---------------------------|
|---0-----------------------|---7-----------------------|
|---------------------------|---------------------------|
|---------------------------|---------------------------|
|
|   E   E  E  E  E  E  E  E     E   E  E  E  E  E  E  E
|--12--------13----13-------|---------------------------|
|---------15----------13----|--12--------13----13h15----|
|--14--14-------14----------|---------14----------------|
|------------------------12-|--14--14-------14----------|
|-(12)----------------------|-(12)-------------------12-|
|---------------------------|---------------------------|
|
|   E   E  E  E  E  E  E  E     E   E  E  E  E  E  E  E
|---------------------------|---------------------------|
|---------------------------|---------------------------|
|---5---5--5--5--5--5--5--5-|---------------------------|
|---------------------------|---5---5--5--5--5--5--5--5-|


  F                           G
    W                           W
|---------------------------|---3--------------------------|
|--10-----------------------|---3--------------------------|
|--10-----------------------|---4--------------------------|
|--10-----------------------|------------------------------|
|---8-----------------------|------------------------------|
|---------------------------|---3--------------------------|
|
|   E   E  E  E  E  E  E  E     E   E  E  E  E  S  S  E  E
|---------------------------|------------------------------|
|---------------13----------|--13--------13p12-13p12-10----|
|--14-----12h14----14p12----|--12-----12----------------12-|
|--15--15----------------15-|------12----------------------|
|---------------------------|-(10)-------------------------|
|-(13)----------------------|------------------------------|
|
|   E   E  E  E  E  E  E  E     E   E  E  E  E  E     E  E
|---------------------------|------------------------------|
|---------------------------|------------------------------|
|---------------------------|------------------------------|
|---1---1--1--1--1--1--1--1-|---3---3--3--3--3--3-----3--3-|


  Dm                          Am
    W                           W
|--10-----------------------|---8-----------------------|
|--10-----------------------|--10-----------------------|
|--10-----------------------|---------------------------|
|---0-----------------------|---7-----------------------|
|---------------------------|---------------------------|
|---------------------------|---------------------------|
|
|   E   E  E  E  E  E  E  E     E   E  E  E  E  E  E  E
|--12--------13----13-------|---------------------------|
|---------15----------13----|--12--------13----13h15----|
|--14--14-------14----------|---------14----------------|
|------------------------12-|--14--14-------14----------|
|-(12)----------------------|-(12)-------------------12-|
|---------------------------|---------------------------|
|
|   E   E  E  E  E  E  E  E     E   E  E  E  E  E  E  E
|---------------------------|---------------------------|
|---------------------------|---------------------------|
|---5---5--5--5--5--5--5--5-|---------------------------|
|---------------------------|---5---5--5--5--5--5--5--5-|


  F                          C
   W                          W
|--------------------------|--8------------------|
|-10-----------------------|---------------------|
|-10-----------------------|--9------------------|
|-10-----------------------|---------------------|
|--8-----------------------|---------------------|
|--------------------------|--8------------------|
|
|  E   E  E  E  E  E  E  E    E   E E E E E E  E
|--------------------------|------------8--------|
|-10--------10----10-------|--8-------8---8------|
|-10-----10----------12p10-|--9-----9-------9----|
|-----10-------10----------|-----10-----------10-|
|-(8)----------------------|---------------------|
|--------------------------|-(8)-----------------|
|
|  E   E  E  E  E  E  E  E    E   E E E E E E  E
|--------------------------|---------------------|
|--------------------------|---------------------|
|--------------------------|--3---3-3-3-3-3-3--3-|
|--1---1--1--1--1--1--1--1-|---------------------|


  Dm                          Am
    W                           W
|--10-----------------------|---8-----------------------|
|--10-----------------------|--10-----------------------|
|--10-----------------------|---------------------------|
|---0-----------------------|---7-----------------------|
|---------------------------|---------------------------|
|---------------------------|---------------------------|
|
|   E   E  E  E  E  E  E  E     E   E  E  E  E  E  E  E
|--12--------13----13-------|---------------------------|
|---------15----------13----|--12--------13----13h15----|
|--14--14-------14----------|---------14----------------|
|------------------------12-|--14--14-------14----------|
|-(12)----------------------|-(12)-------------------12-|
|---------------------------|---------------------------|
|
|   E   E  E  E  E  E  E  E     E   E  E  E  E  E  E  E
|---------------------------|---------------------------|
|---------------------------|---------------------------|
|---5---5--5--5--5--5--5--5-|---------------------------|
|---------------------------|---5---5--5--5--5--5--5--5-|


  F                           G
    W                           W
|---------------------------|---3--------------------------|
|--10-----------------------|---3--------------------------|
|--10-----------------------|---4--------------------------|
|--10-----------------------|------------------------------|
|---8-----------------------|------------------------------|
|---------------------------|---3--------------------------|
|
|   E   E  E  E  E  E  E  E     E   E  E  E  E  S  S  E  E
|---------------------------|------------------------------|
|---------------13----------|--13--------13p12-13p12-10----|
|--14-----12h14----14p12----|--12-----12----------------12-|
|--15--15----------------15-|------12----------------------|
|---------------------------|-(10)-------------------------|
|-(13)----------------------|------------------------------|
|
|   E   E  E  E  E  E  E  E     E   E  E  E  E  E     E  E
|---------------------------|------------------------------|
|---------------------------|------------------------------|
|---------------------------|------------------------------|
|---1---1--1--1--1--1--1--1-|---3---3--3--3--3--3-----3--3-|


 Outro
  Dm                          Am
  Gtr I
    E   E  E  E  E  E  E  E     E   E  E  E  E  E  E  E
|--12--------13----13-------|---------------------------|
|---------15----------13----|--12--------13----13h15----|
|--14--14-------14----------|---------14----------------|
|------------------------12-|--14--14-------14----------|
|-(12)----------------------|-(12)-------------------12-|
|---------------------------|---------------------------|


  F                          C
   E   E  E  E  E  E  E  E    E   E E E E E E  E
|--------------------------|------------8--------|
|-10--------10----10-------|--8-------8---8------|
|-10-----10----------12p10-|--9-----9-------9----|
|-----10-------10----------|-----10-----------10-|
|-(8)----------------------|---------------------|
|--------------------------|-(8)-----------------|


  H.=H
  Dm
    E   E  E  E  E  E  E  E
|--12--------13----13-------|
|---------15----------13----|
|--14--14-------14----------|
|------------------------12-|
|-(12)----------------------|
|---------------------------|


  Am                          F
    E   E  E  E  E  E  E  E     E   E  E  E  E  E  E  E
|---------------------------|---------------------------|
|--12--------13----13h15----|---------------13----------|
|---------14----------------|--14-----12h14----14p12----|
|--14--14-------14----------|--15--15----------------15-|
|-(12)-------------------12-|---------------------------|
|---------------------------|-(13)----------------------|


                                 Q=60
  G                              Am
    E   E  E  E  E  S  S  E  E    W
|------------------------------|-------*|
|--13--------13p12-13p12-10----|-10----*|
|--12-----12----------------12-|--9----*|
|------12----------------------|-------*|
|-(10)-------------------------|-12----*|
|------------------------------|-------*|



Duration Legend
---------------
W - whole; H - half; Q - quarter; E - 8th; S - 16th; T - 32nd; X - 64th; a - acciaccatura
+ - note tied to previous; . - note dotted; .. - note double dotted
Uncapitalized letters represent notes that are staccato (1/2 duration)
Irregular groupings are notated above the duration line
Duration letters will always appear directly above the note/fret number it represents the
duration for.  Duration letters with no fret number below them represent rests.  Multi-
bar rests are notated in the form Wxn, where n is the number of bars to rest for.  Low
melody durations appear below the staff

Tablature Legend
----------------
 h   - hammer-on
 p   - pull-off
 b   - bend
 pb  - pre-bend
 r   - bend release (if no number after the r, then release immediately)
 /\  - slide into or out of (from/to "nowhere")
 s   - legato slide
 S   - shift slide
 - natural harmonic
[n]  - artificial harmonic
n(n) - tapped harmonic
 ~   - vibrato
 tr  - trill
 T   - tap
 TP  - trem. picking
 PM  - palm muting
\n/  - tremolo bar dip; n = amount to dip
 \n  - tremolo bar down
 n/  - tremolo bar up
/n\  - tremolo bar inverted dip
 =   - hold bend; also acts as connecting device for hammers/pulls
 <> - volume swell (louder/softer)
 x   - on rhythm slash represents muted slash
 o   - on rhythm slash represents single note slash

Misc Legend
-----------
 |  - bar
||  - double bar
||o - repeat start
o|| - repeat end
*|  - double bar (ending)
 :  - bar (freetime)
 $  - Segno
 &  - Coda
Tempo markers -  = BPM(8/16=s8/s16), where s8 = swing 8ths, s16 = swing 16ths

comments
We did not receive enough feedback on this tab! Please rate:
print report bad tab
1 2 3 4 5
I want to post or [tab]
guest
You may want to rate the tab now too:
select rating
Please do not post tabs as comments. Select "correction" instead!