Oops, an error
Loading. Please wait.

Vice Tab

941 views 1 this week
1 commentread comment
1 2 3 4 5
worth learning
x 1
add to favorites launch autoscroll
font size
0
reset
Autoscroll
+/-
esc
set tempo
stop
WARNING: You are trying to view
                                    content from Ultimate-Guitar.com
                                    in an unauthorized application,
                                    which is prohibited.

                                    Please use an official Ultimate
                                    Guitar Tabs application for iPhone,
                                    iPad or Android to access legitimate
                                    chords, guitar, bass, and drum tabs
                                    from Ultimate-Guitar.com database.

                                    Type "ultimate guitar tabs" in Apple
                                    App Store's or Android Market's
                                    search to find the application.
I DO NOT TAKE CREDIT FOR THIS TAB. I DID NOT MAKE IT. IT'S TAKEN DIRECTLY FROM SONATA 
SITE AND INCLUDES ORIGINAL INFORMATION. UPLOADING IT FOR THE COMMUNITY.

************************************************************************
*               SONATA ARCTICA - THE VICE                              *
*                 FROM THE ALBUM UNIA                                  *
************************************************************************
Music By: Sonata Arctica
Transcribed By: Martin Steinkopf (<3 jani <3)
Day tabbed: 25th may 2007
Email: martin_emppu@hotmail.com
Tuning: Bb - Eb - Ab - Db - Gb - Bb - Eb (1/2 step down, 7 string)

---------------------------------------------------------------------------

| Intro (00:01)
|--------------------------------------------------------------------------|
|--------------------------------------------------------------------------|
|--------------------------------------------------------------------------|
|--7-7-7\5--7--\--5-7--7-7-7-5-7--\--5--9--9-9-9-7-9--\--7-10-10-10~-------|
|--7-7-7\5--7--\--5-5--5-5-5-3-5--\--5--7--7-7-7-5-7--\--5-8--8--8~--------|
|--5-5-5\3--5--\--3-5--5-5-5-3-5--\--3--7--7-7-7-5-7--\--5-8--8--8~--------|
|--------------------------------------------------------------------------|
P.M:                   . . .               . . .              .

|--------------------------------------------------------------------------|
|--------------------------------------------------------------------------|
|--------------------------------------------------------------------------|
|--\\\\\\--7----7-7---5-7--7----7-7---5-7--7----7-7---5-7--7----7-7---5-7--|
|--\\\\\\--7----7-7---5-7--7----7-7---5-7--5--5-5-5-5-3-5--5--5-5-5-5-3-5--|
|--\\\\\\--5--5-5-5-5-3-5--5--5-5-5-5-3-5--5--5-5-5-5-3-5--5--5-5-5-5-3-5--|
|--\\\\\\------------------------------------------------------------------|
P.M:          .     .         .     .         .     .         .     .

                      | Verse 1   | Bridge 1
|---------------------|-----------|----------------------------------------|
|---------------------|-----------|----------------------------------------|
|---------------------|-----------|----------------------------------------|
|---------------------|No guitars-|-7-------------------------------3\-3~--|
|----------------8~---|-----------|-5-5-5-5-5-5-5-5-5-5-5-5-5-5-5-5-1\-1~--|
|----------------8~---|-----------|----------------------------------------|
|-555--55-555-55-6~---|-----------|----------------------------------------|
PM...  .. ... ..                      . . .   . . .   . . .   . . .

                                                       | Riff 1
|------------------------------------------------------|-------------------|
|------------------------------------------------------|-------------------|
|------------------------------------------------------|-------------------|
|------------------------------------------------------|--5/7-7-7-5/7--7-7-|
|-7-------7-------7-------7-5\-5--3-----3---2-----2----|--5/7-7-7-5/7--7-7-|
|-5-5-5-5-5-5-5-5-5-5-5-5-5-3\-3--1-1-1-1-1—0-0-0-0-0--|--3/5-5-5-3/5--5-5-|
|------------------------------------------------------|-------------------|
PM: . . .   . . .   . . .           . .   .   . .   .         . .      . .

        X4 | Verse 2
|----------|---------------------------------------------------------------|
|----------|---------------------------------------------------------------|
|----------|---------------------------------------------------------------|
|--7-7-7-7-|---------------------------------------------------------------|
|--7-7-7-7-|---------------------------------------------------------------|
|--5-5-5-5-|--3/5-5-5-5-5-5-5-3/5-5-5-3/5-5-5-5-5-5-5-3/5-5-5-3/5-5-5-5-5--|
|----------|---------------------------------------------------------------|
P.M. . . .        . . . . . .     . .     . . . . . .     . .     . . . .

                                       | Bridge 2           | Bridge 3
|--------------------------------------|--------------------|--------------|
|--------------------------------------|--------------------|--------------|
|--------------------------------------|--------------------|--------------|
|--------------------------------------|--Same as Bridge 1--|--------------|
|--------------------------------------|--------------------|--5-----------|
|-5-5-3/5-5-5-3/5-5-5-5-5-5-5-3/5-5-5--|--------------------|--5-----------|
|--------------------------------------|--------------------|--3-3-3-3-3-3-|
  . .     . .   . . . . . .     . .                              . . . . .

|--------------------------------------------------------------------------|
|--------------------------------------------------------------------------|
|--------------------------------------------------------------------------|
|---------------3-/-3-7-----------------------5-/-5--3~---2~---------------|
|---------------1-/-1-7-----------------------5-/-5--3~---2~---5-----------|
|---------------------5-5-5-5-5-5-5-5-5-5-5-5-3-/-3--1~---0~---5-----------|
|--3-3-3-3-3-3-------------------------------------------------3-3-3-3-3-3-|
PM:. . . . . .          . . . . . . . . . . .                    . . . . .

                                     | Riff 2
|------------------------------------|-------------------------------------|
|------------------------------------|-------------------------------------|
|------------------------------------|-------------------------------------|
|------------------------------------|--7----7-7---5-7--7----7-7---5-7--7--|
|--------------5-/-5--5~---5-5-5-5---|--7--7-7-7-7-5-7--7--7-7-7-7-5-7--5--|
|--------------5-/-5--5~---5-5-5-5---|--5--5-5-5-5-3-5--5--5-5-5-5-3-5--5--|
|--3-3-3-3-3-3-3-/-3--3~---3-3-3-3---|-------------------------------------|
   . . . . . .             . . . .         .     .         .     .

                              | 1.
|-----------------------------|--------------------------------------------|
|-----------------------------|--------------------------------------------|
|-----------------------------|--------------------------------------------|
|---7-7---5-7--7----7-7---5-7-|-9----9-9---7-9--9----9-9---7-9--10--1010---|
|-5-5-5-5-3-5--5--5-5-5-5-3-5-|-7--7-7-7-7-5-7--7--7-7-7-7-5-7--8--8-8-8-8-|
|-5-5-5-5-3-5--5--5-5-5-5-3-5-|-7--7-7-7-7-5-7--7--7-7-7-7-5-7--8--8-8-8-8-|
|-----------------------------|--------------------------------------------|
PM.     .         .     .          .     .         .     .         .     .
                           | 2.
|--------------------------|----------------------------------------------|
|--------------------------|----------------------------------------------|
|--------------------------|----------------------------------------------|
|--8-10-10---1010----------|-------------------------------------3~-------|
|--6-8--8--8-8-8-8---------|-------7777-5555-3333-2222-0000------3~-------|
|--6-8--8--8-8-8-8--8-7----|--------------------------------3333-1~-------|
|-----------------------8--|--5555----------------------------------------|
PM:        .                  .... .... .... .... .... .... ....

| Verse 3
|--------------------------------------------------------------------------|
|--------------------------------------------------------------------------|
|--------------------------------------------------------------------------|
|--------------------------------------------------------------------------|
|--------------------------------------------------------------------------|
|--5-5-5-5-5-3/5-5-5-3/5-5-5-5-5-5-5-3/5-5-5-5-5-5-5-5-3/5-5-5-3/5-5-5-5-5-|
|--------------------------------------------------------------------------|
PM:. . . . .     . .     . . . . . .     . . . . . . .     . .     . . . .

                                                 | Bridge 4
|------------------------------------------------|-------------------------|
|------------------------------------------------|-------------------------|
|---------------7~------7~-----------------------|--------2----------------|
|---------------7~--7~--7~-5-7~--8~--7~--7~--5~--|------2----2-2-2--2-2-2--|
|---------------5~--7~--5~-5-7~--8~--8~--7~--5~--|--3-5------0-0-0--0-0-0--|
|--5-5-3/5-5-5------5~-----3-5~--6~--5~--5~--3~--|-------------------------|
|------------------------------------------------|-------------------------|
P.M. .     . .                                               . . .  . . .

|--------------------------------------------------------------------------|
|--------------------------------------------------------------------------|
|--------4-----------------------------------------------------------------|
|------2-----2--5-/7-7-7-5-/7-7-7-5-/7-7-7-10-\9-9-\5-5-10~-9~--12~--14~---|
|--3-5-----5----5-/7-7-7-5-/7-7-7-5-/7-7-7-10-\9-9-\5-5-8~--7~--10~--12~---|
|---------------3-/5-5-5-3-/5-5-5-3-/5-5-5-8--\7-7-\3-3--------------------|
|--------------------------------------------------------------------------|

|--------------------------------------------------------------------------|
|--------------------------------------------------------------------------|
|--------------------------------------------------------------------------|
|--------------------------------------------------------------------5---5-|
|--5-5-5--5-5-5--5-5-5--3--3--5-5-5--5-5-5--5-5-5--3--3--5---7---8---5---5-|
|--5-5-5--5-5-5--5-5-5--3--3--5-5-5--5-5-5--5-5-5--3--3--5---7---8---3---3-|
|--3-3-3--3-3-3--3-3-3--1--1--3-3-3--3-3-3--3-3-3--1--1--3---5---6---------|
P.M. . .  . . .  . . .  .     . . .  . . .  . . .  .

                      | Interlude 1 (guitar enters at 02:26)
|---------------------|-----------------------------|----------------------|
|---------------------|-----------------------------|----------------------|
|---------------------|-------5h6~5\---------5h6~5\-|----------------------|
|----8----------------|-----------------------------|---5----5---4---4---5-|
|----8--------8---\---|---4-3------------4-3--------|----------------------|
|----6----8~--8---\---|-----------------------------|-33---33--33--33--33--|
|-------------6---\---|-----------------------------|----------------------|
P.M:                                                  ..   ..  ..  ..  ..

                    x2 |         | Bridge 5         | Interlude 2 (03:07)
|----------------------|---/9-8--|------------------|-----------------------|
|-------------A.H-A.H--|---------|------------------|-----------------------|
|--------------5h6~5---|---------|------------------|-----------------------|
|-----5-----A.H--------|---------|--without-guitar--|--77---77---7777-7-77--|
|----------4-3---------|---------|------------------|--77---77---7777-7-77--|
|--33---33-------------|---------|------------------|--55---55---5555-5-55--|
|----------------------|---------|------------------|-----------------------|
P.M..   ..                                             ..   ..   ....

                                              | Bridge 6
|---------------------------------------------|----------------------------|
|---------------------------------------------|----------------------------|
|---------------------------------------------|----------------------------|
|--7-7-7-7-7--7-77-7-7-7-7-7--7-77-7-7-7-7-7--|--7-7-7-7-7-7-7-7-7-7-7-7-7-|
|--7-7-7-7-7--7-77-7-7-7-7-7--7-77-7-7-7-7-7--|--5-5-5-5-5-5-5-5-5-5-5-5-5-|
|--5-5—5-5-5--5-55-5-5—5-5-5--5-55-5-5—5-5-5--|----------------------------|
|---------------------------------------------|----------------------------|
P.M. . .      . .. . . .      . .. . . .         . . . . . . . . . . . . .


|---------------------------------------------------------------------------|
|---------------------------------------------------------------------------|
|---------------------------------------------------------------------------|
|--7-7-7-3\-3~----------------------------------------------------5---------|
|--5-5-5-1\-1~-7-----7-----7-----7-----7-5\-5--3---3---3--2-2\----5---------|
|--------------5-5-5-5-5-5-5-5-5-5-5-5-5-3\-3--1-1-1-1-1--0-0\----3-3-3-3-3-|
|----------------------------------------------|-------------------|--------|
P.M. . .         . .   . .   . .   . .              .   .    . .

|-------------------------------------------------------------------------|
|-------------------------------------------------------------------------|
|-------------------------------------------------------------------------|
|---------------3-/-3-7-----------------------5-/-5--3~---2~---7\\\\\-----|
|---------------1-/-1-7-----------------------5-/-5--3~---2~---7\\\\\-----|
|---------------------5-5-5-5-5-5-5-5-5-5-5-5-3-/-3--1~---0~---5\\\\\-----|
|--3-3-3-3-3-3-3-----------------------------------------------5\\\\\-----|
P.M. . . . . . .        . . . . . . . . . . .


End...

Transcribed by: Martin Steinkopf
comments
We did not receive enough feedback on this tab! Please rate:
print report bad tab
1 2 3 4 5
1 comment total.
0 reply
17thmoon wrote on July 25 2011, 06:39 pm

Dang it! I just posted the exact same tab from the website. I did not copy you, I swear.

I want to post or [tab]
guest
You may want to rate the tab now too:
select rating
Please do not post tabs as comments. Select "correction" instead!