Oops, an error
Loading. Please wait.

Wolf And Raven Bass Tab

ver2
ver2

Whole song

More versions @911Tabs.com
564 views 1 this week
no commentswrite comment
1 2 3 4 5
please rate
Autoscroll
+/-
esc
set tempo
stop
Contributor
Hey! There's an official Ultimate Guitar app which is ideal
for learning songs when you're away from computer. Get the app
WARNING: You are trying to view
                                    content from Ultimate-Guitar.com
                                    in an unauthorized application,
                                    which is prohibited.

                                    Please use an official Ultimate
                                    Guitar Tabs application for iPhone,
                                    iPad or Android to access legitimate
                                    chords, guitar, bass, and drum tabs
                                    from Ultimate-Guitar.com database.

                                    Type "ultimate guitar tabs" in Apple
                                    App Store's or Android Market's
                                    search to find the application.
#----------------------------------PLEASE NOTE---------------------------------#
#This file is the author's own work and represents their interpretation of the #
#song. You may only use this file for private study, scholarship, or research. #
#------------------------------------------------------------------------------#

WOLF AND RAVEN (Bassline)
As recorded by Sonata Arctica 
(From the 2001 Album SILENCE)

Transcribed by an unregistered user


 Music by Sonata Arctica 

 

Gtr I (Eb Ab Db Gb) - 'Marko Paasikoski'
Gtr II (Eb Ab Db Gb Bb Eb) - 'Mikko Harkin Harpsichord 1'
Gtr III (Eb Ab Db Gb Bb Eb) - 'Mikko Harkin Harpsichord 2'


  Q=171
 4/4
  Gtr I
  S S S S S S S S S S S S S S S S    S  S S S S S S S S S S S S S S S
|---------------------------------|------------------------------------|
|---------------------------------|------------------------------------|
|-0-0-0-0-0-0-0-0-0-0-0-0-0-0-0-0-|--0--0-0-0-0-0-0-0-0-0-0-0-0-0-0-0--|
|---------------------------------|------------------------------------|
|
| Gtr II
| W                                 +W
|---------------------------------|------------------------------------|
|---------------------------------|------------------------------------|
|-1-------------------------------|-(1)--------------------------------|
|-1-------------------------------|-(1)--------------------------------|
|-2-------------------------------|-(2)--------------------------------|
|---------------------------------|------------------------------------|
|
| Gtr III
| S S S S S S S S S S S S S S S S    S  S S S S S S S S S S S S S S S
|---------------------------------|------------------------------------|
|-4-2-----2---------------2-------|--4--2-----2---------------2--------|
|-----4-3---4-3-1-0-1-3-4---4-3-1-|-------4-3---4-3-1-0-1-3-4---4-3-1--|
|---------------------------------|------------------------------------|
|---------------------------------|------------------------------------|
|---------------------------------|------------------------------------|


  S S S S S S S S S S S S S S S S    S  S S S S S S S S S S S S S S S
|---------------------------------|-----------------------------------|
|---------------------------------|-----------------------------------|
|---------------------------------|-----------------------------------|
|-1-1-1-1-1-1-1-1-1-1-1-1-1-1-1-1-|--1--1-1-1-1-1-1-1-1-1-1-1-1-1-1-1-|
|
| W                                 +W
|---------------------------------|-----------------------------------|
|---------------------------------|-----------------------------------|
|-1-------------------------------|-(1)-------------------------------|
|-2-------------------------------|-(2)-------------------------------|
|-2-------------------------------|-(2)-------------------------------|
|---------------------------------|-----------------------------------|
|
| S S S S S S S S S S S S S S S S    S  S S S S S S S S S S S S S S S
|---------------------------------|-----------------------------------|
|-4-2-----2---------------2-------|--4--2-----2---------------2-------|
|-----4-3---4-3-1-0-1-3-4---4-3-1-|-------4-3---4-3-1-0-1-3-4---4-3-1-|
|---------------------------------|-----------------------------------|
|---------------------------------|-----------------------------------|
|---------------------------------|-----------------------------------|


  S S S S S S S S S S S S S S S S    S  S S S S S S S S S S S S S S S
|---------------------------------|-----------------------------------|
|-0-0-0-0-0-0-0-0-0-0-0-0-0-0-0-0-|--0--0-0-0-0-0-0-0-0-0-0-0-0-0-0-0-|
|---------------------------------|-----------------------------------|
|---------------------------------|-----------------------------------|
|
| W                                 +W
|---------------------------------|-----------------------------------|
|---------------------------------|-----------------------------------|
|-1-------------------------------|-(1)-------------------------------|
|-2-------------------------------|-(2)-------------------------------|
|-4-------------------------------|-(4)-------------------------------|
|---------------------------------|-----------------------------------|
|
| S S S S S S S S S S S S S S S S    S  S S S S S S S S S S S S S S S
|---------------------------------|-----------------------------------|
|-4-2-----2---------------2-------|--4--2-----2---------------2-------|
|-----4-3---4-3-1-0-1-3-4---4-3-1-|-------4-3---4-3-1-0-1-3-4---4-3-1-|
|---------------------------------|-----------------------------------|
|---------------------------------|-----------------------------------|
|---------------------------------|-----------------------------------|


  S S S S S S S S S S S S S S S S    S  S S S S S S S S S S S S S S S
|---------------------------------|-----------------------------------|
|---------------------------------|-----------------------------------|
|-0-0-0-0-0-0-0-0-0-0-0-0-0-0-0-0-|--0--0-0-0-0-0-0-0-0-0-0-0-0-0-0-0-|
|---------------------------------|-----------------------------------|
|
| W                                 +W
|---------------------------------|-----------------------------------|
|---------------------------------|-----------------------------------|
|-1-------------------------------|-(1)-------------------------------|
|-1-------------------------------|-(1)-------------------------------|
|-2-------------------------------|-(2)-------------------------------|
|---------------------------------|-----------------------------------|
|
| S S S S S S S S S S S S S S S S    S  S S S S S S S S S S S S S S S
|---------------------------------|-----------------------------3-6-7-|
|-4-2-----2---------------2-------|--4--2-----2-----------2-4-5-------|
|-----4-3---4-3-1-0-1-3-4---4-3-1-|-------4-3---4-3-1-3-4-------------|
|---------------------------------|-----------------------------------|
|---------------------------------|-----------------------------------|
|---------------------------------|-----------------------------------|


   S S S S S S S S S S S S S S S S    S  S S S S S S S S S S S S S S S
|----------------------------------|-----------------------------------|
|----------------------------------|-----------------------------------|
|--0-0-0-0-0-0-0-0-0-0-0-0-0-0-0-0-|--0--0-0-0-0-0-0-0-0-0-0-0-0-0-0-0-|
|----------------------------------|-----------------------------------|
|
|  W                                 +W
|----------------------------------|-----------------------------------|
|--0-------------------------------|-(0)-------------------------------|
|--1-------------------------------|-(1)-------------------------------|
|--1-------------------------------|-(1)-------------------------------|
|----------------------------------|-----------------------------------|
|----------------------------------|-----------------------------------|
|
|  S S S S S S S S S S S S S S S S    S  S S S S S S S S S S S S S S S
|-11-9-7-6-9-7-6-4-3-4-6-7-9-7-6-4-|-11--9-7-6-9-7-6-4-3-4-6-7-9-7-6-4-|
|----------------------------------|-----------------------------------|
|----------------------------------|-----------------------------------|
|----------------------------------|-----------------------------------|
|----------------------------------|-----------------------------------|
|----------------------------------|-----------------------------------|


   S S S S S S S S S S S S S S S S    S  S S S S S S S S S S S S S S S
|----------------------------------|-----------------------------------|
|----------------------------------|-----------------------------------|
|----------------------------------|-----------------------------------|
|--1-1-1-1-1-1-1-1-1-1-1-1-1-1-1-1-|--1--1-1-1-1-1-1-1-1-1-1-1-1-1-1-1-|
|
|  W                                 +W
|----------------------------------|-----------------------------------|
|--0-------------------------------|-(0)-------------------------------|
|--1-------------------------------|-(1)-------------------------------|
|--2-------------------------------|-(2)-------------------------------|
|----------------------------------|-----------------------------------|
|----------------------------------|-----------------------------------|
|
|  S S S S S S S S S S S S S S S S    S  S S S S S S S S S S S S S S S
|-11-9-7-6-9-7-6-4-3-4-6-7-9-7-6-4-|-11--9-7-6-9-7-6-4-3-4-6-7-9-7-6-4-|
|----------------------------------|-----------------------------------|
|----------------------------------|-----------------------------------|
|----------------------------------|-----------------------------------|
|----------------------------------|-----------------------------------|
|----------------------------------|-----------------------------------|


   S S S S S S S S S S S S S S S S    S  S S S S S S S S S S S S S S S
|----------------------------------|-----------------------------------|
|--0-0-0-0-0-0-0-0-0-0-0-0-0-0-0-0-|--0--0-0-0-0-0-0-0-0-0-0-0-0-0-0-0-|
|----------------------------------|-----------------------------------|
|----------------------------------|-----------------------------------|
|
|  W                                 +W
|----------------------------------|-----------------------------------|
|--2-------------------------------|-(2)-------------------------------|
|--1-------------------------------|-(1)-------------------------------|
|--2-------------------------------|-(2)-------------------------------|
|----------------------------------|-----------------------------------|
|----------------------------------|-----------------------------------|
|
|  S S S S S S S S S S S S S S S S    S  S S S S S S S S S S S S S S S
|-11-9-7-6-9-7-6-4-3-4-6-7-9-7-6-4-|-11--9-7-6-9-7-6-4-3-4-6-7-9-7-6-4-|
|----------------------------------|-----------------------------------|
|----------------------------------|-----------------------------------|
|----------------------------------|-----------------------------------|
|----------------------------------|-----------------------------------|
|----------------------------------|-----------------------------------|


   S S S S S S S S S S S S S S S S    S  S S S S S  S  S  S S S S S S S S
|----------------------------------|--------------------------------------|
|--0-0-0-0-0-0-0-0-0-0-0-0-0-0-0-0-|--0--0-0-0-0-0--0--0--0-0-0-0-0-0-0-0-|
|----------------------------------|--------------------------------------|
|----------------------------------|--------------------------------------|
|
|  W                                 +W
|----------------------------------|--------------------------------------|
|--0-------------------------------|-(0)----------------------------------|
|--1-------------------------------|-(1)----------------------------------|
|--1-------------------------------|-(1)----------------------------------|
|----------------------------------|--------------------------------------|
|----------------------------------|--------------------------------------|
|
|  S S S S S S S S S S S S S S S S    S  S S S S S  S  S  H
|-11-9-7-6-9-7-6-4-7-6-4-3-6-4-3---|---------3-4-7-11-15-16---------------|
|--------------------------------5-|-------4------------------------------|
|----------------------------------|-----4--------------------------------|
|----------------------------------|--6-----------------------------------|
|----------------------------------|--------------------------------------|
|----------------------------------|--------------------------------------|


  E S S S S S S S S S S S S S S   S S S S S S S S S S S S S S S S
|-------------------------------|---------------------------------|
|-------------------------------|---------------------------------|
|-0-0-0-0-0-0-0-0-0-0-0-0-0-0-0-|-0-0-0-0-0-0-0-0-0-0-0-0-0-0-0-0-|
|-------------------------------|---------------------------------|


  S S S S S S S S S S S S S S S S   Q  Q  Q  Q    E E E E E E E E
|---------------------------------|-------------|------------------|
|---------------------------------|-------------|------------------|
|-0-0-0-0-0-0-0-0-0-0-0-0-0-0-0-0-|-2--3--0-----|-0-0-0-0-0-0-0-0--|
|---------------------------------|----------3--|------------------|


  E E E E E E E E   E E E E E E E E   E E E E E E E E   E E E E E E E E
|-----------------|-----------------|-----------------|-----------------|
|-----------------|-----------------|-----------------|-----------------|
|-0-0-0-0-0-0-0-0-|-0-0-0-0-0-0-0-0-|-2-2-3-3-0-0-----|-----------------|
|-----------------|-----------------|-------------3-3-|-0-0-0-0-0-0-0-0-|


  E E E E E E E E   E E E E E E E E   E E E E E E E E   E E E E E E E E
|-----------------|-----------------|-----------------|-----------------|
|-----------------|-----------------|-----------------|-----------------|
|-0-0-0-0-0-0-0-0-|-----------------|-----------------|-----------------|
|-----------------|-1-1-1-1-1-1-1-1-|-3-3-3-3-3-3-3-3-|-0-0-0-0-0-0-0-0-|


  E E E E E E E E   E E E E E E E E   E E E E E E E E   E E E E E E E E
|-----------------|-----------------|-----------------|-----------------|
|-----------------|-----------------|-----------------|-----------------|
|-0-0-0-0-0-0-0-0-|-----------------|-----------------|-0-0-0-0-0-0-0-0-|
|-----------------|-1-1-1-1-1-1-1-1-|-3-3-3-3-3-3-3-3-|-----------------|


  E E E E E E E E   E E E E E E E E   E E E E E E E E   E E E E E E E E
|-----------------|-----------------|-----------------|-----------------|
|-----------------|-----------------|-----------------|-----------------|
|-0-0-0-0-0-0-0-0-|-0-0-0-0-0-0-0-0-|-2-2-3-3-0-0-----|-0-0-0-0-0-0-0-0-|
|-----------------|-----------------|-------------3-3-|-----------------|


  E E E E E E E E   E E E E E E E E   E E E E E E E E   E E E E E E E E
|-----------------|-----------------|-----------------|-----------------|
|-----------------|-----------------|-----------------|-----------------|
|-0-0-0-0-0-0-0-0-|-0-0-0-0-0-0-0-0-|-2-2-3-3-0-0-----|-----------------|
|-----------------|-----------------|-------------3-3-|-0-0-0-0-0-0-0-0-|


  E E E E E E E E   E E E E E E E E   E E E E E E E E   E E E E E E E E
|-----------------|-----------------|-----------------|-----------------|
|-----------------|-----------------|-----------------|-----------------|
|-0-0-0-0-0-0-0-0-|-----------------|-----------------|-----------------|
|-----------------|-1-1-1-1-1-1-1-1-|-3-3-3-3-3-3-3-3-|-0-0-0-0-0-0-0-0-|


  E E E E E E E E   E E E E E E E E   E E E E E E E E   E E E E E E E E
|-----------------|-----------------|-----------------|-----------------|
|-----------------|-----------------|-----------------|-----------------|
|-0-0-0-0-0-0-0-0-|-----------------|-----------------|-0-0-0-0---------|
|-----------------|-1-1-1-1-1-1-1-1-|-3-3-3-3-3-3-3-3-|---------3-3-3-3-|
|
| Gtr II
| W                 W                 W                 H       H
|-----------------|-----------------|-----------------|-----------------|
|-----------------|-----------------|-----------------|-----------------|
|-----------------|-----------------|-----------------|-1---------------|
|-----------------|-----------------|-----------------|-1-------4-------|
|-----------------|-----------------|-----------------|-2-------4-------|
|-----------------|-----------------|-----------------|---------6-------|


  E E E E E E E E   E E E E E E E E   E E E E E E E E   E E E E E E E E
|-----------------|-----------------|-----------------|-----------------|
|-----------------|-0-0-0-0---------|-----------------|-----------------|
|-----------------|---------3-3-3-3-|-2-2-2-2-2-2-2-2-|-0-0-0-0---------|
|-1-1-1-1-1-1-1-1-|-----------------|-----------------|---------3-3-3-3-|
|
| H       H         H       H         W                 H       H
|-----------------|-----------------|-----------------|-----------------|
|-----------------|-----------------|-----------------|-----------------|
|---------1-------|-1---------------|-----------------|-----------------|
|-2-------2-------|-2-------4-------|-4---------------|-6-------4-------|
|-2-------2-------|-4-------6-------|-6---------------|-6-------4-------|
|-4---------------|---------7-------|-6---------------|-7-------6-------|


  E E E E E E E E   E E E E E E E E   E E E E E E E E   E E E E E E E E
|-----------------|-----------------|-----------------|-----------------|
|-----------------|-0-0-0-0---------|-----------------|-----------------|
|-----------------|---------3-3-3-3-|-2-2-2-2-2-2-2-2-|-----------------|
|-1-1-1-1-1-1-1-1-|-----------------|-----------------|-1-1-1-1-1-1-1-1-|
|
| H       H         H       H         H       H         W
|-----------------|-----------------|-----------------|-0---------------|
|-----------------|-----------------|-----------------|-0---------------|
|---------1-------|-1---------------|---------3-------|-1---------------|
|-2-------2-------|-2-------4-------|-4-------4-------|-2---------------|
|-2-------2-------|-4-------6-------|-4-------4-------|-2---------------|
|-4---------------|---------7-------|-6---------------|-0---------------|


   E  E E E E E E E   E E E E E E E E   E E E E E E E E   E E E E E E E E
|-------------------|-----------------|-----------------|-----------------|
|-------------------|-----------------|-----------------|-----------------|
|-------------------|-0-0-0-0-0-0-0-0-|-0-0-0-0-0-0-0-0-|-0-0-0-0-0-0-0-0-|
|--1--1-1-1-1-1-1-1-|-----------------|-----------------|-----------------|
|
| +W                  W                 W                 W
|-(0)---------------|-----------------|-----------------|-----------------|
|-(0)---------------|-----------------|-----------------|-----------------|
|-(1)---------------|-----------------|-----------------|-----------------|
|-(2)---------------|-----------------|-----------------|-----------------|
|-(2)---------------|-----------------|-----------------|-----------------|
|-(0)---------------|-----------------|-----------------|-----------------|


  E E E E E E E E   E E E E E E E E   E E E E E E E E   E E E E E E E E
|-----------------|-----------------|-----------------|-----------------|
|-----------------|-----------------|-----------------|-----------------|
|-2-2-3-3-0-0-----|-0-0-0-0-0-0-0-0-|-0-0-0-0-0-0-0-0-|-0-0-0-0-0-0-0-0-|
|-------------3-3-|-----------------|-----------------|-----------------|


  E E E E E E E E   E E E E E E E E   E E E E E E E E   E E E E E E E E
|-----------------|-----------------|-----------------|-----------------|
|-----------------|-----------------|-----------------|-----------------|
|-2-2-3-3-0-0-----|-----------------|-0-0-0-0-0-0-0-0-|-----------------|
|-------------3-3-|-0-0-0-0-0-0-0-0-|-----------------|-1-1-1-1-1-1-1-1-|


  E E E E E E E E   E E E E E E E E   E E E E E E E E   E E E E E E E E
|-----------------|-----------------|-----------------|-----------------|
|-----------------|-----------------|-----------------|-----------------|
|-----------------|-----------------|-0-0-0-0-0-0-0-0-|-----------------|
|-3-3-3-3-3-3-3-3-|-0-0-0-0-0-0-0-0-|-----------------|-1-1-1-1-1-1-1-1-|


  E E E E E E E E   E E E E E E E E   E E E E E E E E   E E E E E E E E
|-----------------|-----------------|-----------------|-----------------|
|-----------------|-----------------|-----------------|-0-0-0-0---------|
|-----------------|-0-0-0-0---------|-----------------|---------3-3-3-3-|
|-3-3-3-3-3-3-3-3-|---------3-3-3-3-|-1-1-1-1-1-1-1-1-|-----------------|
|
| Gtr II
| W                 H       H         H       H         H       H
|-----------------|-----------------|-----------------|-----------------|
|-----------------|-----------------|-----------------|-----------------|
|-----------------|-1---------------|---------1-------|-1---------------|
|-----------------|-1-------4-------|-2-------2-------|-2-------4-------|
|-----------------|-2-------4-------|-2-------2-------|-4-------6-------|
|-----------------|---------6-------|-4---------------|---------7-------|


  E E E E E E E E   E E E E E E E E   E E E E E E E E   E E E E E E E E
|-----------------|-----------------|-----------------|-----------------|
|-----------------|-----------------|-----------------|-0-0-0-0---------|
|-2-2-2-2-2-2-2-2-|-0-0-0-0---------|-----------------|---------3-3-3-3-|
|-----------------|---------3-3-3-3-|-1-1-1-1-1-1-1-1-|-----------------|
|
| W                 H       H         H       H         H       H
|-----------------|-----------------|-----------------|-----------------|
|-----------------|-----------------|-----------------|-----------------|
|-----------------|-----------------|---------1-------|-1---------------|
|-4---------------|-6-------4-------|-2-------2-------|-2-------4-------|
|-6---------------|-6-------4-------|-2-------2-------|-4-------6-------|
|-6---------------|-7-------6-------|-4---------------|---------7-------|


  E E E E E E E E   E E  E S S E  E Q    Q  Q  H      W
|-----------------|--------------------|------------|------|
|-----------------|---2--2-0-0-0-------|------------|------|
|-2-2-2-2-2-2-2-2-|--------------------|------------|------|
|-----------------|---------------4----|-5----------|------|
|
| H       H         Q    Q     E  E Q    Q  Q  H      W
|-----------------|-----11-------11----|-7----------|------|
|-----------------|--------------------|------------|------|
|---------3-------|-----11-------11----|-8----------|------|
|-4-------4-------|------8--------8----|-6----------|------|
|-4-------4-------|--------------------|------------|------|
|-6---------------|--------------------|------------|------|


   S  S  S  S  S  S  S  S  S  S S S S S  S  S    E     E     Q   E     E    Q
|---------------------------------------------|--------------------------------|
|---------------------------------------------|--------------------------------|
|--5--5--5--5--5--5--5--5--5--5-5-5-5-5--5--5-|--------------3--------------1--|
|---------------------------------------------|--3-----3---------3-----3-------|
|
| Gtr III
|  S  S  S  S  S  S  S  S  Q.            S  S    S  S  S  S  Q   S  S  S  S Q
|---------------------------------------------|-----------------16-14-12-11-9--|
|-17-16-14-12-14-16-17-19-21------------19-21-|-22-21-19-17-16-----------------|
|---------------------------------------------|--------------------------------|
|---------------------------------------------|--------------------------------|
|---------------------------------------------|--------------------------------|
|---------------------------------------------|--------------------------------|


   S  S  S S S S  S  S  S  S  S S S  S S S
|------------------------------------------|
|------------------------------------------|
|-----------------------0--0--0-0-0--0-0-0-|
|--3--3--3-3-3-3--3--3---------------------|
|
| Gtr II
|  W
|------------------------------------------|
|------------------------------------------|
|------------------------------------------|
|------------------------------------------|
|------------------------------------------|
|------------------------------------------|
|
| Gtr III
|  S  S  S S S S  S  S  S  S  S S S  S S S
|-14-12-11-9-8-9-11-12-14-12-11-9-8--------|
|-----------------------------------10-9-7-|
|------------------------------------------|
|------------------------------------------|
|------------------------------------------|
|------------------------------------------|


  S S S S S S S S  S  S S S S S S  S
|------------------------------------|
|------------------------------------|
|-5-5-5-5-5-5-5-5--5--5-5-5-5-5-5--5-|
|------------------------------------|
|
| S S S S S S S S  Q.           S  S
|------------------------------------|
|------------------------------------|
|------------------------------------|
|------------------------------------|
|-7-6-4-2-4-6-7-9-11------------9-11-|
|------------------------------------|
|
| S S S S S S S S  Q.           S  S
|------------------------------------|
|-5-4-2---2-4-5-7--9------------7--9-|
|-------4----------------------------|
|------------------------------------|
|------------------------------------|
|------------------------------------|


   E    E   Q  E   E   Q    S S S S S S S S S S S S S S S S
|-------------------------|---------------------------------|
|-------------------------|---------------------------------|
|-----------3----------1--|-----------------0-0-0-0-0-0-0-0-|
|--3----3------3---3------|-3-3-3-3-3-3-3-3-----------------|
|
|  S  S S S Q  S S S S Q    S S S S S S S S S S S S S S S S
|-------------------------|---------------------------------|
|-------------------------|---------------------------------|
|-------------------------|---------------------------------|
|--------------6-4-2-1----|-4-2-1---------------------------|
|-12-11-9-7-6----------4--|-------4-3-4-6-7-9-7-6-4-3-0-----|
|-------------------------|-----------------------------4-2-|
|
|  S  S S S Q  S S S S Q    S S S S S S S S S S S S S S S S
|--------------4-2--------|-2-------------------------------|
|-10--9-7-5-4------5-4-2--|---5-4-2-1-2-4-5-7-5-4-2-1-------|
|-------------------------|---------------------------2-1---|
|-------------------------|-------------------------------4-|
|-------------------------|---------------------------------|
|-------------------------|---------------------------------|


                                   3/4
  S S S S S S S S S S S S S S S S   Q  E E Q    Q  E E Q    E E E E Q
|---------------------------------|-----------|-----------|-------------|
|---------------------------------|-----------|-----------|-------------|
|-0-0-0-0-0-0-0-0-0-0-0-0-0-0-0-0-|-0----0----|-0----0----|-0-----0-----|
|---------------------------------|-----------|-----------|-------------|
|
| Gtr III
| S S S S S S S S S S S S S S S S   Q  E E Q    Q  E E Q    Q   E E Q
|---------------------------------|-----------|-----------|-------------|
|---------------------------------|-----------|-7----7----|-------------|
|---------5-6-5-------------------|-8----8----|-----------|-8-----8-----|
|-2-4-6-7-------7-6-4-2-1---------|-6----6----|-6----6----|-6-----6-----|
|-------------------------4-3-4-6-|-----------|-----------|-------------|
|---------------------------------|-----------|-----------|-------------|


            4/4                                 3/4
  Q  Q  Q    E E E E E E E E   E E E E E E E E   Q  E E Q    Q  E E Q
|----------|-----------------|-----------------|-----------|------------|
|----------|-----------------|-----------------|-----------|------------|
|-0--0--0--|-5-5-5-5-5-5-5-5-|-5-5-5-5-5-5-5-5-|-----------|------------|
|----------|-----------------|-----------------|-5----5----|-5----5-----|
|
| Q  Q  Q    E E E E E E E E   E E E E E E E E   Q  E E Q    Q  E E Q
|----------|-9---9-----------|-9---9-----------|-----------|------------|
|-9--7-----|---------9---9---|---------9---9---|-----------|-7----7-----|
|-------8--|-6---6-----------|-6---6-----------|-8----8----|------------|
|-6--6--6--|---------6---6---|---------6---6---|-6----6----|-6----6-----|
|----------|-----------------|-----------------|-----------|------------|
|----------|-----------------|-----------------|-----------|------------|


                         4/4                                 3/4
  E E E E Q    Q  Q  Q    E E E E E E E E   E E E E E E E E   Q  E E Q
|------------|----------|-----------------|-----------------|------------|
|------------|----------|-----------------|-----------------|------------|
|------------|----------|-5-5-5-5-5-5-5-5-|-5-5-5-5-5-5-5-5-|------------|
|-5-----5----|-5--5--5--|-----------------|-----------------|-5----5-----|
|
| Q   E E Q    Q  Q  Q    E E E E E E E E   E E E E E E E E   Q  E E Q
|------------|----------|-9---9-----------|-9---9-----------|------------|
|------------|-9--7-----|---------9---9---|---------9---9---|------------|
|-8-----8----|-------8--|-6---6-----------|-6---6-----------|-8----8-----|
|-6-----6----|-6--6--6--|---------6---6---|---------6---6---|-6----6-----|
|------------|----------|-----------------|-----------------|------------|
|------------|----------|-----------------|-----------------|------------|


                                     4/4
  Q  E E Q    E E E E Q    Q  Q  Q    E E E E E E E E   E E E E E E E E
|-----------|------------|----------|-----------------|-----------------|
|-----------|------------|----------|-----------------|-----------------|
|-----------|------------|----------|-5-5-5-5-5-5-5-5-|-5-5-5-5-5-5-5-5-|
|-5----5----|-5-----5----|-5--5--5--|-----------------|-----------------|
|
| Q  E E Q    Q   E E Q    Q  Q  Q    E E E E E E E E   E E E E E E E E
|-----------|------------|----------|-9---9-----------|-9---9-----------|
|-7----7----|------------|-9--7-----|---------9---9---|---------9---9---|
|-----------|-8-----8----|-------8--|-6---6-----------|-6---6-----------|
|-6----6----|-6-----6----|-6--6--6--|---------6---6---|---------6---6---|
|-----------|------------|----------|-----------------|-----------------|
|-----------|------------|----------|-----------------|-----------------|


 3/4                                             4/4
  Q  E E Q    Q  E E Q    E E E E Q    Q  Q  Q    E E E E E E E E
|-----------|-----------|------------|----------|------------------|
|-----------|-----------|------------|----------|------------------|
|-----------|-----------|------------|----------|-5-5-5-5-5-5-5-5--|
|-5----5----|-5----5----|-5-----5----|-5--5--5--|------------------|
|
| Q  E E Q    Q  E E Q    Q   E E Q    Q  Q  Q    E E E E E E E E
|-----------|-----------|------------|----------|-9---9------------|
|-----------|-7----7----|------------|-9--7-----|---------9---9----|
|-8----8----|-----------|-8-----8----|-------8--|-6---6------------|
|-6----6----|-6----6----|-6-----6----|-6--6--6--|---------6---6----|
|-----------|-----------|------------|----------|------------------|
|-----------|-----------|------------|----------|------------------|


                                   9/8                4/4
  E E E E E E E E   Q  Q  E E E E   Q  E E E E E E E   W
|-----------------|-3--2--0-------|------------------|------|
|-----------------|---------3-2-0-|--------------0---|------|
|-5-5-5-5-5-5-5-5-|---------------|-4--------------4-|-5----|
|-----------------|---------------|----6-5-3-1-0-----|------|
|
| E E E E E E E E   Q  Q  E E E E   Q  E E E E E E E   W
|-9---9-----------|---------------|------------------|------|
|---------9---9---|---------------|------------------|------|
|-6---6-----------|-6--5--3-1-0---|------------------|-1----|
|---------6---6---|-------------2-|-1------------2-1-|------|
|-----------------|---------------|----3-2-0---------|-4----|
|-----------------|---------------|----------3-2-----|------|


  +W           Q       Q       Q       Q
|------------|---------------------------------|
|------------|---------------------------------|
|-(5)--------|-5-------5-------5-------5-------|
|------------|---------------------------------|
|
| +W           S S S S S S S S S S S S S S S S
|------------|-4-2-----2-----------------------|
|------------|-----5-4---5-4-2-1-2-4-5-7-5-4-2-|
|-(1)--------|---------------------------------|
|------------|---------------------------------|
|-(4)--------|---------------------------------|
|------------|---------------------------------|


  Q       Q       Q       Q         Q       Q       Q       Q
|---------------------------------|---------------------------------|
|---------------------------------|---------------------------------|
|-5-------5-------5-------5-------|---------------------------------|
|---------------------------------|-6-------6-------6-------6-------|
|
| S S S S S S S S S S S S S S S S   S S S S S S S S S S S S S S S S
|-4-2-----2-----------------------|-4-2-----2-----------------------|
|-----5-4---5-4-2-1-2-4-5-7-5-4-2-|-----5-4---5-4-2-1-2-4-5-7-5-4-2-|
|---------------------------------|---------------------------------|
|---------------------------------|---------------------------------|
|---------------------------------|---------------------------------|
|---------------------------------|---------------------------------|


  Q       Q       Q       Q         Q       Q       Q       Q
|---------------------------------|---------------------------------|
|---------------------------------|---------------------------------|
|---------------------------------|---------------------------------|
|-6-------6-------6-------6-------|-3-------3-------3-------3-------|
|
| S S S S S S S S S S S S S S S S   S S S S S S S S S S S S S S S S
|-4-2-----2-----------------------|-4-2-----2-----------------------|
|-----5-4---5-4-2-1-2-4-5-7-5-4-2-|-----5-4---5-4-2-1-2-4-5-7-5-4-2-|
|---------------------------------|---------------------------------|
|---------------------------------|---------------------------------|
|---------------------------------|---------------------------------|
|---------------------------------|---------------------------------|


  Q       Q       Q       Q         Q       Q       Q       Q
|---------------------------------|---------------------------------|
|---------------------------------|---------------------------------|
|---------------------------------|-5-------5-------5-------5-------|
|-3-------3-------3-------3-------|---------------------------------|
|
| S S S S S S S S S S S S S S S S   S S S S S S S S S S S S S S S S
|-4-2-----2-----------------------|-4-2-----2-----------------------|
|-----5-4---5-4-2-1-2-4-5-7-5-4-2-|-----5-4---5-4-2-1-2-4-5-7-5-4-2-|
|---------------------------------|---------------------------------|
|---------------------------------|---------------------------------|
|---------------------------------|---------------------------------|
|---------------------------------|---------------------------------|


  Q       Q       Q        Q
|------------------------------------|
|------------------------------------|
|-5-------5-------5--------5---------|
|------------------------------------|
|
| S S S S S S S S S S S S  S S  S  S
|-4-2-----2------------------9-12-14-|
|-----5-4---5-4-2-4-5-7-9-10---------|
|------------------------------------|
|------------------------------------|
|------------------------------------|
|------------------------------------|


   E     E     E     E   E    E     E     E
|---------------------------------------------|
|---------------------------------------------|
|--5-----5-----5-----5---5----5-----5-----5---|
|---------------------------------------------|
|
|  S  S  S  S  S  S  S S S S  S  S  S  S  S S
|-16-14-12-11-14-12-11-9-8-9-11-12-14-12-11-9-|
|---------------------------------------------|
|---------------------------------------------|
|---------------------------------------------|
|---------------------------------------------|
|---------------------------------------------|


   E     E     E     E   E    E     E     E
|---------------------------------------------|
|---------------------------------------------|
|--5-----5-----5-----5---5----5-----5-----5---|
|---------------------------------------------|
|
|  S  S  S  S  S  S  S S S S  S  S  S  S  S S
|-16-14-12-11-14-12-11-9-8-9-11-12-14-12-11-9-|
|---------------------------------------------|
|---------------------------------------------|
|---------------------------------------------|
|---------------------------------------------|
|---------------------------------------------|


   E     E     E     E   E    E     E     E
|---------------------------------------------|
|---------------------------------------------|
|---------------------------------------------|
|--6-----6-----6-----6---6----6-----6-----6---|
|
|  S  S  S  S  S  S  S S S S  S  S  S  S  S S
|-16-14-12-11-14-12-11-9-8-9-11-12-14-12-11-9-|
|---------------------------------------------|
|---------------------------------------------|
|---------------------------------------------|
|---------------------------------------------|
|---------------------------------------------|


   E     E     E     E   E    E     E     E
|---------------------------------------------|
|---------------------------------------------|
|---------------------------------------------|
|--6-----6-----6-----6---6----6-----6-----6---|
|
|  S  S  S  S  S  S  S S S S  S  S  S  S  S S
|-16-14-12-11-14-12-11-9-8-9-11-12-14-12-11-9-|
|---------------------------------------------|
|---------------------------------------------|
|---------------------------------------------|
|---------------------------------------------|
|---------------------------------------------|


   E     E     E     E   E    E     E     E
|---------------------------------------------|
|---------------------------------------------|
|---------------------------------------------|
|--6-----6-----6-----6---6----6-----6-----6---|
|
|  S  S  S  S  S  S  S S S S  S  S  S  S  S S
|-16-14-12-11-14-12-11-9-8-9-11-12-14-12-11-9-|
|---------------------------------------------|
|---------------------------------------------|
|---------------------------------------------|
|---------------------------------------------|
|---------------------------------------------|


   E     E     E     E   E    E     E     E
|---------------------------------------------|
|---------------------------------------------|
|--5-----5-----5-----5---5----5-----5-----5---|
|---------------------------------------------|
|
|  S  S  S  S  S  S  S S S S  S  S  S  S  S S
|-16-14-12-11-14-12-11-9-8-9-11-12-14-12-11-9-|
|---------------------------------------------|
|---------------------------------------------|
|---------------------------------------------|
|---------------------------------------------|
|---------------------------------------------|


   E     E     E     E    E    E    E     E
|---------------------------------------------|
|---------------------------------------------|
|--5-----5-----5-----5----5----5----5-----5---|
|---------------------------------------------|
|
|  S  S  S  S  S  S  S S  S  S S S  S  S  S S
|-16-14-12-11-14-12-11-9-12-11-9-8----12------|
|----------------------------------10----10-9-|
|---------------------------------------------|
|---------------------------------------------|
|---------------------------------------------|
|---------------------------------------------|


  E   E   E   E   E   E     E     E
|--------------------------------------|
|--------------------------------------|
|-5---5---5---5---5---5-----5-----5----|
|--------------------------------------|
|
| S S S S S S S S S S S  S  S  S  S  S
|---5-4-2---4-2------------------------|
|-7-------5-----5-7-8-9-10-12-14-15-16-|
|--------------------------------------|
|--------------------------------------|
|--------------------------------------|
|--------------------------------------|


  E E S S E E E S S E   E E S S E E E S S E
|---------------------|----------------------|
|---------------------|----------------------|
|-5-5-5-5-5-5-5-5-5-5-|-5-5-5-5-5-5-5-5-5-5--|
|---------------------|----------------------|
|
| W                     W
|---------------------|----------------------|
|---------------------|----------------------|
|---------------------|----------------------|
|---------------------|----------------------|
|---------------------|----------------------|
|---------------------|----------------------|


  E E S S E E E S S E   E E S S E E E S S E   E E S S E E E S S E
|---------------------|---------------------|---------------------|
|---------------------|---------------------|---------------------|
|-5-5-5-5-5-5-5-5-5-5-|-7-7-7-7-7-5-5-------|-5-5-5-5-5-5-5-5-5-5-|
|---------------------|---------------7-7-7-|---------------------|


  E E S S E E E S S E   E E S S E E E S S E   E E S S E E E S S E
|---------------------|---------------------|---------------------|
|---------------------|---------------------|---------------------|
|-5-5-5-5-5-5-5-5-5-5-|-5-5-5-5-5-5-5-5-5-5-|-7-7-7-7-7-5-5-------|
|---------------------|---------------------|---------------7-7-7-|


  S S S S S S S S S S S S S S S S   S S S S S S S S S S S S S S S S
|---------------------------------|---------------------------------|
|---------------------------------|---------------------------------|
|---------------------------------|-5-5-5-5-5-5-5-5-5-5-5-5-5-5-5-5-|
|-5-5-5-5-5-5-5-5-5-5-5-5-5-5-5-5-|---------------------------------|


  S S S S S S S S S S S S S S S S   S S S S S S S S S S S S S S S S
|---------------------------------|---------------------------------|
|---------------------------------|---------------------------------|
|---------------------------------|---------------------------------|
|-4-4-4-4-4-4-4-4-4-4-4-4-4-4-4-4-|-5-5-5-5-5-5-5-5-5-5-5-5-5-5-5-5-|


  E E E E E E E E   E E E E E E E E   E E E E E E E E   E E E E E E E E
|-----------------|-----------------|-----------------|-----------------|
|-----------------|-----------------|-----------------|-----------------|
|-----------------|-3-3-3-3-3-3-3-3-|-----------------|-----------------|
|-1-1-1-1-1-1-1-1-|-----------------|-3-3-3-3-3-3-3-3-|-3-3-3-3-3-3-3-3-|


  E E E E E E E E   E E E E E E E E   E E E E E E E E   E E E E E E E E
|-----------------|-----------------|-----------------|-----------------|
|-----------------|-----------------|-----------------|-----------------|
|-0-0-0-0---------|-----------------|-0-0-0-0---------|-----------------|
|---------3-3-3-3-|-1-1-1-1-1-1-1-1-|---------3-3-3-3-|-2-2-2-2-2-2-2-2-|
|
| Gtr II
| H       H         H       H         H       H         W
|-----------------|-----------------|-----------------|-----------------|
|-----------------|-----------------|-----------------|-----------------|
|-1---------------|---------1-------|-1---------------|-----------------|
|-1-------4-------|-2-------2-------|-2-------4-------|-4---------------|
|-2-------4-------|-2-------2-------|-4-------6-------|-6---------------|
|---------6-------|-4---------------|---------7-------|-6---------------|


  E E E E E E E E   E E E E E E E E   E E E E E E E E   E E E E E E E E
|-----------------|-----------------|-----------------|-----------------|
|-----------------|-----------------|-0-0-0-0---------|-----------------|
|-0-0-0-0---------|-----------------|---------3-3-3-3-|-2-2-2-2-2-2-2-2-|
|---------3-3-3-3-|-1-1-1-1-1-1-1-1-|-----------------|-----------------|
|
| H       H         H       H         H       H         H       H
|-----------------|-----------------|-----------------|-----------------|
|-----------------|-----------------|-----------------|-----------------|
|-----------------|---------1-------|-1---------------|---------3-------|
|-6-------4-------|-2-------2-------|-2-------4-------|-4-------4-------|
|-6-------4-------|-2-------2-------|-4-------6-------|-4-------4-------|
|-7-------6-------|-4---------------|---------7-------|-6---------------|


   E     E     E   E   E   E    E   E      E    E   E   E   E   E   E   E
|---------------------------------------|-----------------------------------|
|---------------------------------------|-----------------------------------|
|--0-----0-----0---0---0---0----0---0---|--0----0---0---0---0---0---0---0---|
|---------------------------------------|-----------------------------------|
|
|  W                                      +W
|---------------------------------------|-----------------------------------|
|---------------------------------------|-----------------------------------|
|--1------------------------------------|-(1)-------------------------------|
|--1------------------------------------|-(1)-------------------------------|
|--2------------------------------------|-(2)-------------------------------|
|---------------------------------------|-----------------------------------|
|
| Gtr III
|  S  S  S  S  S S S S S S S S  S S S S    S  S S S S S S S S S S S S S S S
|---------------------------------------|-----------------------------------|
|---------------------------------------|--4--2-----2---------------2-------|
|---------------------------------------|-------4-3---4-3-1-0-1-3-4---4-3-1-|
|-------------11-9-8-6-5-6-8-9-11-9-8-6-|-----------------------------------|
|-18-16-14-13---------------------------|-----------------------------------|
|---------------------------------------|-----------------------------------|


  E   E   E   E   E   E   E   E      E    E   E   E   E   E   E   E
|---------------------------------|-----------------------------------|
|-3---3---3---3---3---3---3---3---|--3----3---3---3---3---3---3---3---|
|---------------------------------|-----------------------------------|
|---------------------------------|-----------------------------------|
|
| W                                 +W
|---------------------------------|-----------------------------------|
|---------------------------------|-----------------------------------|
|-1-------------------------------|-(1)-------------------------------|
|-2-------------------------------|-(2)-------------------------------|
|-2-------------------------------|-(2)-------------------------------|
|---------------------------------|-----------------------------------|
|
| S S S S S S S S S S S S S S S S    S  S S S S S S S S S S S S S S S
|---------------------------------|-----------------------------------|
|-4-2-----2---------------2-------|--4--2-----2---------------2-------|
|-----4-3---4-3-1-0-1-3-4---4-3-1-|-------4-3---4-3-1-0-1-3-4---4-3-1-|
|---------------------------------|-----------------------------------|
|---------------------------------|-----------------------------------|
|---------------------------------|-----------------------------------|


  E   E   E   E   E   E   E   E      E    E   E   E   E   E   E   E
|---------------------------------|-----------------------------------|
|---------------------------------|-----------------------------------|
|-5---5---5---5---5---5---5---5---|--5----5---5---5---5---5---5---5---|
|---------------------------------|-----------------------------------|
|
| W                                 +W
|---------------------------------|-----------------------------------|
|---------------------------------|-----------------------------------|
|-1-------------------------------|-(1)-------------------------------|
|-2-------------------------------|-(2)-------------------------------|
|-4-------------------------------|-(4)-------------------------------|
|---------------------------------|-----------------------------------|
|
| S S S S S S S S S S S S S S S S    S  S S S S S S S S S S S S S S S
|---------------------------------|-----------------------------------|
|-4-2-----2---------------2-------|--4--2-----2---------------2-------|
|-----4-3---4-3-1-0-1-3-4---4-3-1-|-------4-3---4-3-1-0-1-3-4---4-3-1-|
|---------------------------------|-----------------------------------|
|---------------------------------|-----------------------------------|
|---------------------------------|-----------------------------------|


  E   E   E   E   E   E   E   E      E    E   E   E   E   E   E   E
|---------------------------------|-----------------------------------|
|---------------------------------|-----------------------------------|
|---------------------------------|-----------------------------------|
|-5---5---5---5---5---5---5---5---|--5----5---5---5---5---5---5---5---|
|
| W                                 +W
|---------------------------------|-----------------------------------|
|---------------------------------|-----------------------------------|
|-1-------------------------------|-(1)-------------------------------|
|-1-------------------------------|-(1)-------------------------------|
|-2-------------------------------|-(2)-------------------------------|
|---------------------------------|-----------------------------------|
|
| S S S S S S S S S S S S S S S S    S  S S S S S S S S S S S S S S S
|---------------------------------|-----------------------------3-6-7-|
|-4-2-----2---------------2-------|--4--2-----2-----------2-4-5-------|
|-----4-3---4-3-1-0-1-3-4---4-3-1-|-------4-3---4-3-1-3-4-------------|
|---------------------------------|-----------------------------------|
|---------------------------------|-----------------------------------|
|---------------------------------|-----------------------------------|


   E   E   E   E   E   E   E   E      E    E   E   E   E   E   E   E
|----------------------------------|-----------------------------------|
|----------------------------------|-----------------------------------|
|----------------------------------|-----------------------------------|
|--5---5---5---5---5---5---5---5---|--5----5---5---5---5---5---5---5---|
|
|  W                                 +W
|----------------------------------|-----------------------------------|
|--0-------------------------------|-(0)-------------------------------|
|--1-------------------------------|-(1)-------------------------------|
|--1-------------------------------|-(1)-------------------------------|
|----------------------------------|-----------------------------------|
|----------------------------------|-----------------------------------|
|
|  S S S S S S S S S S S S S S S S    S  S S S S S S S S S S S S S S S
|-11-9-7-6-9-7-6-4-3-4-6-7-9-7-6-4-|-11--9-7-6-9-7-6-4-3-4-6-7-9-7-6-4-|
|----------------------------------|-----------------------------------|
|----------------------------------|-----------------------------------|
|----------------------------------|-----------------------------------|
|----------------------------------|-----------------------------------|
|----------------------------------|-----------------------------------|


   E   E   E   E   E   E   E   E      E    E   E   E   E   E   E   E
|----------------------------------|-----------------------------------|
|--3---3---3---3---3---3---3---3---|--3----3---3---3---3---3---3---3---|
|----------------------------------|-----------------------------------|
|----------------------------------|-----------------------------------|
|
|  W                                 +W
|----------------------------------|-----------------------------------|
|--0-------------------------------|-(0)-------------------------------|
|--1-------------------------------|-(1)-------------------------------|
|--2-------------------------------|-(2)-------------------------------|
|----------------------------------|-----------------------------------|
|----------------------------------|-----------------------------------|
|
|  S S S S S S S S S S S S S S S S    S  S S S S S S S S S S S S S S S
|-11-9-7-6-9-7-6-4-3-4-6-7-9-7-6-4-|-11--9-7-6-9-7-6-4-3-4-6-7-9-7-6-4-|
|----------------------------------|-----------------------------------|
|----------------------------------|-----------------------------------|
|----------------------------------|-----------------------------------|
|----------------------------------|-----------------------------------|
|----------------------------------|-----------------------------------|


   E   E   E   E   E   E   E   E      E    E   E   E   E   E   E   E
|----------------------------------|-----------------------------------|
|----------------------------------|-----------------------------------|
|--5---5---5---5---5---5---5---5---|--5----5---5---5---5---5---5---5---|
|----------------------------------|-----------------------------------|
|
|  W                                 +W
|----------------------------------|-----------------------------------|
|--2-------------------------------|-(2)-------------------------------|
|--1-------------------------------|-(1)-------------------------------|
|--2-------------------------------|-(2)-------------------------------|
|----------------------------------|-----------------------------------|
|----------------------------------|-----------------------------------|
|
|  S S S S S S S S S S S S S S S S    S  S S S S S S S S S S S S S S S
|-11-9-7-6-9-7-6-4-3-4-6-7-9-7-6-4-|-11--9-7-6-9-7-6-4-3-4-6-7-9-7-6-4-|
|----------------------------------|-----------------------------------|
|----------------------------------|-----------------------------------|
|----------------------------------|-----------------------------------|
|----------------------------------|-----------------------------------|
|----------------------------------|-----------------------------------|


   E   E   E   E   E   E   E   E
|----------------------------------|
|----------------------------------|
|----------------------------------|
|--5---5---5---5---5---5---5---5---|
|
|  W
|----------------------------------|
|--0-------------------------------|
|--1-------------------------------|
|--1-------------------------------|
|----------------------------------|
|----------------------------------|
|
|  S S S S S S S S S S S S S S S S
|-11-9-7-6-9-7-6-4-7-6-4-3-6-4-3---|
|--------------------------------5-|
|----------------------------------|
|----------------------------------|
|----------------------------------|
|----------------------------------|


   E    E   E    E     E E E E   E E Q  H
|------------------------------|-------------*|
|------------------------------|-------------*|
|------------------------------|-------------*|
|--5----5---5----5-----5-5-5-5-|-5-----------*|
|
| +W                             Q   Q  H
|------------------------------|-------------*|
|-(0)--------------------------|-4-----------*|
|-(1)--------------------------|-1-----------*|
|-(1)--------------------------|-------------*|
|------------------------------|-2-----------*|
|------------------------------|-------------*|
|
|  S  S S S S S  S  S  H         Q   Q  H
|---------3-4-7-11-15-16-------|-------------*|
|-------4----------------------|-------------*|
|-----4------------------------|-8-----------*|
|--6---------------------------|-6-----------*|
|------------------------------|-------------*|
|------------------------------|-7-----------*|




--------------------------------------------------------------------------------


Duration Legend
---------------
W - whole; H - half; Q - quarter; E - 8th; S - 16th; T - 32nd; X - 64th; a - acciaccatura
+ - note tied to previous; . - note dotted; .. - note double dotted
Uncapitalized letters represent notes that are staccato (1/2 duration)
Irregular groupings are notated above the duration line
Duration letters will always appear directly above the note/fret number it represents the
duration for.  Duration letters with no fret number below them represent rests.  Multi-
bar rests are notated in the form Wxn, where n is the number of bars to rest for.  Low
melody durations appear below the staff

Tablature Legend
----------------
 h   - hammer-on
 p   - pull-off
 b   - bend
 pb  - pre-bend
 r   - bend release (if no number after the r, then release immediately)
 /\  - slide into or out of (from/to "nowhere")
 s   - legato slide
 S   - shift slide
<n> - natural harmonic
[n]  - artificial harmonic
n(n) - tapped harmonic
 ~   - vibrato
 tr  - trill
 T   - tap
 TP  - trem. picking
 PM  - palm muting
\n/  - tremolo bar dip; n = amount to dip
 \n  - tremolo bar down
 n/  - tremolo bar up
/n\  - tremolo bar inverted dip
 =   - hold bend; also acts as connecting device for hammers/pulls
 <> - volume swell (louder/softer)
 x   - on rhythm slash represents muted slash
 o   - on rhythm slash represents single note slash

Misc Legend
-----------
 |  - bar
||  - double bar
||o - repeat start
o|| - repeat end
*|  - double bar (ending)
 :  - bar (freetime)
 $  - Segno
 &  - Coda
Tempo markers - <E/E./Q/Q./H/H.> = BPM(8/16=s8/s16), where s8 = swing 8ths, s16 = swing 16ths

comments
We did not receive enough feedback on this tab! Please rate:
print report bad tab
1 2 3 4 5
I want to post or [tab]
guest
You may want to rate the tab now too:
select rating
Please do not post tabs as comments. Select "correction" instead!