Oops, an error
Loading. Please wait.

Burn This City Acoustic Tab

ver1
ver1

Whole song

Interactive

More versions @911Tabs.com
369 views 3 this week
no commentswrite comment
1 2 3 4 5
please rate
Autoscroll
+/-
esc
set tempo
stop
Contributor
Difficulty
Tuning
novice
D A D G B E
Hey! There's an official Ultimate Guitar app which is ideal
for learning songs when you're away from computer. Get the app
WARNING: You are trying to view
                                    content from Ultimate-Guitar.com
                                    in an unauthorized application,
                                    which is prohibited.

                                    Please use an official Ultimate
                                    Guitar Tabs application for iPhone,
                                    iPad or Android to access legitimate
                                    chords, guitar, bass, and drum tabs
                                    from Ultimate-Guitar.com database.

                                    Type "ultimate guitar tabs" in Apple
                                    App Store's or Android Market's
                                    search to find the application.
This is my first tab so please be nice.

Tab was made from this video (actual song starts at around 28 seconds):
 http://www.youtube.com/watch?v=b20s3uFeEeM

Drop D tuning

Intro:

e|--------------0-----------0--|------------------------|
B|------------------0----------|---0----0---------0-----|
G|------8----------------------|---------------6-----6--|
D|---6----6-------------6------|-----6------4-----------|
A|-----------------------------|------------------------|
D|-----------------------------|------------------------|

e|--------------0-----------0--|------------------------|
B|------------------0----------|---0----0---------0-----|
G|------8----------------------|---------------6-----6--|
D|---6----6-------------6------|-----6------4-----------|
A|-----------------------------|------------------------|
D|-----------------------------|------------------------|

e|--------------0-----------0--|------------------------|
B|------------------0----------|------------------------|
G|------4----------------------|-----11---11---11---11--|
D|---2----2-------------2------|---9----9----8----8-----|
A|-----------------------------|------------------------|
D|-----------------------------|------------------------|

Verse:

e|--------------0-----------0--|------------------------|
B|------------------0----------|---0----0---------0-----|
G|------8----------------------|---------------6-----6--|
D|---6----6-------------6------|-----6------4-----------|
A|-----------------------------|------------------------|
D|-----------------------------|------------------------|

e|--------------0-----------0--|------------------------|
B|------------------0----------|---0----0---------0-----|
G|------8----------------------|---------------6-----6--|
D|---6----6-------------6------|-----6------4-----------|
A|-----------------------------|------------------------|
D|-----------------------------|------------------------|

e|--------------0-----------0--|------------------------|
B|------------------0----------|------------------------|
G|------4----------------------|-----11---11---11---11--|
D|---2----2-------------2------|---9----9----8----8-----|
A|-----------------------------|------------------------|
D|-----------------------------|------------------------|

e|--------------0-----------0--|------------------------|
B|------------------0----------|---0----0---------0-----|
G|------8----------------------|---------------6-----6--|
D|---6----6-------------6------|-----6------4-----------|
A|-----------------------------|------------------------|
D|-----------------------------|------------------------|

e|--------------0-----------0--|------------------------|
B|------------------0----------|---0----0---------0-----|
G|------8----------------------|---------------6-----6--|
D|---6----6-------------6------|-----6------4-----------|
A|-----------------------------|------------------------|
D|-----------------------------|------------------------|

e|--------------0-----------0--|------------------------|
B|------------------0----------|------------------------|
G|------4----------------------|-----11---11---11---11--|
D|---2----2-------------2------|---9----9----8----8-----|
A|-----------------------------|------------------------|
D|-----------------------------|------------------------|

e|-----------------|-----------------|-----------------|-----------------|
B|-----0-------0---|-----0-------0---|-----0-------0---|-----0-------0---|
G|---4---4---4---4-|---6---6---6---6-|---8---8---8---8-|---8---8---6---6-|
D|-2-------2-------|-4-------4-------|-6-------6-------|-6-------4-------|
A|-----------------|-----------------|-----------------|-----------------|
D|-----------------|-----------------|-----------------|-----------------|

e|-----------------|-----------------|-----------------|-------|
B|-----0-------0---|-----0-------0---|-----0-------0---|---0---|
G|---4---4---4---4-|---6---6---6---6-|---8---8---8---8-|---8---|
D|-2-------2-------|-4-------4-------|-6-------6-------|---6---|
A|-----------------|-----------------|-----------------|-------|
D|-----------------|-----------------|-----------------|-------|

Chorus

e|-------------------------------------|
B|-------------------------------------|
G|-(11)-(11)-(11)-(11)-(11)-(11)-(11)--|
D|--9----9----9----9----9----9----9----| x2
A|--9----9----9----9----9----9----9----|
D|--9----9----9----9----9----9----9----|

e|-------------------------------------|
B|-------------------------------------|
G|-(11)-(11)-(11)-(11)-(11)-(11)-(11)--|
D|--8----8----8----8----8----8----8----| x2
A|--9----9----9----9----9----9----9----|
D|--8----8----8----8----8----8----8----|

e|---------------------------------|
B|---------------------------------|
G|-(8)-(8)-(8)-(8)-(8)-(8)-(8)-(8)-|
D|--6---6---6---6---6---6---6---6--| x2
A|--6---6---6---6---6---6---6---6--|
D|--6---6---6---6---6---6---6---6--|

e|---------------------------------|
B|---------------------------------|
G|-(4)-(4)-(4)-(4)-(4)-(4)-(4)-(4)-|
D|--2---2---2---2---2---2---2---2--| x2
A|--2---2---2---2---2---2---2---2--|
D|--2---2---2---2---2---2---2---2--|

e|---------------------------------------|
B|---------------------------------------|
G|-(11)-(11)-(11)--------(11)-(11)-(11)--|
D|--9----9----9----(9)----9----9----9----| 
A|--9----9----9----(9)----9----9----9----|
D|--9----9----9----(9)----9----9----9----|

e|------------------------------------------|
B|------------------------------------------|
G|--------(11)-(11)---------(11)-(11)-(11)--|
D|--(9)----9----9-----(9)----9----9----9----| 
A|--(9)----9----9-----(9)----9----9----9----|
D|--(9)----9----9-----(9)----9----9----9----|

e|---------------------------------------|
B|---------------------------------------|
G|-(11)-(11)-(11)--------(11)-(11)-(11)--|
D|--8----8----8----(9)----8----8----8----| 
A|--9----9----9----(9)----9----9----9----|
D|--8----8----8----(8)----8----8----8----|

e|------------------------------------------|
B|------------------------------------------|
G|--(11)--(11)-(11)---------(11)-(11)-(11)--|
D|--(8)----8----8-----(8)----8----8----8----| 
A|--(9)----9----9-----(9)----9----9----9----|
D|--(8)----8----8-----(8)----8----8----8----|

e|---------------------------------|
B|---------------------------------|
G|-(8)-(8)-(8)-(8)-(8)-(8)-(8)-(8)-|
D|--6---6---6---6---6---6---6---6--| x2
A|--6---6---6---6---6---6---6---6--|
D|--6---6---6---6---6---6---6---6--|

e|---------------------------------|
B|---------------------------------|
G|-(4)-(4)-(4)-(4)-(4)-(4)-(4)-(4)-|
D|--2---2---2---2---2---2---2---2--|
A|--2---2---2---2---2---2---2---2--|
D|--2---2---2---2---2---2---2---2--|

e|---------------------------------|
B|---------------------------------|
G|-(6)-(6)-(6)-(6)-(6)-(6)-(6)-(6)-|
D|--4---4---4---4---4---4---4---4--|
A|--4---4---4---4---4---4---4---4--|
D|--4---4---4---4---4---4---4---4--|

e|--------------0-----------0--|------------------------|
B|------------------0----------|---0----0---------0-----|
G|------8----------------------|---------------6-----6--|
D|---6----6-------------6------|-----6------4-----------|
A|-----------------------------|------------------------|
D|-----------------------------|------------------------|






Verse 2:

e|-------------------------|-------------------------|
B|-0--0--0--0--0--0--0--0--|-0--0--0--0--0--0--0--0--|
G|-8--8--8--8--8--8--8--8--|-8--8--8--8--6--6--6--6--|
D|-6--6--6--6--6--6--6--6--|-6--6--6--6--4--4--4--4--| x2
A|-------------------------|-------------------------|
D|-------------------------|-------------------------|

e|-------------------------|--------------------------|
B|-0--0--0--0--0--0--0--0--|-0--0--0--0--0--0--0--0---|
G|-4--4--4--4--4--4--4--4--|-11-11-11-11-11-11-11-11--|
D|-2--2--2--2--2--2--2--2--|-9--9--9--9--8--8--8--8---|
A|-------------------------|--------------------------|
D|-------------------------|--------------------------|

e|-----------------|-----------------|-----------------|-----------------|
B|-----0-------0---|-----0-------0---|-----0-------0---|-----0-------0---|
G|---4---4---4---4-|---6---6---6---6-|---8---8---8---8-|---8---8---6---6-|
D|-2-------2-------|-4-------4-------|-6-------6-------|-6-------4-------|
A|-----------------|-----------------|-----------------|-----------------|
D|-----------------|-----------------|-----------------|-----------------|

e|-----------------|-----------------|-----------------|-------|
B|-----0-------0---|-----0-------0---|-----0-------0---|---0---|
G|---4---4---4---4-|---6---6---6---6-|---8---8---8---8-|---8---|
D|-2-------2-------|-4-------4-------|-6-------6-------|---6---|
A|-----------------|-----------------|-----------------|-------|
D|-----------------|-----------------|-----------------|-------|

REPEAT CHORUS

Bridge:

e|---------------------------------|---------------------------------|
B|---------------------------------|---------------------------------|
G|-(8)-(8)-(8)-(8)-(8)-(8)-(8)-(8)-|-(6)-(6)-(6)-(6)-(6)-(6)-(6)-(6)-|
D|--6---6---6---6---6---6---6---6--|--4---4---4---4---4---4---4---4--|
A|--6---6---6---6---6---6---6---6--|--4---4---4---4---4---4---4---4--|
D|--6---6---6---6---6---6---6---6--|--4---4---4---4---4---4---4---4--|

e|---------------------------------|---------------------------------|
B|---------------------------------|---------------------------------|
G|-(4)-(4)-(4)-(4)-(4)-(4)-(4)-(4)-|-(4)-(4)-(4)-(4)----6----6----6--|
D|--2---2---2---2---2---2---2---2--|--2---2---2---2-----4----4----4--|
A|--2---2---2---2---2---2---2---2--|--2---2---2---2-----4----4----4--|
D|--2---2---2---2---2---2---2---2--|--2---2---2---2-----4----4----4--|

e|---------------------------------|---------------------------------|
B|---------------------------------|---------------------------------|
G|-(8)-(8)-(8)-(8)-(8)-(8)-(8)-(8)-|-(6)-(6)-(6)-(6)-(6)-(6)-(6)-(6)-|
D|--6---6---6---6---6---6---6---6--|--4---4---4---4---4---4---4---4--|
A|--6---6---6---6---6---6---6---6--|--4---4---4---4---4---4---4---4--|
D|--6---6---6---6---6---6---6---6--|--4---4---4---4---4---4---4---4--|

e|---------------------------------|---------------------------------|
B|---------------------------------|---------------------------------|
G|-(4)-(4)-(4)-(4)-(4)-(4)-(4)-(4)-|-(4)/(6)-(6)-(6)-(6)-(6)-(6)-(6)-|
D|--2---2---2---2---2---2---2---2--|--2-/-4---4---4---4---4---4---4--|
A|--2---2---2---2---2---2---2---2--|--2-/-4---4---4---4---4---4---4--|
D|--2---2---2---2---2---2---2---2--|--2-/-4---4---4---4---4---4---4--|
e|---------------------------------|---------------------------------|
B|---------------------------------|---------------------------------|
G|-(6)-(6)-(6)-(6)-(6)-(6)-(6)-(6)-|--11--11--11--11--11--11--11--11-|
D|--4---4---4---4---4---4---4---4--|--9---9---9---9---9---9---9---9--|
A|--4---4---4---4---4---4---4---4--|---------------------------------|
D|--4---4---4---4---4---4---4---4--|---------------------------------|
                                
e|---------------------------------|---------------------------------|
B|---------------------------------|---------------------------------|
G|--11--11--11--11--11--11--11--11-|--11--11--11--11--11--11--11--11-|
D|--9---9---9---9---9---9---9---9--|--8---8---8---8---8---8---8---8--|
A|---------------------------------|---------------------------------|
D|---------------------------------|---------------------------------|

e|---------------------------------|---------------------------------|
B|---------------------------------|---------------------------------|
G|--11--11--11--11--11--11--11--11-|--8---8---8---8---8---8---8---8--|
D|--8---8---8---8---8---8---8---8--|--6---6---6---6---6---6---6---6--|
A|---------------------------------|---------------------------------|
D|---------------------------------|---------------------------------|

e|---------------------------------|---------------------------------|
B|---------------------------------|---------------------------------|
G|--8---8---8---8---8---8---8---8--|--4---4---4---4---4---4---4---4--|
D|--6---6---6---6---6---6---6---6--|--2---2---2---2---2---2---2---2--|
A|---------------------------------|---------------------------------|
D|---------------------------------|---------------------------------|

e|---------------------------------|
B|---------------------------------|
G|--6---6---6---6---6---6---6---6--|
D|--4---4---4---4---4---4---4---4--|
A|---------------------------------|
D|---------------------------------|

Solo:

e|---------------------------------|---------------------------------|
B|---------------------------------|---------------------------------|
G|-11---8-------9---8-------11---8-|------9---8-------9---8----------|
D|----------9-----------9----------|--9-----------9----------11---9--| x3
A|---------------------------------|---------------------------------|
D|---------------------------------|---------------------------------|

e|---------------------------------|---------------------------------|
B|-12-----------12----------12~----|---------------------------------|
G|------9---8-------9---8----------|--11~---9---8-/-9-\-8------------|
D|---------------------------------|------------------------9-h-11---|
A|---------------------------------|---------------------------------|
D|---------------------------------|---------------------------------|

Repeat chorus, getting slower at the end. 

Finish with:

E|-------|
B|-------|
G|--(11)-|
D|---9---|
A|---9---|
D|---9---|
comments
We did not receive enough feedback on this tab! Please rate:
print report bad tab
1 2 3 4 5
I want to post or [tab]
guest
You may want to rate the tab now too:
select rating
Please do not post tabs as comments. Select "correction" instead!