Oops, an error
Loading. Please wait.

Callous Tab

1,806 views 1 this week
no commentswrite comment
1 2 3 4 5
excellent!
x 1
Autoscroll
+/-
esc
set tempo
stop
Contributor
Difficulty
Tuning
novice
C G C F A D
WARNING: You are trying to view
                                    content from Ultimate-Guitar.com
                                    in an unauthorized application,
                                    which is prohibited.

                                    Please use an official Ultimate
                                    Guitar Tabs application for iPhone,
                                    iPad or Android to access legitimate
                                    chords, guitar, bass, and drum tabs
                                    from Ultimate-Guitar.com database.

                                    Type "ultimate guitar tabs" in Apple
                                    App Store's or Android Market's
                                    search to find the application.
-------------------------------------------------------------------------------
                             Callous - Sonic Syndicate
-------------------------------------------------------------------------------
Tabbed by: MrSakito
Email: mrsakito@hotmail.com

Tuning: Drop C

all the (.) under a note means it's palm muted.

Intro

D|---------------------------------------------------------------------------|
A|---------------------------------------------------------------------------|
F|---------------------------------------------------------------------------|
C|-5----8----00---00---00---00---33------------------------------------------|
G|-5----8----00---00---00---00---33------------------------------------------|
C|-5----8----00---00---00---00---33------------------------------------------|
             ..   ..   ..   ..

D|---------------------------------------------------------------------------|
A|---------------------------------------------------------------------------|
F|---------------------------------------------------------------------------|
C|-00000---00000---57--888--8888--7777--101010-------------------------------|
G|-00000---00000---57--888--8888--7777--101010-------------------------------|
C|-00000---00000---57--888--8888--7777--101010-------------------------------|
   .....   .....       ...  ....  ....  ......
D|---------------------------------------------------------------------------|
A|---------------------------------------------------------------------------|
F|---------------------------------------------------------------------------|
C|-000-000-0-0-0---7-5-7---888--8888--7777--3333-----------------------------|
G|-000-000-0-0-0---7-5-7---888--8888--7777--3333-----------------------------|
C|-000-000-0-0-0---7-5-7---888--8888--7777--3333-----------------------------|
   ... ... . . .   . . .   ...  ....  ....  ....

D|---------------------------------------------------------------------------|
A|---------------------------------------------------------------------------|
F|---------------------------------------------------------------------------|
C|-00000---00000---57--888--8888--7777--101010-------------------------------|
G|-00000---00000---57--888--8888--7777--101010-------------------------------|
C|-00000---00000---57--888--8888--7777--101010-------------------------------|
   .....   .....       ...  ....  ....  ......
D|---------------------------------------------------------------------------|
A|---------------------------------------------------------------------------|
F|---------------------------------------------------------------------------|
C|-000-000-0-0-0---7-5-7---888--8888--7777--3333-----------------------------|
G|-000-000-0-0-0---7-5-7---888--8888--7777--3333-----------------------------|
C|-000-000-0-0-0---7-5-7---888--8888--7777--3333-----------------------------|
   ... ... . . .   . . .   ...  ....  ....  ....
Verse riff (4 times)

D|---------------------------------------------------------------------------|
A|---------------------------------------------------------------------------|
F|---------------------------------------------------------------------------|
C|-0000--00-00---000000----8888-88--77--10101010-----------------------------|
G|-0000--00-00---000000----8888-88--77--10101010-----------------------------|
C|-0000--00-00---000000----8888-88--77--10101010-----------------------------|
   ....          ......    ....

Bride (play this twice)
D|--------------------------------------------------------------------------|
A|-10-8---------------------------------------------------------------------|
F|-x--x----7---9---10--12---------------------------------------------------|
C|-7--5----x---x---x---x----------------------------------------------------|
G|---------5---7---8---10---------------------------------------------------|
C|--------------------------------------------------------------------------|

Chorus (twice)
D|------------------------------------------------------------------------------|
A|------------------------------------------------------------------------------|
F|------------------------------------------------------------------------------|
C|-3--5--0----3--3----7--5---333333--2------------------------------------------|
G|-1--3--0----3--1----5--3---111111--0------------------------------------------|
C|-------0----3-----------------------------------------------------------------|
                             ......

Intro riff again
D|---------------------------------------------------------------------------|
A|---------------------------------------------------------------------------|
F|---------------------------------------------------------------------------|
C|-5----8----00---00---00---00---33------------------------------------------|
G|-5----8----00---00---00---00---33------------------------------------------|
C|-5----8----00---00---00---00---33------------------------------------------|
             ..   ..   ..   ..

D|---------------------------------------------------------------------------|
A|---------------------------------------------------------------------------|
F|---------------------------------------------------------------------------|
C|-00000---00000---57--888--8888--7777--101010-------------------------------|
G|-00000---00000---57--888--8888--7777--101010-------------------------------|
C|-00000---00000---57--888--8888--7777--101010-------------------------------|
   .....   .....       ...  ....  ....  ......
D|---------------------------------------------------------------------------|
A|---------------------------------------------------------------------------|
F|---------------------------------------------------------------------------|
C|-000-000-0-0-0---7-5-7---888--8888--7777--3333-----------------------------|
G|-000-000-0-0-0---7-5-7---888--8888--7777--3333-----------------------------|
C|-000-000-0-0-0---7-5-7---888--8888--7777--3333-----------------------------|
   ... ... . . .   . . .   ...  ....  ....  ....

D|---------------------------------------------------------------------------|
A|---------------------------------------------------------------------------|
F|---------------------------------------------------------------------------|
C|-00000---00000---57--888--8888--7777--101010-------------------------------|
G|-00000---00000---57--888--8888--7777--101010-------------------------------|
C|-00000---00000---57--888--8888--7777--101010-------------------------------|
   .....   .....       ...  ....  ....  ......
D|---------------------------------------------------------------------------|
A|---------------------------------------------------------------------------|
F|---------------------------------------------------------------------------|
C|-000-000-0-0-0---7-5-7---888--8888--7777--3333-----------------------------|
G|-000-000-0-0-0---7-5-7---888--8888--7777--3333-----------------------------|
C|-000-000-0-0-0---7-5-7---888--8888--7777--3333-----------------------------|
   ... ... . . .   . . .   ...  ....  ....  ....
Verse riff (4 times)

D|---------------------------------------------------------------------------|
A|---------------------------------------------------------------------------|
F|---------------------------------------------------------------------------|
C|-0000--00-00---000000----8888-88--77--10101010-----------------------------|
G|-0000--00-00---000000----8888-88--77--10101010-----------------------------|
C|-0000--00-00---000000----8888-88--77--10101010-----------------------------|
   ....          ......    ....

Bride (play this twice)
D|--------------------------------------------------------------------------|
A|-10-8---------------------------------------------------------------------|
F|-x--x----7---9---10--12---------------------------------------------------|
C|-7--5----x---x---x---x----------------------------------------------------|
G|---------5---7---8---10---------------------------------------------------|
C|--------------------------------------------------------------------------|

Chorus (twice)
D|---------------------------------------------------------------------------|
A|---------------------------------------------------------------------------|
F|---------------------------------------------------------------------------|
C|-3--5--0----3--3----7--5---333333--2---------------------------------------|
G|-1--3--0----3--1----5--3---111111--0---------------------------------------|
C|-------0----3--------------------------------------------------------------|
                             ......
Bridge 2
D|---------------------------------------------------------------------------|
A|---------------------------------------------------------------------------|
F|---------------------------------------------------------------------------|
C|-1010101010101010--1010101010101010--55555555--5555555--5555--7777---------|
G|-8-8-8-8-8-8-8-8---1010101010101010--33333333--3333333--5555--7777---------|
C|-8-8-8-8-8-8-8-8---8-8-8-8-8-8-8-8---33333333--3333333--5555--7777---------|

D|---------------------------------------------------------------------------|
A|---------------------------------------------------------------------------|
F|---------------------------------------------------------------------------|
C|-1010101010101010--1010101010101010--55555555--5555555---5555--7777--8-----|
G|-8-8-8-8-8-8-8-8---1010101010101010--33333333--3333333---5555--7777--8-----|
C|-8-8-8-8-8-8-8-8---8-8-8-8-8-8-8-8---33333333--3333333---5555--7777--8-----|

After the clean part

D|---------------------------------------------------------------------------|
A|---------------------------------------------------------------------------|
F|---------------------------------------------------------------------------|
C|-888888--7--8---0--3--3--7--5--333333--2-----------------------------------|
G|-888888--7--8---0--3--1--5--3--111111--0-----------------------------------|
C|-888888--7--8---0--3-------------------------------------------------------|
   ......                        ......

Chorus (three times)                          end with
D|---------------------------------------------------------------------------|
A|---------------------------------------------------------------------------|
F|---------------------------------------------------------------------------|
C|-3--5--0----3--3----7--5---333333--2------------3--------------------------|
G|-1--3--0----3--1----5--3---111111--0------------1--------------------------|
C|-------0----3--------------------------------------------------------------|
                             ......
| /  slide up
| \  slide down
| h  hammer-on
| p  pull-off
| ~  vibrato
| +  harmonic
| x  Mute note

===============================================================================
comments
We did not receive enough feedback on this tab! Please rate:
1 2 3 4 5
I want to post or [tab]
guest
You may want to rate the tab now too:
select rating
Please do not post tabs as comments. Select "correction" instead!