Oops, an error
Loading. Please wait.

Denied Tab

ver1
ver1

Whole song

Interactive

More versions @911Tabs.com
20,745 views 12 this week
1 commentread comment
1 2 3 4 5
excellent!
x 2
add to favorites launch autoscroll
font size
0
reset
Autoscroll
+/-
esc
set tempo
stop
Contributor
Difficulty
Tuning
intermediate
C G C F A D
WARNING: You are trying to view
                                    content from Ultimate-Guitar.com
                                    in an unauthorized application,
                                    which is prohibited.

                                    Please use an official Ultimate
                                    Guitar Tabs application for iPhone,
                                    iPad or Android to access legitimate
                                    chords, guitar, bass, and drum tabs
                                    from Ultimate-Guitar.com database.

                                    Type "ultimate guitar tabs" in Apple
                                    App Store's or Android Market's
                                    search to find the application.
Sonic Syndicate - Denied
Drop C Tuning

I found this tab on a website and thought I'd tab and post it on here for all to see.
I take no credit for this tab, which can be found at:
'http://www.songsterr.com/a/wa/song?id=24248'

Enjoy!



PLAYING ORDER:

INTRO
VERSE
PRE-CHORUS
CHORUS
VERSE      (play twice)
PRE-CHORUS (play once)
CHORUS
INTERLUDE
PRE-CHORUS
BREAKDOWN
CHORUS
OUTRO 


INTRO/CHORUS

  Guitar 1: 
D|-----------------------------------------|-----------------------------------------|
A|-----------------------------------------|-----------------------------------------|
F|--10-10-10-10--10-10-10-10--12-12-12-12--|--10-10-10-10--10-10-10-10--12-12-12-12--|
C|---x--x--x--x---x--x--x--x---x--x--x--x--|---x--x--x--x---x--x--x--x---x--x--x--x--|\
G|---8--8--8--8---8--8--8--8--10-10-10-10--|---8--8--8--8---8--8--8--8--10-10-10-10--| \
C|-----------------------------------------|-----------------------------------------|  \
                                                                                        |x2
D|-----------------------------------------|-----------------------------------------|  /
A|-----------------------------------------|-----------------------------------------| /
F|--14-14-14-14--14-14-14-14--15-15-15-15--|--12-12-12-12--12-12-12-12---7--7--7--7--|/
C|---x--x--x--x---x--x--x--x---x--x--x--x--|---x--x--x--x---x--x--x--x---x--x--x--x--|
G|--12-12-12-12--12-12-12-12--13-13-13-13--|--10-10-10-10--10-10-10-10---5--5--5--5--|
C|-----------------------------------------|-----------------------------------------|



  Guitar 2:                            
D|-----------------------------------------|-----------------------------------------|
A|-----------------------------------------|-----------------------------------------|
F|-----------------------------------------|-----------------------------------------|
C|---0-0-0-0--0-0-0-0---0-0-0-0--0-0-0-0---|---8-8-8-8--8-8-8-8---8-8-8-8--8-8-8-8---|\
G|---0-0-0-0--0-0-0-0---0-0-0-0--0-0-0-0---|---8-8-8-8--8-8-8-8---8-8-8-8--8-8-8-8---| \
C|---0-0-0-0--0-0-0-0---0-0-0-0--0-0-0-0---|---8-8-8-8--8-8-8-8---8-8-8-8--8-8-8-8---|  \
                                                                                        |x2
D|-----------------------------------------|--------------------|--------------------|  /
A|-----------------------------------------|--------------------|--------------------| /
F|-----------------------------------------|--------------------|--------------------|/
C|---3-3-3-3--3-3-3-3---3-3-3-3--3-3-3-3---|---2-2-2-2--2-2-2-2-|-2-2-2-2--------3~--|
G|---3-3-3-3--3-3-3-3---3-3-3-3--3-3-3-3---|---3-3-3-3--3-3-3-3-|-3-3-3-3--0-0-------|
C|---3-3-3-3--3-3-3-3---3-3-3-3--3-3-3-3---|---2-2-2-2--2-2-2-2-|-2-2-2-2--0-0-------|

                                                                ^first / second ending
                                                                           v
                                                               D|--------------------|
                                                               A|--------------------|
                                                               F|--------------------|
                                                               C|-2-2-2-2--0-0-0-0---|
                                                               G|-3-3-3-3--0-0-0-0---|
                                                               C|-2-2-2-2--0-0-0-0---|
                                                                           . . . .


VERSES

  Guitar 1:
D|-----------------------------------|---------------------------------------|
A|------3---3-------6-5---6---1---3--|------3---3-------1-----1-------3------|
F|-----------------------------------|--------------------2-------2----------|
C|--0-0---0---0-0-0-----0---0---0----|--0-0---0---0-0-0-----0---0---0--------|\
G|-----------------------------------|---------------------------------------| \
C|-----------------------------------|---------------------------------------|  \
                                                                                |x3
D|-----------------------------------|---------------------------------------|  /
A|------3---3-------5-----5---6---3--|------6---6---3---8-----1-----3--------| /
F|-----------------------------------|---------------------------------------|/
C|--0-0---0---0-0-0---0-0---0---0----|--0-0---0---0---0---0-0---0-0---0------|
G|-----------------------------------|---------------------------------------|
C|-----------------------------------|---------------------------------------|



  Guitar 2:                                                                  
D|----------------|----------------|----------------|------------------|
A|----------------|----------------|----------------|------------------|\
F|----------------|----------------|----------------|------------------| \__x1
C|--0-0-----------|----------------|--0-0-----------|--------------0~--| /
G|--0-0-----------|----------------|--0-0-----------|--------------0~--|/
C|--0-0-----------|----------------|--0-0-----------|--------------0~--|

D|---------------------------------|-----------------------------------|
A|---------------------------------|-----------------------------------|
F|---------------------------------|-----------------------------------|
C|--0-0----------------------------|--0-0----0-0----0-0-0-0----0-0-----|\
G|--0-0----------------------------|--0-0----0-0----0-0-0-0----0-0-----| \ 
C|--0-0----------------------------|--0-0----0-0----0-0-0-0----0-0-----|  \
                                                                          |__x2
D|---------------------------------|-----------------------------------|  /
A|---------------------------------|-----------------------------------| /
F|---------------------------------|-----------------------------------|/
C|--0-0------------------------0~--|--0-0----0-0----0-0-0-0----0-0-----|
G|--0-0------------------------0~--|--0-0----0-0----0-0-0-0----0-0-----|
C|--0-0------------------------0~--|--0-0----0-0----0-0-0-0----0-0-----|



PRE-CHORUS

  Guitar 1:
D|-------------------------------------|---------------------------------------|
A|-------------------------------------|---------------------------------------|
F|-------------------------------------|------3---2-------2---3---2---2--------|
C|------3---2---------3---2---3-2-0----|--0-0---------3-3---------------3------|\
G|--1-1---------1-1-1------------------|---------------------------------------| \
C|-------------------------------------|---------------------------------------|  \
                                                                                  |__x2
D|-------------------------------------|---------------------------------------|  /
A|-------------------------------------|---------------------------------------| /
F|-------------------------------------|------3---2-------2-------0------------|/
C|------3---2---------3---2---3-2-0----|--0-0---------3-3-----3-------2-3------|
G|--1-1---------1-1-1------------------|---------------------------------------|
C|-------------------------------------|---------------------------------------|


  Guitar 2:                                                                    
D|--------------------------------------|--------------------------------------|
A|--------------------------------------|--------------------------------------|\
F|--3-3-3-3--3-3-3-3--3-3-3-3--3-3-3-3--|--7-7-7-7--7-7-7-7--5-5-5-5--5-5-5-5--| \__x4
C|--3-3-3-3--3-3-3-3--3-3-3-3--3-3-3-3--|--7-7-7-7--7-7-7-7--5-5-5-5--5-5-5-5--| /
G|--1-1-1-1--1-1-1-1--1-1-1-1--1-1-1-1--|--5-5-5-5--5-5-5-5--3-3-3-3--3-3-3-3--|/
C|--------------------------------------|--------------------------------------|
        



INTERLUDE

  Guitar 1:
D|-----------------------------------------|-----------------------------------------|
A|-----------1-----------------1-----------|-----------------------------------------|
F|-------3-3---3-2-3-------3-3---3-2-3-----|---2-2-2-2--2-2-2-2--2-2-2-2--0-0-0-0----|
C|-----------------------------------------|-----------------------------------------|
G|---1-1---------------1-1-----------------|-----------------------------------------|
C|-----------------------------------------|-----------------------------------------|
                                                                                     
D|-----------------------------------------|-----------------------------------------|
A|-----------1-----------------1-3-1-------|-----------1-----------------------------|
F|-------3-3---3-2-3-------3-3-------3-----|---3-2-0-----3-2-0-2-0-------0-2-3-------|
C|-----------------------------------------|---------3-------------3-2-3-------------|
G|---1-1---------------1-1-----------------|-----------------------------------------|
C|-----------------------------------------|-----------------------------------------|

D|-----------------------------------------|-----------------------------------------|
A|-----------1-----------------1-----------|-----------1-----------------------------|
F|-------3-3---3-2-3-------3-3---3-2-3-----|---3-2-0-----3-2-0-2-0-3-2-3-2-0---------|
C|-----------------------------------------|---------3-----------------------3-------|
G|---1-1---------------1-1-----------------|-----------------------------------------|
C|-----------------------------------------|-----------------------------------------|

D|-----------------------------------------|-----------------------------------------|
A|-----------1-----------------1-3-1-------|-----------1-----------------------------|
F|-------3-3---3-2-3-------3-3-------3-----|---3-2-0-----3-2-0-2-0-------0-2-3-------|
C|-----------------------------------------|---------3-------------3-2-3-------------|
G|---1-1---------------1-1-----------------|-----------------------------------------|
C|-----------------------------------------|-----------------------------------------|

  Guitar 2:                                                                          
D|-----------------------------------------|-----------------------------------------|
A|-----------------------------------------|-----------------------------------------|
F|---3-3---------------3-3-----------------|---7-7-7-7--7-7-7-7--7-7-7-7--5-5-5-5----|
C|---3-3---------------3-3-----------------|---7-7-7-7--7-7-7-7--7-7-7-7--5-5-5-5----|\
G|---1-1---------------1-1-----------------|---5-5-5-5--5-5-5-5--5-5-5-5--3-3-3-3----| \
C|-----------------------------------------|-----------------------------------------|  \
                                                                                        |__x2
D|-----------------------------------------|-----------------------------------------|  /
A|-----------------------------------------|-----------------------------------------| /
F|---3-3---------------3-3-----------------|---7-7-7-X--7-7-7-X--7-7-7-5-(5)-5-5-X---|/
C|---3-3---------------3-3-----------------|---7-7-7-X--7-7-7-X--7-7-7-5-(5)-5-5-X---|
G|---1-1---------------1-1-----------------|---5-5-5-X--5-5-5-X--5-5-5-3-(3)-3-3-X---|
C|-----------------------------------------|-----------------------------------------|



BREAKDOWN

  Guitar 1:
D|-----------------------------------------|-----------------------------------------|
A|-----------------------------------------|-----------------------------------------|
F|---14-14-14-14-14-14-14-14-14-14-14-14---|---15-15-15-15-15-15-15-15-15-15-15-15---|
C|----0--0--0--0--0--0--0--0--0--0--0--0---|----0--0--0--0--0--0--0--0--0--0--0--0---|\
G|-----------------------------------------|-----------------------------------------| \ 
C|-----------------------------------------|-----------------------------------------|  \
                                                                                        |__x1
D|-----------------------------------------|-----------------------------------------|  /
A|-----------------------------------------|-----------------------------------------| /
F|---17-17-17-17-17-17-17-17-17-17-17-17---|---12-12-12-12-12-12-12-12-12--x-x-x-x---|/ 
C|----0--0--0--0--0--0--0--0--0--0--0--0---|----0--0--0--0--0--0--0--0--0--x-x-x-x---|
G|-----------------------------------------|-----------------------------------------|
C|-----------------------------------------|-----------------------------------------|


  Guitar 2:                                                                          
D|------------------|---------------------|--------------------|---------------------|
A|------------------|---------------------|--------------------|---------------------|\
F|------------------|---------------------|--------------------|---------------------| \__x1
C|---0~-------------|---(0)---------------|---(0)--------------|-----------------0---| /
G|---0~-------------|---(0)---------------|---(0)--------------|-----------------0---|/
C|---0~-------------|---(0)---------------|---(0)--------------|-----------------0---|




OUTRO

Guitar 1:
D|-----------------------------------------|-----------------------------------------|
A|------------15~----------------15~-------|-----------------------------------------|
F|---14~-----------------14~---------------|---14~------19~-------14~------12~-------|
C|-----------------------------------------|-----------------------------------------|
G|-----------------------------------------|-----------------------------------------|
C|-----------------------------------------|-----------------------------------------|

D|-----------------------------------------|-----------------------------------------|
A|-----------------------15~---------------|----------------------17~----------------|
F|---14~------15~----------------15~-------|---14~------15~----------------14~-------|
C|-----------------------------------------|-----------------------------------------|
G|-----------------------------------------|-----------------------------------------|
C|-----------------------------------------|-----------------------------------------|

D|-----------------------------------------|-----------------------------------------|
A|------------15~----------------15~-------|-----------------------------------------|
F|---14~-----------------14~---------------|---14~------19~-------14~------12~-------|
C|-----------------------------------------|-----------------------------------------|
G|-----------------------------------------|-----------------------------------------|
C|-----------------------------------------|-----------------------------------------|

D|-----------------------------------------|---15~------15~------(15)------(15)------|
A|-----------------------17~-------~-------|-----------------------------------------|
F|---14~------15~----------------14~-------|-----------------------------------------|
C|-----------------------------------------|-----------------------------------------|
G|-----------------------------------------|-----------------------------------------|
C|-----------------------------------------|-----------------------------------------|



  Guitar 2:                                                                          
D|-----------------------------------------|-----------------------------------------|
A|-----------------------------------------|-----------------------------------------|
F|-----------------------------------------|-----------------------------------------|
C|---0-0-0-0--0-0-0-0---0-0-0-0--0-0-0-0---|---8-8-8-8--8-8-8-8---8-8-8-8--8-8-8-8---|
G|---0-0-0-0--0-0-0-0---0-0-0-0--0-0-0-0---|---8-8-8-8--8-8-8-8---8-8-8-8--8-8-8-8---|
C|---0-0-0-0--0-0-0-0---0-0-0-0--0-0-0-0---|---8-8-8-8--8-8-8-8---8-8-8-8--8-8-8-8---|

D|-----------------------------------------|-----------------------------------------|
A|-----------------------------------------|-----------------------------------------|
F|-----------------------------------------|-----------------------------------------|
C|---3-3-3-3--3-3-3-3---3-3-3-3--3-3-3-3---|---2-2-2-2--2-2-2-2---2-2-2-2--------3~--|
G|---3-3-3-3--3-3-3-3---3-3-3-3--3-3-3-3---|---3-3-3-3--3-3-3-3---3-3-3-3--0-0-------|
C|---3-3-3-3--3-3-3-3---3-3-3-3--3-3-3-3---|---2-2-2-2--2-2-2-2---2-2-2-2--0-0-------|
                                                                           . .

D|-----------------------------------------|-----------------------------------------|
A|-----------------------------------------|-----------------------------------------|
F|-----------------------------------------|-----------------------------------------|
C|---0-0-0-0--0-0-0-0---0-0-0-0--0-0-0-0---|---8-8-8-8--8-8-8-8---8-8-8-8--8-8-8-8---|
G|---0-0-0-0--0-0-0-0---0-0-0-0--0-0-0-0---|---8-8-8-8--8-8-8-8---8-8-8-8--8-8-8-8---|
C|---0-0-0-0--0-0-0-0---0-0-0-0--0-0-0-0---|---8-8-8-8--8-8-8-8---8-8-8-8--8-8-8-8---|

D|-----------------------------------------|-----------------------------------------|
A|-----------------------------------------|-----------------------------------------|
F|-----------------------------------------|-----------------------------------------|
C|---3-3-3-3--3-3-3-3---3-3-3-3--3-3-3-3---|---2-2-2-2--2-2-2-2---2-2-2-2--0---------|
G|---3-3-3-3--3-3-3-3---3-3-3-3--3-3-3-3---|---3-3-3-3--3-3-3-3---3-3-3-3--0-~~~~~---|
C|---3-3-3-3--3-3-3-3---3-3-3-3--3-3-3-3---|---2-2-2-2--2-2-2-2---2-2-2-2--0~~~~~~---|
comments
We did not receive enough feedback on this tab! Please rate:
print report bad tab
1 2 3 4 5
1 comment total.
0 reply
th_brck_rcks wrote on August 6 2011, 05:31 pm

OMG!! I love this song, thank you for posting such a great tab :)

I want to post or [tab]
guest
You may want to rate the tab now too:
select rating
Please do not post tabs as comments. Select "correction" instead!