Oops, an error
Loading. Please wait.

Denied Tab

ver3
ver3

Whole song

More versions @911Tabs.com
717 views 3 this week
no commentswrite comment
1 2 3 4 5
excellent!
x 1
Autoscroll
+/-
esc
set tempo
stop
Difficulty
Tuning
novice
C G C F A D
WARNING: You are trying to view
                                    content from Ultimate-Guitar.com
                                    in an unauthorized application,
                                    which is prohibited.

                                    Please use an official Ultimate
                                    Guitar Tabs application for iPhone,
                                    iPad or Android to access legitimate
                                    chords, guitar, bass, and drum tabs
                                    from Ultimate-Guitar.com database.

                                    Type "ultimate guitar tabs" in Apple
                                    App Store's or Android Market's
                                    search to find the application.
Sonic Syndicate - Denied
Drop C Tuning

This is an edited version of the version 1 tab already up for this song.
The only difference is the ending part for Guitar 2 which I think is more on target.

PLAYING ORDER:
INTRO
VERSE
PRE-CHORUS
CHORUS
VERSE      (play twice)
PRE-CHORUS (play once)
CHORUS
INTERLUDE
PRE-CHORUS
BREAKDOWN
CHORUS
OUTRO 

INTRO/CHORUS

  Guitar 1: 
D|-----------------------------------------|-----------------------------------------|
A|-----------------------------------------|-----------------------------------------|
F|--10-10-10-10--10-10-10-10--12-12-12-12--|--10-10-10-10--10-10-10-10--12-12-12-12--|
C|---x--x--x--x---x--x--x--x---x--x--x--x--|---x--x--x--x---x--x--x--x---x--x--x--x--|\
G|---8--8--8--8---8--8--8--8--10-10-10-10--|---8--8--8--8---8--8--8--8--10-10-10-10--| \
C|-----------------------------------------|-----------------------------------------|  \
                                                                                        |x2
D|-----------------------------------------|-----------------------------------------|  /
A|-----------------------------------------|-----------------------------------------| /
F|--14-14-14-14--14-14-14-14--15-15-15-15--|--12-12-12-12--12-12-12-12---7--7--7--7--|/
C|---x--x--x--x---x--x--x--x---x--x--x--x--|---x--x--x--x---x--x--x--x---x--x--x--x--|
G|--12-12-12-12--12-12-12-12--13-13-13-13--|--10-10-10-10--10-10-10-10---5--5--5--5--|
C|-----------------------------------------|-----------------------------------------|



  Guitar 2:                            
D|-----------------------------------------|-----------------------------------------|
A|-----------------------------------------|-----------------------------------------|
F|-----------------------------------------|-----------------------------------------|
C|---0-0-0-0--0-0-0-0---0-0-0-0--0-0-0-0---|---8-8-8-8--8-8-8-8---8-8-8-8--8-8-8-8---|\
G|---0-0-0-0--0-0-0-0---0-0-0-0--0-0-0-0---|---8-8-8-8--8-8-8-8---8-8-8-8--8-8-8-8---| \
C|---0-0-0-0--0-0-0-0---0-0-0-0--0-0-0-0---|---8-8-8-8--8-8-8-8---8-8-8-8--8-8-8-8---|  \
                                                                                        |x2
D|-----------------------------------------|--------------------|--------------------|  /
A|-----------------------------------------|--------------------|--------------------| /
F|-----------------------------------------|--------------------|--------------------|/
C|---3-3-3-3--3-3-3-3---3-3-3-3--3-3-3-3---|---2-2-2-2--2-2-2-2-|-2-2-2-2--------3~--|
G|---3-3-3-3--3-3-3-3---3-3-3-3--3-3-3-3---|---3-3-3-3--3-3-3-3-|-3-3-3-3--0-0-------|
C|---3-3-3-3--3-3-3-3---3-3-3-3--3-3-3-3---|---2-2-2-2--2-2-2-2-|-2-2-2-2--0-0-------|
                                                                           . .
                                                                ^first / second ending
                                                                           v
                                                               D|--------------------|
                                                               A|--------------------|
                                                               F|--------------------|
                                                               C|-2-2-2-2--0-0-0-0---|
                                                               G|-3-3-3-3--0-0-0-0---|
                                                               C|-2-2-2-2--0-0-0-0---|
                                                                           . . . .


VERSES

  Guitar 1:
D|-----------------------------------|---------------------------------------|
A|------3---3-------6-5---6---1---3--|------3---3-------1-----1-------3------|
F|-----------------------------------|--------------------2-------2----------|
C|--0-0---0---0-0-0-----0---0---0----|--0-0---0---0-0-0-----0---0---0--------|\
G|-----------------------------------|---------------------------------------| \
C|-----------------------------------|---------------------------------------|  \
                                                                                |x3
D|-----------------------------------|---------------------------------------|  /
A|------3---3-------5-----5---6---3--|------6---6---3---8-----1-----3--------| /
F|-----------------------------------|---------------------------------------|/
C|--0-0---0---0-0-0---0-0---0---0----|--0-0---0---0---0---0-0---0-0---0------|
G|-----------------------------------|---------------------------------------|
C|-----------------------------------|---------------------------------------|



  Guitar 2:                                                                  
D|----------------|----------------|----------------|------------------|
A|----------------|----------------|----------------|------------------|\
F|----------------|----------------|----------------|------------------| \__x1
C|--0-0-----------|----------------|--0-0-----------|--------------0~--| /
G|--0-0-----------|----------------|--0-0-----------|--------------0~--|/
C|--0-0-----------|----------------|--0-0-----------|--------------0~--|
    . .                               . .
D|---------------------------------|-----------------------------------|
A|---------------------------------|-----------------------------------|
F|---------------------------------|-----------------------------------|
C|--0-0----------------------------|--0-0----0-0----0-0-0-0----0-0-----|\
G|--0-0----------------------------|--0-0----0-0----0-0-0-0----0-0-----| \ 
C|--0-0----------------------------|--0-0----0-0----0-0-0-0----0-0-----|  \
    . .                               . .    . .    . . . .    . .        |__x2
D|---------------------------------|-----------------------------------|  /
A|---------------------------------|-----------------------------------| /
F|---------------------------------|-----------------------------------|/
C|--0-0------------------------0~--|--0-0----0-0----0-0-0-0----0-0-----|
G|--0-0------------------------0~--|--0-0----0-0----0-0-0-0----0-0-----|
C|--0-0------------------------0~--|--0-0----0-0----0-0-0-0----0-0-----|
    . .                               . .    . .    . . . .    . .


PRE-CHORUS

  Guitar 1:
D|-------------------------------------|---------------------------------------|
A|-------------------------------------|---------------------------------------|
F|-------------------------------------|------3---2-------2---3---2---2--------|
C|------3---2---------3---2---3-2-0----|--0-0---------3-3---------------3------|\
G|--1-1---------1-1-1------------------|---------------------------------------| \
C|-------------------------------------|---------------------------------------|  \
                                                                                  |__x2
D|-------------------------------------|---------------------------------------|  /
A|-------------------------------------|---------------------------------------| /
F|-------------------------------------|------3---2-------2-------0------------|/
C|------3---2---------3---2---3-2-0----|--0-0---------3-3-----3-------2-3------|
G|--1-1---------1-1-1------------------|---------------------------------------|
C|-------------------------------------|---------------------------------------|



  Guitar 2:                                                                    
D|--------------------------------------|--------------------------------------|
A|--------------------------------------|--------------------------------------|\
F|--3-3-3-3--3-3-3-3--3-3-3-3--3-3-3-3--|--7-7-7-7--7-7-7-7--5-5-5-5--5-5-5-5--| \__x4
C|--3-3-3-3--3-3-3-3--3-3-3-3--3-3-3-3--|--7-7-7-7--7-7-7-7--5-5-5-5--5-5-5-5--| /
G|--1-1-1-1--1-1-1-1--1-1-1-1--1-1-1-1--|--5-5-5-5--5-5-5-5--3-3-3-3--3-3-3-3--|/
C|--------------------------------------|--------------------------------------|
        



INTERLUDE

  Guitar 1:
D|-----------------------------------------|-----------------------------------------|
A|-----------1-----------------1-----------|-----------------------------------------|
F|-------3-3---3-2-3-------3-3---3-2-3-----|---2-2-2-2--2-2-2-2--2-2-2-2--0-0-0-0----|
C|-----------------------------------------|-----------------------------------------|
G|---1-1---------------1-1-----------------|-----------------------------------------|
C|-----------------------------------------|-----------------------------------------|
                                                                                     
D|-----------------------------------------|-----------------------------------------|
A|-----------1-----------------1-3-1-------|-----------1-----------------------------|
F|-------3-3---3-2-3-------3-3-------3-----|---3-2-0-----3-2-0-2-0-------0-2-3-------|
C|-----------------------------------------|---------3-------------3-2-3-------------|
G|---1-1---------------1-1-----------------|-----------------------------------------|
C|-----------------------------------------|-----------------------------------------|

D|-----------------------------------------|-----------------------------------------|
A|-----------1-----------------1-----------|-----------1-----------------------------|
F|-------3-3---3-2-3-------3-3---3-2-3-----|---3-2-0-----3-2-0-2-0-3-2-3-2-0---------|
C|-----------------------------------------|---------3-----------------------3-------|
G|---1-1---------------1-1-----------------|-----------------------------------------|
C|-----------------------------------------|-----------------------------------------|

D|-----------------------------------------|-----------------------------------------|
A|-----------1-----------------1-3-1-------|-----------1-----------------------------|
F|-------3-3---3-2-3-------3-3-------3-----|---3-2-0-----3-2-0-2-0-------0-2-3-------|
C|-----------------------------------------|---------3-------------3-2-3-------------|
G|---1-1---------------1-1-----------------|-----------------------------------------|
C|-----------------------------------------|-----------------------------------------|

  Guitar 2:                                                                          
D|-----------------------------------------|-----------------------------------------|
A|-----------------------------------------|-----------------------------------------|
F|---3-3---------------3-3-----------------|---7-7-7-7--7-7-7-7--7-7-7-7--5-5-5-5----|
C|---3-3---------------3-3-----------------|---7-7-7-7--7-7-7-7--7-7-7-7--5-5-5-5----|\
G|---1-1---------------1-1-----------------|---5-5-5-5--5-5-5-5--5-5-5-5--3-3-3-3----| \
C|-----------------------------------------|-----------------------------------------|  \
                                                                                        |__x2
D|-----------------------------------------|-----------------------------------------|  /
A|-----------------------------------------|-----------------------------------------| /
F|---3-3---------------3-3-----------------|---7-7-7-X--7-7-7-X--7-7-7-5-(5)-5-5-X---|/
C|---3-3---------------3-3-----------------|---7-7-7-X--7-7-7-X--7-7-7-5-(5)-5-5-X---|
G|---1-1---------------1-1-----------------|---5-5-5-X--5-5-5-X--5-5-5-3-(3)-3-3-X---|
C|-----------------------------------------|-----------------------------------------|






BREAKDOWN

  Guitar 1:
D|-----------------------------------------|-----------------------------------------|
A|-----------------------------------------|-----------------------------------------|
F|---14-14-14-14-14-14-14-14-14-14-14-14---|---15-15-15-15-15-15-15-15-15-15-15-15---|
C|----0--0--0--0--0--0--0--0--0--0--0--0---|----0--0--0--0--0--0--0--0--0--0--0--0---|\
G|-----------------------------------------|-----------------------------------------| \ 
C|-----------------------------------------|-----------------------------------------|  \
                                                                                        |__x1
D|-----------------------------------------|-----------------------------------------|  /
A|-----------------------------------------|-----------------------------------------| /
F|---17-17-17-17-17-17-17-17-17-17-17-17---|---12-12-12-12-12-12-12-12-12--x-x-x-x---|/ 
C|----0--0--0--0--0--0--0--0--0--0--0--0---|----0--0--0--0--0--0--0--0--0--x-x-x-x---|
G|-----------------------------------------|-----------------------------------------|
C|-----------------------------------------|-----------------------------------------|


  Guitar 2:                                                                          
D|------------------|---------------------|--------------------|---------------------|
A|------------------|---------------------|--------------------|---------------------|\
F|------------------|---------------------|--------------------|---------------------| \__x1
C|---0~-------------|---(0)---------------|---(0)--------------|-----------------0---| /
G|---0~-------------|---(0)---------------|---(0)--------------|-----------------0---|/
C|---0~-------------|---(0)---------------|---(0)--------------|-----------------0---|




OUTRO

Guitar 1:
D|-----------------------------------------|-----------------------------------------|
A|------------15~----------------15~-------|-----------------------------------------|
F|---14~-----------------14~---------------|---14~------19~-------14~------12~-------|
C|-----------------------------------------|-----------------------------------------|
G|-----------------------------------------|-----------------------------------------|
C|-----------------------------------------|-----------------------------------------|

D|-----------------------------------------|-----------------------------------------|
A|-----------------------15~---------------|----------------------17~----------------|
F|---14~------15~----------------15~-------|---14~------15~----------------14~-------|
C|-----------------------------------------|-----------------------------------------|
G|-----------------------------------------|-----------------------------------------|
C|-----------------------------------------|-----------------------------------------|

D|-----------------------------------------|-----------------------------------------|
A|------------15~----------------15~-------|-----------------------------------------|
F|---14~-----------------14~---------------|---14~------19~-------14~------12~-------|
C|-----------------------------------------|-----------------------------------------|
G|-----------------------------------------|-----------------------------------------|
C|-----------------------------------------|-----------------------------------------|

D|-----------------------------------------|-----------------------------------------|
A|-----------------------17~-------~-------|---15~------15~------(15)------(15)------|
F|---14~------15~----------------14~-------|-----------------------------------------|
C|-----------------------------------------|-----------------------------------------|
G|-----------------------------------------|-----------------------------------------|
C|-----------------------------------------|-----------------------------------------|



  Guitar 2:                                                                          
D|-----------------------------------------|-----------------------------------------|
A|-----------------------------------------|-----------------------------------------|
F|-----------------------------------------|-----------------------------------------|
C|---0-0-0-0--0-0-0-0---0-0-0-0--0-0-0-0---|---8-8-8-8--8-8-8-8---8-8-8-8--8-8-8-8---|
G|---0-0-0-0--0-0-0-0---0-0-0-0--0-0-0-0---|---8-8-8-8--8-8-8-8---8-8-8-8--8-8-8-8---|
C|---0-0-0-0--0-0-0-0---0-0-0-0--0-0-0-0---|---8-8-8-8--8-8-8-8---8-8-8-8--8-8-8-8---|

D|-----------------------------------------|-----------------------------------------|
A|-----------------------------------------|-----------------------------------------|
F|-----------------------------------------|-----------------------------------------|
C|---3-3-3-3--3-3-3-3---3-3-3-3--3-3-3-3---|---2-2-2-2--2-2-2-2---2-2-2-2--------3~--|
G|---3-3-3-3--3-3-3-3---3-3-3-3--3-3-3-3---|---3-3-3-3--3-3-3-3---3-3-3-3--0-0-------|
C|---3-3-3-3--3-3-3-3---3-3-3-3--3-3-3-3---|---2-2-2-2--2-2-2-2---2-2-2-2--0-0-------|
                                                                           . .

D|-----------------------------------------|-----------------------------------------|
A|-----------------------------------------|-----------------------------------------|
F|-----------------------------------------|-----------------------------------------|
C|---0-0-0-0--0-0-0-0---0-0-0-0--0-0-0-0---|---8-8-8-8--8-8-8-8---8-8-8-8--8-8-8-8---|
G|---0-0-0-0--0-0-0-0---0-0-0-0--0-0-0-0---|---8-8-8-8--8-8-8-8---8-8-8-8--8-8-8-8---|
C|---0-0-0-0--0-0-0-0---0-0-0-0--0-0-0-0---|---8-8-8-8--8-8-8-8---8-8-8-8--8-8-8-8---|

D|-----------------------------------------|-----------------------------------------|
A|-----------------------------------------|-----------------------------------------|
F|-----------------------------------------|-----------------------------------------|
C|---3-3-3-3--3-3-3-3---3-3-3-3--3-3-3-3---|---2-2-2-2--2-2-2-2---2-2-2-2--0-0-0-0---|
G|---3-3-3-3--3-3-3-3---3-3-3-3--3-3-3-3---|---3-3-3-3--3-3-3-3---3-3-3-3--0-0-0-0---|
C|---3-3-3-3--3-3-3-3---3-3-3-3--3-3-3-3---|---2-2-2-2--2-2-2-2---2-2-2-2--0-0-0-0---|
                                                                           . . . .

D|-----------------------------------------|-----------------------------------------|
A|-----------------------------------------|-----------------------------------------|
F|-----------------------------------------|-----------------------------------------|
C|---0~------------------------------------|---8~------------------------------------|
G|---0~------------------------------------|---8~------------------------------------|
C|---0~------------------------------------|---8~------------------------------------|

D|-----------------------------------------|-----------------------------------------|
A|-----------------------------------------|-----------------------------------------|
F|-----------------------------------------|-----------------------------------------|
C|---3~------------------------------------|---2~------------------------------------|
G|---3~------------------------------------|---3~------------------------------------|
C|---3~------------------------------------|---2~------------0-0-0-0-0-0-0-0-0-0-----|
                                                             . . . . . . . . . .

D|-----------------------------------------|-----------------------------------------|
A|-----------------------------------------|-----------------------------------------|
F|-----------------------------------------|-----------------------------------------|
C|---0~------------------------------------|---8~------------------------------------|
G|---0~------------------------------------|---8~------------------------------------|
C|---0~------------------------------------|---8~------------------------------------|

D|-----------------------------------------|-----------------------------------------|
A|-----------------------------------------|-----------------------------------------|
F|-----------------------------------------|-----------------------------------------|
C|---3~------------------------------------|---2~--------------------------------0~--|
G|---3~------------------------------------|---3~--------------------------------0~--|
C|---3~------------------------------------|---2~------------0-0-0-0-0-0-0-0-0-0-0~--|
                                                             . . . . . . . . . .
comments
We did not receive enough feedback on this tab! Please rate:
print report bad tab
1 2 3 4 5
I want to post or [tab]
guest
You may want to rate the tab now too:
select rating
Please do not post tabs as comments. Select "correction" instead!