Oops, an error
Loading. Please wait.

Encaged Bass Tab

1,801 views 3 this week
no commentswrite comment
1 2 3 4 5
excellent!
x 2
Autoscroll
+/-
esc
set tempo
stop
Contributor
WARNING: You are trying to view
                                    content from Ultimate-Guitar.com
                                    in an unauthorized application,
                                    which is prohibited.

                                    Please use an official Ultimate
                                    Guitar Tabs application for iPhone,
                                    iPad or Android to access legitimate
                                    chords, guitar, bass, and drum tabs
                                    from Ultimate-Guitar.com database.

                                    Type "ultimate guitar tabs" in Apple
                                    App Store's or Android Market's
                                    search to find the application.
       Encaged - Sonic Syndicate

Tab: Mr lordi
Email: coldfear275@aim.com OR embertoinferno@live.com
(I use the second one more)

This is the bass part for the song "Encaged" by Sonic Syndicate
it's pretty tough to hear what was going on at some points so I
tried my best to make it out.

----------------------------------------------------------------------------



Bass (Karin Axelsson)



     W                   W                   W                 
F||-------------------|-------------------|-------------------|
C||-------------------|-------------------|-------------------|
G||-------------------|-------------------|-------------------|
C||--0----------------|--L----------------|--L----------------|


  W                   Q    Q    Q    Q       Q    Q    Q    Q     
-------------------|----------------------|----------------------|
-------------------|----------------------|----------------------|
-------------------|----------------------|----------------------|
--L----------------|--0----0----0----0----|--0----0----0----0----|


  Q    Q    Q    Q       W                    E  E  E  E  E  E  E  E   
----------------------|--------------------|--------------------------|
----------------------|--------------------|--------------------------|
----------------------|--------------------|--------------------------|
--0----0----0----0----|--x\----------------|--0--0--0--0--0--0--0--0--|


  E  E  E  E  E  E  E  E     E  E  E  E  E  E  E  E   
--------------------------|--------------------------|
--------------------------|--------------------------|
--------------------------|--------------------------|
--0--0--0--0--0--0--0--0--|--0--0--0--0--0--0--0--0--|


  E  E  E  E  E  E  E  E     E  E  E  E  E  E  E  E   
--------------------------|--------------------------|
--------------------------|--------------------------|
--------------------------|--------------------------|
--0--0--0--0--0--0--0--0--|--3--3--3--3--3--3--3--3--|


  E  E  E  E  E  E  E  E     E  E  E  E  E  E  E  E     Q    Q    Q    Q     
--------------------------|--------------------------|----------------------|
--------------------------|--------------------------|----------------------|
--------------------------|--------------------------|----------------------|
--3--3--3--3--3--3--3--3--|--3--3--3--3--3--3--3--3--|--0-------------------|


  E  E  E  E  E  E  E  E     E  E  E  E  E  E  E  E   
--------------------------|--------------------------|
--------------------------|--------------------------|
--3--5--------------------|--5--7--------------7--5--|
--------0--0--0--0--0--0--|--------0--0--0--0--------|


  E  E  E  E  E  E  E  E     E  E  E  E  E  E  E  E   
--------------------------|--------------------------|
--------------------------|--------------------------|
--7--8--------------3--5--|-----5--3--5-----3--7--5--|
--------0--0--0--0--------|--0-----------0-----------|


  E  E  E  E  E  E  E  E     E  E  E  E  E  E  E  E   
--------------------------|--------------------------|
--------------------------|--------------------------|
--------------------------|--------------------------|
--8--8--8--8--8--8--8--8--|--8--8--8--7--7--7--7--7--|


  E  E  E  E  E  E  E  E     E  E  E   E   E   E   E   E   
--------------------------|-------------------------------|
--------------------------|-------------------------------|
--------------------------|-------------------------------|
--8--8--8--8--8--8--8--8--|--8--8--8--10--10--10--10--10--|


  E  E  E  E  E  E  E  E     E  E  E  E  E  E  E  E   
--------------------------|--------------------------|
--------------------------|--------------------------|
--3--5--------------------|--5--7--------------7--5--|
--------0--0--0--0--0--0--|--------0--0--0--0--------|


  E  E  E  E  E  E  E  E     E  E  E  E  E  E  E  E   
--------------------------|--------------------------|
--------------------------|--------------------------|
--7--8--------------3--5--|-----5--3--5-----3--7--5--|
--------0--0--0--0--------|--0-----------0-----------|


  E  E  E  E  E  E  E  E     E  E  E  E  E  E  E  E   
--------------------------|--------------------------|
--------------------------|--------------------------|
--------------------------|--------------------------|
--8--8--8--8--8--8--8--8--|--8--8--8--7--7--7--7--7--|


  E  E  E  E  E  E  E  E     E  E  E   E   E   E   E   E     W                 
--------------------------|-------------------------------|-------------------|
--------------------------|-------------------------------|-------------------|
--------------------------|-------------------------------|-------------------|
--8--8--8--8--8--8--8--8--|--8--8--8--10--10--10--10--10--|--0----------------|


  W                   W                   W                   W                 
-------------------|-------------------|-------------------|-------------------|
-------------------|-------------------|-------------------|-------------------|
-------------------|--1----------------|--0----------------|-------------------|
--L----------------|-------------------|-------------------|--0----------------|


  W                   W                   W                   W                 
-------------------|-------------------|-------------------|-------------------|
-------------------|-------------------|-------------------|-------------------|
-------------------|-------------------|-------------------|-------------------|
--L----------------|--0----------------|--L----------------|--3----------------|


  W                   W                   E  E  E  E  E  E  E  E   
-------------------|-------------------|--------------------------|
-------------------|-------------------|--------------------------|
-------------------|-------------------|--------------------------|
--L----------------|--5----------------|--0--0--0--0--2--2--2--2--|


  H.           Q       W                   H.           Q     
--------------------|-------------------|--------------------|
--------------------|-------------------|--------------------|
---------------1----|--L----------------|---------------0----|
--0-----------------|-------------------|--3-----------------|


  W                   H.           Q       W                 
-------------------|--------------------|-------------------|
-------------------|--------------------|-------------------|
--L----------------|---------------1----|--L----------------|
-------------------|--0-----------------|-------------------|


  H.           Q       W                   H.           Q     
--------------------|-------------------|--------------------|
--------------------|-------------------|--------------------|
--3-----------------|-------------------|---------------1----|
---------------3----|--L----------------|--0-----------------|


  W                   H.           Q       W                 
-------------------|--------------------|-------------------|
-------------------|--------------------|-------------------|
--L----------------|---------------0----|--L----------------|
-------------------|--3-----------------|-------------------|


  H.           Q       W                   H.           Q     
--------------------|-------------------|--------------------|
--------------------|-------------------|--------------------|
---------------1----|--L----------------|--3-----------------|
--0-----------------|-------------------|---------------3----|


  W                   E  E  E  E  E  E  E  E     E  E  E  E  E  E  E  E   
-------------------|--------------------------|--------------------------|
-------------------|--------------------------|--------------------------|
-------------------|--------------------------|--------------------------|
--L----------------|--0--0--0--0--0--0--0--0--|--0--0--0--0--0--0--0--0--|


  E  E  E  E  E  E  E  E     E  E  E  E  E  E  E  E   
--------------------------|--------------------------|
--------------------------|--------------------------|
--------------------------|--------------------------|
--0--0--0--0--0--0--0--0--|--0--0--0--0--0--0--0--0--|


  E  E  E  E  E  E  E  E     E  E  E  E  E  E  E  E   
--------------------------|--------------------------|
--------------------------|--------------------------|
--------------------------|--------------------------|
--3--3--3--3--3--3--3--3--|--3--3--3--3--3--3--3--3--|


  E  E  E  E  E  E  E  E     Q    Q    Q    Q       E  E  E  E  E  E  E  E   
--------------------------|----------------------|--------------------------|
--------------------------|----------------------|--------------------------|
--------------------------|----------------------|--3--5--------------------|
--3--3--3--3--3--3--3--3--|--0-------------------|--------0--0--0--0--0--0--|


  E  E  E  E  E  E  E  E     E  E  E  E  E  E  E  E   
--------------------------|--------------------------|
--------------------------|--------------------------|
--5--7--------------7--5--|--7--8--------------3--5--|
--------0--0--0--0--------|--------0--0--0--0--------|


  E  E  E  E  E  E  E  E     E  E  E  E  E  E  E  E   
--------------------------|--------------------------|
--------------------------|--------------------------|
-----5--3--5-----3--7--5--|--------------------------|
--0-----------0-----------|--8--8--8--8--8--8--8--8--|


  E  E  E  E  E  E  E  E     E  E  E  E  E  E  E  E   
--------------------------|--------------------------|
--------------------------|--------------------------|
--------------------------|--------------------------|
--8--8--8--7--7--7--7--7--|--8--8--8--8--8--8--8--8--|


  E  E  E   E   E   E   E   E     E  E  E  E  E  E  E  E   
-------------------------------|--------------------------|
-------------------------------|--------------------------|
-------------------------------|--3--5--------------------|
--8--8--8--10--10--10--10--10--|--------0--0--0--0--0--0--|


  E  E  E  E  E  E  E  E     E  E  E  E  E  E  E  E   
--------------------------|--------------------------|
--------------------------|--------------------------|
--5--7--------------7--5--|--7--8--------------3--5--|
--------0--0--0--0--------|--------0--0--0--0--------|


  E  E  E  E  E  E  E  E     E  E  E  E  E  E  E  E   
--------------------------|--------------------------|
--------------------------|--------------------------|
-----5--3--5-----3--7--5--|--------------------------|
--0-----------0-----------|--8--8--8--8--8--8--8--8--|


  E  E  E  E  E  E  E  E     E  E  E  E  E  E  E  E   
--------------------------|--------------------------|
--------------------------|--------------------------|
--------------------------|--------------------------|
--8--8--8--7--7--7--7--7--|--8--8--8--8--8--8--8--8--|


  E  E  E   E   E   E   E   E     H.           Q       W                 
-------------------------------|--------------------|-------------------|
-------------------------------|--------------------|-------------------|
-------------------------------|---------------1----|--L----------------|
--8--8--8--10--10--10--10--10--|--0-----------------|-------------------|


  H.           Q       W                   H.           Q     
--------------------|-------------------|--------------------|
--------------------|-------------------|--------------------|
---------------0----|--L----------------|---------------1----|
--3-----------------|-------------------|--0-----------------|


  W                   H.           Q       W                 
-------------------|--------------------|-------------------|
-------------------|--------------------|-------------------|
--L----------------|--3-----------------|-------------------|
-------------------|---------------3----|--L----------------|


  H.           Q       W                   H.           Q     
--------------------|-------------------|--------------------|
--------------------|-------------------|--------------------|
---------------1----|--L----------------|---------------0----|
--0-----------------|-------------------|--3-----------------|


  W                   H.           Q       W                 
-------------------|--------------------|-------------------|
-------------------|--------------------|-------------------|
--L----------------|---------------1----|--L----------------|
-------------------|--0-----------------|-------------------|


  H.           Q       W                   H.           Q     
--------------------|-------------------|--------------------|
--------------------|-------------------|--------------------|
--3-----------------|-------------------|--1------------3----|
---------------3----|--L----------------|--------------------|


  Q    Q    Q    Q       H        H           Q    Q    Q    Q     
----------------------|--------------------|----------------------|
----------------------|--------------------|----------------------|
--3----3----3---------|--------------------|----------------------|
-----------------3----|--3--------7--------|--8----7----5----3----|


  H.           Q       Q    Q    Q    Q       E  E  E  E  E  E  E  E   
--------------------|----------------------|--------------------------|
--------------------|----------------------|--------------------------|
---------------3----|--3----3----3---------|--------------------------|
--L-----------------|-----------------3----|--0--0--0--0--0--0--0--0--|


  E  E  E  E  E  E  E  E     E  E  E  E   E   E   E   E   
--------------------------|------------------------------|
--------------------------|------------------------------|
--------------------------|------------------------------|
--0--0--0--0--0--0--0--0--|--8--8--8--8--10--10--10--10--|


   E   E   E   E   E   E   E   E     W                   Q    Q    Q    Q     
----------------------------------|-------------------|----------------------|
----------------------------------|-------------------|----------------------|
----------------------------------|-------------------|----------------------|
--10--10--10--10--10--10--10--10--|--3----------------|--8----7----5----3----|


  H.           Q       Q    Q    Q    Q       W                 
--------------------|----------------------|-------------------|
--------------------|----------------------|-------------------|
---------------3----|--3----3----3---------|-------------------|
--3-----------------|-----------------3----|--0----------------|


  W                   W                   W                   W                 
-------------------|-------------------|-------------------|-------------------|
-------------------|-------------------|-------------------|-------------------|
-------------------|-------------------|-------------------|-------------------|
--L----------------|--L----------------|--L----------------|--L----------------|


  W                   W                   W                 
-------------------|-------------------|-------------------|
-------------------|-------------------|-------------------|
-------------------|-------------------|-------------------|
--L----------------|--L----------------|--L----------------|


  E  E  E  Q    S S E  S S    E  E  E  E  E  E  S S E   
---------------------------|---------------------------|
---------------------------|---------------------------|
---------------------------|---------------------------|
--0--0--0-------0-0-0--0-0-|--0--0--0--------0--0-0-0--|


  S S E  E  Q    S S E  E     Q    E  E  S S E  S S E   
---------------------------|---------------------------|
---------------------------|---------------------------|
---------------------------|---------------------------|
--0-0-0--0-------0-0-0-----|----------0--0-0-0--0-0-0--|


  E  E  E  Q    S S E  S S    E  E  E  E  E  E  S S E   
---------------------------|---------------------------|
---------------------------|---------------------------|
---------------------------|---------------------------|
--0--0--0-------0-0-0--0-0-|--0--0--0--------0--0-0-0--|


  S S E  E  Q    S S E  E     Q    E  E  S S E  S S E   
---------------------------|---------------------------|
---------------------------|---------------------------|
---------------------------|---------------------------|
--0-0-0--0-------0-0-0-----|----------0--0-0-0--0-0-0--|


  E  E  E  E  S S E  S S E     E  E  E  E  S S E  S S E   
----------------------------|----------------------------|
----------------------------|----------------------------|
----------------------------|----------------------------|
--0--0--------0-0-0--0-0-0--|--0--0--------0-0-0--0-0-0--|


  E  E  E  S S E  E  E  E     E  E  S S E  S S E  E  E   
---------------------------|----------------------------|
---------------------------|----------------------------|
---------------------------|----------------------------|
--0--0-----0-0-0--0--------|--------0-0-0--0-0-0--0--0--|


  E  E  E  Q    S S E  S S    E  E  E  E  E  E  S S E   
---------------------------|---------------------------|
---------------------------|---------------------------|
---------------------------|---------------------------|
--0--0--0-------0-0-0--0-0-|--0--0--0--------0--0-0-0--|


  S S E  E  Q    S S E  E     Q    E  E  S S E  S S E     W                 
---------------------------|---------------------------|-------------------|
---------------------------|---------------------------|-------------------|
---------------------------|---------------------------|-------------------|
--0-0-0--0-------0-0-0-----|----------0--0-0-0--0-0-0--|--0----------------|


  W                   W                   W                   W                 
-------------------|-------------------|-------------------|-------------------|
-------------------|-------------------|-------------------|-------------------|
-------------------|-------------------|-------------------|-------------------|
--L----------------|--L----------------|--L----------------|--0----------------|


  W                   W                   W                   W                 
-------------------|-------------------|-------------------|-------------------|
-------------------|-------------------|-------------------|-------------------|
-------------------|-------------------|-------------------|-------------------|
--L----------------|--0----------------|--L----------------|--3----------------|


  W                   E  E  E  E  E  E  E  E     E  E  E  E  E  E  E  E   
-------------------|--------------------------|--------------------------|
-------------------|--------------------------|--------------------------|
-------------------|--------------------------|--------------------------|
--L----------------|--0--0--0--0--0--0--0--0--|--0--0--0--0--2--2--2--2--|


  E  E  Q    Q    Q       W                   H.           Q     
-----------------------|-------------------|--------------------|
-----------------------|-------------------|--------------------|
------------------1----|--L----------------|---------------0----|
--0--------------------|-------------------|--3-----------------|


  W                   H.           Q       W                 
-------------------|--------------------|-------------------|
-------------------|--------------------|-------------------|
--L----------------|---------------1----|--L----------------|
-------------------|--0-----------------|-------------------|


  H.           Q       W                   H.           Q     
--------------------|-------------------|--------------------|
--------------------|-------------------|--------------------|
--3-----------------|-------------------|---------------1----|
---------------3----|--L----------------|--0-----------------|


  W                   H.           Q       W                 
-------------------|--------------------|-------------------|
-------------------|--------------------|-------------------|
--L----------------|---------------0----|--L----------------|
-------------------|--3-----------------|-------------------|


  H.           Q       W                   H.           Q     
--------------------|-------------------|--------------------|
--------------------|-------------------|--------------------|
---------------1----|--L----------------|--3-----------------|
--0-----------------|-------------------|---------------3----|


  W                   H.           Q       Q    Q    Q    Q     
-------------------|--------------------|----------------------|
-------------------|--------------------|----------------------|
-------------------|--1------------3----|--3----3----3---------|
--L----------------|--------------------|-----------------3----|


  H        H           Q    Q    Q    Q       H.           Q     
--------------------|----------------------|--------------------|
--------------------|----------------------|--------------------|
--------------------|----------------------|---------------3----|
--3--------7--------|--8----7----5----3----|--L-----------------|


  Q    Q    Q    Q       E  E  E  E  E  E  E  E     E  E  E  E  E  E  E  E   
----------------------|--------------------------|--------------------------|
----------------------|--------------------------|--------------------------|
--3----3----3---------|--------------------------|--------------------------|
-----------------3----|--0--0--0--0--0--0--0--0--|--0--0--0--0--0--0--0--0--|


  E  E  E  E   E   E   E   E      E   E   E   E   E   E   E   E   
------------------------------|----------------------------------|
------------------------------|----------------------------------|
------------------------------|----------------------------------|
--8--8--8--8--10--10--10--10--|--10--10--10--10--10--10--10--10--|


  W                   Q    Q    Q    Q       H.           Q     
-------------------|----------------------|--------------------|
-------------------|----------------------|--------------------|
-------------------|----------------------|---------------3----|
--3----------------|--8----7----5----3----|--3-----------------|


  Q    Q    Q    Q       E  E  E  E  E  E  E  E     E  E  E  E  E  E  E  E   
----------------------|--------------------------|--------------------------|
----------------------|--------------------------|--------------------------|
--3----3----3---------|--------------------------|--------------------------|
-----------------3----|--0--0--0--0--0--0--0--0--|--0--0--0--0--0--0--0--0--|


  E  E  E  E  E  E  E  E     E  E  E  E  E  E  E  E   
--------------------------|--------------------------|
--------------------------|--------------------------|
--------------------------|--------------------------|
--0--0--0--0--0--0--0--0--|--0--0--0--0--0--0--0--0--|


  E  E  E  E  E  E  E  E     E  E  E  E  E  E  E  E   
--------------------------|--------------------------|
--------------------------|--------------------------|
--------------------------|--------------------------|
--3--3--3--3--3--3--3--3--|--3--3--3--3--3--3--3--3--|


  E  E  E  E  E  E  E  E     E  E  E  E  S S E  S S E     W                 
--------------------------|----------------------------|-------------------|
--------------------------|----------------------------|-------------------|
--------------------------|----------------------------|-------------------|
--3--3--3--3--3--3--3--3--|--0--0--0--0--0-0-0--0-0-0--|--0----------------|


  W                   W                   W                   W                 
-------------------|-------------------|-------------------|-------------------|
-------------------|-------------------|-------------------|-------------------|
-------------------|-------------------|-------------------|-------------------|
--L----------------|--L----------------|--L----------------|--L----------------|


  W                   W                   W                   W                 
-------------------|-------------------|-------------------|-------------------|
-------------------|-------------------|-------------------|-------------------|
-------------------|-------------------|-------------------|-------------------|
--L----------------|--L----------------|--L----------------|--L----------------|


  W                   W                   W                  
-------------------|-------------------|-------------------||
-------------------|-------------------|-------------------||
-------------------|-------------------|-------------------||
--L----------------|--L----------------|--L----------------||




Duration Legend
---------------
W - whole
H - half
Q - quarter
E - 8th
S - 16th
T - 32nd
X - 64th
. - note dotted
|-n-|  - n-tuplets


Tablature Legend
----------------
L - tied note
x - dead note
g - grace note
(n) - ghost note
> - accentuded note
NH - natural harmonic
AH - artificial harmonic
TH - tapped harmonic
SH - semi harmonic
PH - pitch harmonic
h - hammer on
p - pull off
b - bend
br - bendRelease
pb - preBend
pbr - preBendRelease
brb - bendReleaseBend
\n/ - tremolo bar dip
\n - tremolo bar dive
-/n - tremolo bar Release up
/n\ - tremolo bar inverted dip
/n - tremolo bar return
-\n - tremolo bar Release down
S - shift slide
s - legato slide
/ -  slide into from below or out of upwards
\ -  slide into from above or out of downwards
~ - vibrato
W - wide vibrato
tr - trill
TP - tremolo picking
T - tapping
S - slap
P - pop
< - fade in
^ - brush up
v - brush down
comments
We did not receive enough feedback on this tab! Please rate:
1 2 3 4 5
I want to post or [tab]
guest
You may want to rate the tab now too:
select rating
Please do not post tabs as comments. Select "correction" instead!