Oops, an error
Loading. Please wait.

Encaged Tab

ver1
ver1

Whole song

Interactive

More versions @911Tabs.com
4,870 views 1 this week
no commentswrite comment
1 2 3 4 5
excellent!
x 4
add to favorites launch autoscroll
font size
0
reset
Autoscroll
+/-
esc
set tempo
stop
Contributor
WARNING: You are trying to view
                                    content from Ultimate-Guitar.com
                                    in an unauthorized application,
                                    which is prohibited.

                                    Please use an official Ultimate
                                    Guitar Tabs application for iPhone,
                                    iPad or Android to access legitimate
                                    chords, guitar, bass, and drum tabs
                                    from Ultimate-Guitar.com database.

                                    Type "ultimate guitar tabs" in Apple
                                    App Store's or Android Market's
                                    search to find the application.
        Encaged - Sonic Syndicate

Tab: Mr Lordi
Email: Coldfear275@aim.com OR embertoinferno@live.com
(I use the second email more)

This is the lead guitar part for the song Encaged by Sonic Syndicate
when I tabbed this in guitarpro some of the rhythm parts got mixed up with it (has some 
the lower harmonies, mainly the verse or that chord part)
other than that it turned out good, check out the rhythm guitar part and my guitarpro 
(Must have GPv5.2




Lead Guitar (Roger Sjunnesson)

              PM PM PM PM                   PM PM PM PM
     E  E  E  E  S  S  E  E  E     E  E  E  E  S  S  E  E  E
D||-----------------------------|-----------------------------|
A||-----------------------------|-----------------------------|
F||-----------------------------|-----------------------------|
C||-----------------------------|-----------------------------|
G||--5--3--5--------------------|--5--3--5--------------------|
C||-----------0--0--0--0--0--2--|-----------0--0--0--0--0--2--|


           PM PM PM PM
  E  E  E  E  S  S  E  E  E     E  E  E  E  E  E  E  E
-----------------------------|--------------------------|
-----------------------------|--------------------------|
-----------------------------|--------------5--3--2--3--|
-----------------------------|--3--2-----2--------------|
--5--3--1--------------------|--------5-----------------|
-----------0--0--0--0--2--3--|--------------------------|


           PM PM PM PM                   PM PM PM PM
  E  E  E  E  S  S  E  E  E     E  E  E  E  S  S  E  E  E
-----------------------------|-----------------------------|
-----------------------------|-----------------------------|
-----------------------------|-----------------------------|
-----------------------------|-----------------------------|
--5--3--5--------------------|--5--3--5--------------------|
-----------0--0--0--0--0--2--|-----------0--0--0--0--0--2--|


           PM PM PM PM
  E  E  E  E  S  S  E  E  E     W
-----------------------------|--------------------|
-----------------------------|--------------------|
-----------------------------|--------------------|
-----------------------------|--x\----------------|
--5--3--1--------------------|--x\----------------|
-----------0--0--0--0--2--3--|--x\----------------|


           PM PM PM PM                   PM PM PM PM
  E  E  E  E  S  S  E  E  E     E  E  E  E  S  S  E  E  E
-----------------------------|-----------------------------|
-----------------------------|-----------------------------|
-----------------------------|-----------------------------|
-----------------------------|-----------------------------|
--5--3--5--------------------|--5--3--5--------------------|
-----------0--0--0--0--0--2--|-----------0--0--0--0--0--2--|


           PM PM PM PM
  E  E  E  E  S  S  E  E  E     E  E  E  E  E  E  E  E
-----------------------------|--------------------------|
-----------------------------|--------------------------|
-----------------------------|--------------5--3--2--3--|
-----------------------------|--3--2-----2--------------|
--5--3--1--------------------|--------5-----------------|
-----------0--0--0--0--2--3--|--------------------------|


           PM PM PM PM                   PM PM PM PM
  E  E  E  E  S  S  E  E  E     E  E  E  E  S  S  E  E  E
-----------------------------|-----------------------------|
-----------------------------|-----------------------------|
-----------------------------|-----------------------------|
-----------------------------|-----------------------------|
--5--3--5--------------------|--5--3--5--------------------|
-----------0--0--0--0--0--2--|-----------0--0--0--0--0--2--|


           PM PM PM PM
  E  E  E  E  S  S  E  E  E     E  E  E  E  E  E  E  E
-----------------------------|--------------------------|
-----------------------------|--------------------------|
-----------------------------|--------------5--3--2--3--|
-----------------------------|--3--2-----2--------------|
--5--3--1--------------------|--------5-----------------|
-----------0--0--0--0--2--3--|--------------------------|


        PM PM PM PM PM PM PM PM PM          PM PM PM PM PM
  E  E  S  S  E  S  S  E  S  S  E     E  E  S  S  E  E  E  E  E
-----------------------------------|-----------------------------|
-----------------------------------|-----------------------------|
-----------------------------------|-----------------------------|
-----------------------------------|-----------------------------|
--3--5-----------------------------|--5--7-----------------7--5--|
--------0--0--0--0--0--0--0--0--0--|--------0--0--0--0--0--------|


        PM PM PM PM PM PM          PM          PM
  E  E  S  S  E  S  S  E  E  E     E  E  E  E  E  E  E   E
--------------------------------|---------------------------|
--------------------------------|---------------------------|
--------------------------------|---------------------------|
--------------------------------|---------------------------|
--7--8--------------------3--5--|-----5--3--5-----3--7s--5--|
--------0--0--0--0--0--0--------|--0-----------0------------|


  E  E  E  E  E  E  E  E     E  E  E  E  E  E  E  E
--------------------------|--------------------------|
--------------------------|--------------------------|
--------------------------|--------------------------|
--8--8--8--8--8--8--8--8--|--8--8--8--7--7--7--7--7--|
--8--8--8--8--8--8--8--8--|--8--8--8--7--7--7--7--7--|
--8--8--8--8--8--8--8--8--|--8--8--8--7--7--7--7--7--|


  E  E  E  E  E  E  E  E     E  E  E   E   E   E   E   E
--------------------------|-------------------------------|
--------------------------|-------------------------------|
--------------------------|-------------------------------|
--8--8--8--8--8--8--8--8--|--8--8--8--10--10--10--10--10--|
--8--8--8--8--8--8--8--8--|--8--8--8--10--10--10--10--10--|
--8--8--8--8--8--8--8--8--|--8--8--8--10--10--10--10--10--|


        PM PM PM PM PM PM PM PM PM          PM PM PM PM PM
  E  E  S  S  E  S  S  E  S  S  E     E  E  S  S  E  E  E  E  E
-----------------------------------|-----------------------------|
-----------------------------------|-----------------------------|
-----------------------------------|-----------------------------|
-----------------------------------|-----------------------------|
--3--5-----------------------------|--5--7-----------------7--5--|
--------0--0--0--0--0--0--0--0--0--|--------0--0--0--0--0--------|


        PM PM PM PM PM PM          PM          PM
  E  E  S  S  E  S  S  E  E  E     E  E  E  E  E  E  E   E
--------------------------------|---------------------------|
--------------------------------|---------------------------|
--------------------------------|---------------------------|
--------------------------------|---------------------------|
--7--8--------------------3--5--|-----5--3--5-----3--7s--5--|
--------0--0--0--0--0--0--------|--0-----------0------------|


  E  E  E  E  E  E  E  E     E  E  E  E  E  E  E  E
--------------------------|--------------------------|
--------------------------|--------------------------|
--------------------------|--------------------------|
--8--8--8--8--8--8--8--8--|--8--8--8--7--7--7--7--7--|
--8--8--8--8--8--8--8--8--|--8--8--8--7--7--7--7--7--|
--8--8--8--8--8--8--8--8--|--8--8--8--7--7--7--7--7--|


  E  E  E  E  E  E  E  E     E  E  E   E   E   E   E   E     W
--------------------------|-------------------------------|-------------------|
--------------------------|-------------------------------|-------------------|
--------------------------|-------------------------------|-------------------|
--8--8--8--8--8--8--8--8--|--8--8--8--10--10--10--10--10--|--0----------------|
--8--8--8--8--8--8--8--8--|--8--8--8--10--10--10--10--10--|--0----------------|
--8--8--8--8--8--8--8--8--|--8--8--8--10--10--10--10--10--|--0----------------|


  W                   W                   W                   W
-------------------|-------------------|-------------------|-------------------|
-------------------|-------------------|-------------------|-------------------|
-------------------|--3----------------|--2----------------|-------------------|
--L----------------|--3----------------|--2----------------|--0----------------|
--L----------------|--1----------------|--0----------------|--0----------------|
--L----------------|-------------------|-------------------|--0----------------|


  W                   W                   W                   W
-------------------|-------------------|-------------------|-------------------|
-------------------|-------------------|-------------------|-------------------|
-------------------|-------------------|-------------------|-------------------|
--L----------------|--0----------------|--L----------------|--3----------------|
--L----------------|--0----------------|--L----------------|--3----------------|
--L----------------|--0----------------|--L----------------|--3----------------|


  W                   W                   E  E  E  E  E  E  E  E
-------------------|-------------------|--------------------------|
-------------------|-------------------|--------------------------|
-------------------|-------------------|--7--7--7--7--9--9--9--9--|
--L----------------|--5----------------|--x--x--x--x--x--x--x--x--|
--L----------------|--5----------------|--5--5--5--5--7--7--7--7--|
--L----------------|--5----------------|--------------------------|


  H.           Q       W                   H.           Q
--------------------|-------------------|--------------------|
--------------------|-------------------|--------------------|
---------------3----|--L----------------|---------------2----|
--0------------3----|--L----------------|--3------------2----|
--0------------1----|--L----------------|--3------------0----|
--0-----------------|-------------------|--3-----------------|


  W                   H.           Q       W
-------------------|--------------------|-------------------|
-------------------|--------------------|-------------------|
--L----------------|---------------3----|--L----------------|
--L----------------|--0------------3----|--L----------------|
--L----------------|--0------------1----|--L----------------|
-------------------|--0-----------------|-------------------|


  H.           Q       W                   H.           Q
--------------------|-------------------|--------------------|
--------------------|-------------------|--------------------|
--5-----------------|-------------------|---------------3----|
--5------------3----|--L----------------|--0------------3----|
--3------------3----|--L----------------|--0------------1----|
---------------3----|--L----------------|--0-----------------|


  W                   H.           Q       W
-------------------|--------------------|-------------------|
-------------------|--------------------|-------------------|
--L----------------|---------------2----|--L----------------|
--L----------------|--3------------2----|--L----------------|
--L----------------|--3------------0----|--L----------------|
-------------------|--3-----------------|-------------------|


  H.           Q       W                   H.           Q
--------------------|-------------------|--------------------|
--------------------|-------------------|--------------------|
---------------3----|--L----------------|--5-----------------|
--0------------3----|--L----------------|--5------------3----|
--0------------1----|--L----------------|--3------------3----|
--0-----------------|-------------------|---------------3----|


                               PM PM PM PM                   PM PM PM PM
  W                   E  E  E  E  S  S  E  E  E     E  E  E  E  S  S  E  E  E
-------------------|-----------------------------|-----------------------------|
-------------------|-----------------------------|-----------------------------|
-------------------|-----------------------------|-----------------------------|
--L----------------|-----------------------------|-----------------------------|
--L----------------|--5--3--5--------------------|--5--3--5--------------------|
--L----------------|-----------0--0--0--0--0--2--|-----------0--0--0--0--0--2--|


           PM PM PM PM
  E  E  E  E  S  S  E  E  E     E  E  E  E  E  E  E  E
-----------------------------|--------------------------|
-----------------------------|--------------------------|
-----------------------------|--------------5--3--2--3--|
-----------------------------|--3--2-----2--------------|
--5--3--1--------------------|--------5-----------------|
-----------0--0--0--0--2--3--|--------------------------|


           PM PM PM PM                   PM PM PM PM
  E  E  E  E  S  S  E  E  E     E  E  E  E  S  S  E  E  E
-----------------------------|-----------------------------|
-----------------------------|-----------------------------|
-----------------------------|-----------------------------|
-----------------------------|-----------------------------|
--5--3--5--------------------|--5--3--5--------------------|
-----------0--0--0--0--0--2--|-----------0--0--0--0--0--2--|


           PM PM PM PM
  E  E  E  E  S  S  E  E  E     E  E  E  E  H
-----------------------------|------------------------|
-----------------------------|------------------------|
-----------------------------|--------------5~--------|
-----------------------------|--3--2-----2------------|
--5--3--1--------------------|--------5---------------|
-----------0--0--0--0--2--3--|------------------------|


        PM PM PM PM PM PM PM PM PM          PM PM PM PM PM
  E  E  S  S  E  S  S  E  S  S  E     E  E  S  S  E  E  E  E  E
-----------------------------------|-----------------------------|
-----------------------------------|-----------------------------|
-----------------------------------|-----------------------------|
-----------------------------------|-----------------------------|
--3--5-----------------------------|--5--7-----------------7--5--|
--------0--0--0--0--0--0--0--0--0--|--------0--0--0--0--0--------|


        PM PM PM PM PM PM          PM          PM
  E  E  S  S  E  S  S  E  E  E     E  E  E  E  E  E  E   E
--------------------------------|---------------------------|
--------------------------------|---------------------------|
--------------------------------|---------------------------|
--------------------------------|---------------------------|
--7--8--------------------3--5--|-----5--3--5-----3--7s--5--|
--------0--0--0--0--0--0--------|--0-----------0------------|


  E  E  E  E  E  E  E  E     E  E  E  E  E  E  E  E
--------------------------|--------------------------|
--------------------------|--------------------------|
--------------------------|--------------------------|
--8--8--8--8--8--8--8--8--|--8--8--8--7--7--7--7--7--|
--8--8--8--8--8--8--8--8--|--8--8--8--7--7--7--7--7--|
--8--8--8--8--8--8--8--8--|--8--8--8--7--7--7--7--7--|


  E  E  E  E  E  E  E  E     E  E  E   E   E   E   E   E
--------------------------|-------------------------------|
--------------------------|-------------------------------|
--------------------------|-------------------------------|
--8--8--8--8--8--8--8--8--|--8--8--8--10--10--10--10--10--|
--8--8--8--8--8--8--8--8--|--8--8--8--10--10--10--10--10--|
--8--8--8--8--8--8--8--8--|--8--8--8--10--10--10--10--10--|


        PM PM PM PM PM PM PM PM PM          PM PM PM PM PM
  E  E  S  S  E  S  S  E  S  S  E     E  E  S  S  E  E  E  E  E
-----------------------------------|-----------------------------|
-----------------------------------|-----------------------------|
-----------------------------------|-----------------------------|
-----------------------------------|-----------------------------|
--3--5-----------------------------|--5--7-----------------7--5--|
--------0--0--0--0--0--0--0--0--0--|--------0--0--0--0--0--------|


        PM PM PM PM PM PM          PM          PM
  E  E  S  S  E  S  S  E  E  E     E  E  E  E  E  E  E   E
--------------------------------|---------------------------|
--------------------------------|---------------------------|
--------------------------------|---------------------------|
--------------------------------|---------------------------|
--7--8--------------------3--5--|-----5--3--5-----3--7s--5--|
--------0--0--0--0--0--0--------|--0-----------0------------|


  E  E  E  E  E  E  E  E     E  E  E  E  E  E  E  E
--------------------------|--------------------------|
--------------------------|--------------------------|
--------------------------|--------------------------|
--8--8--8--8--8--8--8--8--|--8--8--8--7--7--7--7--7--|
--8--8--8--8--8--8--8--8--|--8--8--8--7--7--7--7--7--|
--8--8--8--8--8--8--8--8--|--8--8--8--7--7--7--7--7--|


  E  E  E  E  E  E  E  E     E  E  E   E   E   E   E   E     H.           Q
--------------------------|-------------------------------|--------------------|
--------------------------|-------------------------------|--------------------|
--------------------------|-------------------------------|---------------3----|
--8--8--8--8--8--8--8--8--|--8--8--8--10--10--10--10--10--|--0------------3----|
--8--8--8--8--8--8--8--8--|--8--8--8--10--10--10--10--10--|--0------------1----|
--8--8--8--8--8--8--8--8--|--8--8--8--10--10--10--10--10--|--0-----------------|


  W                   H.           Q       W
-------------------|--------------------|-------------------|
-------------------|--------------------|-------------------|
--L----------------|---------------2----|--L----------------|
--L----------------|--3------------2----|--L----------------|
--L----------------|--3------------0----|--L----------------|
-------------------|--3-----------------|-------------------|


  H.           Q       W                   H.           Q
--------------------|-------------------|--------------------|
--------------------|-------------------|--------------------|
---------------3----|--L----------------|--5-----------------|
--0------------3----|--L----------------|--5------------3----|
--0------------1----|--L----------------|--3------------3----|
--0-----------------|-------------------|---------------3----|


  W                   H.           Q       W
-------------------|--------------------|-------------------|
-------------------|--------------------|-------------------|
-------------------|---------------3----|--L----------------|
--L----------------|--0------------3----|--L----------------|
--L----------------|--0------------1----|--L----------------|
--L----------------|--0-----------------|-------------------|


  H.           Q       W                   H.           Q
--------------------|-------------------|--------------------|
--------------------|-------------------|--------------------|
---------------2----|--L----------------|---------------3----|
--3------------2----|--L----------------|--0------------3----|
--3------------0----|--L----------------|--0------------1----|
--3-----------------|-------------------|--0-----------------|


  W                   H.           Q       W
-------------------|--------------------|-------------------|
-------------------|--------------------|-------------------|
--L----------------|--5-----------------|-------------------|
--L----------------|--5------------3----|--L----------------|
--L----------------|--3------------3----|--L----------------|
-------------------|---------------3----|--L----------------|


  H.           Q       Q    Q    Q    Q       H        H
--------------------|----------------------|--------------------|
--------------------|----------------------|--------------------|
--3------------5----|--5----5----5---------|--------------------|
--3------------5----|--5----5----5----3----|--3--------7--------|
--1------------3----|--3----3----3----3----|--3--------7--------|
--------------------|-----------------3----|--3--------7--------|


  Q    Q    Q    Q       H.           Q       Q    Q    Q    Q
----------------------|--------------------|----------------------|
----------------------|--------------------|----------------------|
----------------------|---------------5----|--5----5----5---------|
--8----7----5----3----|--L------------5----|--5----5----5----3----|
--8----7----5----3----|--L------------3----|--3----3----3----3----|
--8----7----5----3----|--L-----------------|-----------------3----|


           PM PM PM PM                   PM PM PM PM
  E  E  E  E  S  S  E  E  E     E  E  E  E  S  S  E  E  E
-----------------------------|-----------------------------|
-----------------------------|-----------------------------|
-----------------------------|-----------------------------|
-----------------------------|-----------------------------|
--5--3--5--------------------|--5--3--5--------------------|
-----------0--0--0--0--0--2--|-----------0--0--0--0--0--2--|


  E  E  E  E  E  E  E  E     E  E  E  E  E  E  E  E     W
--------------------------|--------------------------|-------------------|
--------------------------|--------------------------|-------------------|
--3--3--3--3--5--5--5--5--|--5--5--5--5--5--5--5--5--|-------------------|
--x--x--x--x--x--x--x--x--|--x--x--x--x--x--x--x--x--|--3----------------|
--1--1--1--1--3--3--3--3--|--3--3--3--3--3--3--3--3--|--3----------------|
--------------------------|--------------------------|--3----------------|


  Q    Q    Q    Q       H.           Q       Q    Q    Q    Q
----------------------|--------------------|----------------------|
----------------------|--------------------|----------------------|
----------------------|---------------5----|--5----5----5---------|
--8----7----5----3----|--3------------5----|--5----5----5----3----|
--8----7----5----3----|--3------------3----|--3----3----3----3----|
--8----7----5----3----|--3-----------------|-----------------3----|


  W                   W                   W                   W
-------------------|-------------------|-------------------|-------------------|
-------------------|-------------------|-------------------|-------------------|
-------------------|-------------------|-------------------|-------------------|
--0----------------|--L----------------|--L----------------|--L----------------|
--0----------------|--L----------------|--L----------------|--L----------------|
--0----------------|--L----------------|--L----------------|--L----------------|


    Q    Q    Q    Q       Q    Q    Q    Q       Q    Q    Q    Q
------------------------|----------------------|----------------------|
------------------------|----------------------|----------------------|
--7g9----9----9----9----|--9----9----9----9----|--5----5----5----5----|
----x----x----x----x----|--x----x----x----x----|--x----x----x----x----|
--5g7----7----7----7----|--7----7----7----7----|--3----3----3----3----|
------------------------|----------------------|----------------------|


                         PM PM PM      PM PM PM PM PM
  Q    Q    Q    Q       E  E  E  Q    S  S  E  S  S
----------------------|-------------------------------|
----------------------|-------------------------------|
--3----3----3----3----|-------------------------------|
--x----x----x----x----|-------------------------------|
--1----1----1----1----|-----------5-------------------|
----------------------|--0--0--0-------0--0--0--0--0--|


  PM PM PM       PM PM PM PM    PM PM PM PM      PM PM PM PM
  E  E  E  E  E  E  S  S  E     S  S  E  E  Q    S  S  E  E
-----------------------------|-------------------------------|
-----------------------------|-------------------------------|
-----------------------------|-------------------------------|
-----------------------------|-------------------------------|
-----------3--5--------------|--------------5----------------|
--0--0--0--------0--0--0--0--|--0--0--0--0-------0--0--0--0--|


          PM PM PM PM PM PM PM    PM PM PM      PM PM PM PM PM
  Q    E  E  S  S  E  S  S  E     E  E  E  Q    S  S  E  S  S
-------------------------------|-------------------------------|
-------------------------------|-------------------------------|
-------------------------------|-------------------------------|
-------------------------------|-------------------------------|
--3----5-----------------------|-----------5-------------------|
----------0--0--0--0--0--0--0--|--0--0--0-------0--0--0--0--0--|


  PM PM PM       PM PM PM PM    PM PM PM PM      PM PM PM PM
  E  E  E  E  E  E  S  S  E     S  S  E  E  Q    S  S  E  E
-----------------------------|-------------------------------|
-----------------------------|-------------------------------|
-----------------------------|-------------------------------|
-----------------------------|-------------------------------|
-----------3--5--------------|--------------5----------------|
--0--0--0--------0--0--0--0--|--0--0--0--0-------0--0--0--0--|


          PM PM PM PM PM PM PM    PM PM       PM PM PM PM PM PM
  Q    E  E  S  S  E  S  S  E     E  E  E  E  S  S  E  S  S  E
-------------------------------|--------------------------------|
-------------------------------|--------------------------------|
-------------------------------|--------------------------------|
-------------------------------|--------------------------------|
--3----5-----------------------|--0--0--------0--0--0--0--0--0--|
----------0--0--0--0--0--0--0--|--0--0--------0--0--0--0--0--0--|


  PM PM       PM PM PM PM PM PM    PM PM    PM PM PM PM
  E  E  E  E  S  S  E  S  S  E     E  E  E  S  S  E  E  E  E
--------------------------------|-----------------------------|
--------------------------------|-----------------------------|
--------------------------------|-----------------------------|
--------------------------------|-----------------------------|
--0--0--------0--0--0--0--0--0--|--0--0-----0--0--0--0--------|
--0--0--------0--0--0--0--0--0--|--0--0-----0--0--0--0--------|


        PM PM PM PM PM PM PM PM    PM PM PM      PM PM PM PM PM
  E  E  S  S  E  S  S  E  E  E     E  E  E  Q    S  S  E  S  S
--------------------------------|-------------------------------|
--------------------------------|-------------------------------|
--------------------------------|-------------------------------|
--------------------------------|-------------------------------|
--------0--0--0--0--0--0--0--0--|-----------5-------------------|
--------0--0--0--0--0--0--0--0--|--0--0--0-------0--0--0--0--0--|


  PM PM PM       PM PM PM PM    PM PM PM PM      PM PM PM PM
  E  E  E  E  E  E  S  S  E     S  S  E  E  Q    S  S  E  E
-----------------------------|-------------------------------|
-----------------------------|-------------------------------|
-----------------------------|-------------------------------|
-----------------------------|-------------------------------|
-----------3--5--------------|--------------5----------------|
--0--0--0--------0--0--0--0--|--0--0--0--0-------0--0--0--0--|


          PM PM PM PM PM PM PM
  Q    E  E  S  S  E  S  S  E     W                   W
-------------------------------|-------------------|-------------------|
-------------------------------|-------------------|-------------------|
-------------------------------|-------------------|-------------------|
-------------------------------|--0----------------|--L----------------|
--3----5-----------------------|--0----------------|--L----------------|
----------0--0--0--0--0--0--0--|--0----------------|--L----------------|


  W                   W                   W                   W
-------------------|-------------------|-------------------|-------------------|
-------------------|-------------------|-------------------|-------------------|
--3----------------|--2----------------|-------------------|-------------------|
--3----------------|--2----------------|--0----------------|--L----------------|
--1----------------|--0----------------|--0----------------|--L----------------|
-------------------|-------------------|--0----------------|--L----------------|


  W                   W                   W                   W
-------------------|-------------------|-------------------|-------------------|
-------------------|-------------------|-------------------|-------------------|
-------------------|-------------------|-------------------|-------------------|
--0----------------|--L----------------|--3----------------|--L----------------|
--0----------------|--L----------------|--3----------------|--L----------------|
--0----------------|--L----------------|--3----------------|--L----------------|


  PM PM PM PM PM PM PM PM                               PM
  E  E  E  E  E  E  E  E     E  E  E  E  E  E  E  E     E  E  Q    Q    Q
--------------------------|--------------------------|-----------------------|
--------------------------|--------------------------|-----------------------|
--------------------------|--7--7--7--7--9--9--9--9--|------------------3----|
--------------------------|--x--x--x--x--x--x--x--x--|------------------3----|
--0--0--0--0--0--0--0--0--|--5--5--5--5--7--7--7--7--|--0---------------1----|
--0--0--0--0--0--0--0--0--|--------------------------|--0--------------------|


  W                   H.           Q       W
-------------------|--------------------|-------------------|
-------------------|--------------------|-------------------|
--L----------------|---------------2----|--L----------------|
--L----------------|--3------------2----|--L----------------|
--L----------------|--3------------0----|--L----------------|
-------------------|--3-----------------|-------------------|


  H.           Q       W                   H.           Q
--------------------|-------------------|--------------------|
--------------------|-------------------|--------------------|
---------------3----|--L----------------|--5-----------------|
--0------------3----|--L----------------|--5------------3----|
--0------------1----|--L----------------|--3------------3----|
--0-----------------|-------------------|---------------3----|


  W                   H.           Q       W
-------------------|--------------------|-------------------|
-------------------|--------------------|-------------------|
-------------------|---------------3----|--L----------------|
--L----------------|--0------------3----|--L----------------|
--L----------------|--0------------1----|--L----------------|
--L----------------|--0-----------------|-------------------|


  H.           Q       W                   H.           Q
--------------------|-------------------|--------------------|
--------------------|-------------------|--------------------|
---------------2----|--L----------------|---------------3----|
--3------------2----|--L----------------|--0------------3----|
--3------------0----|--L----------------|--0------------1----|
--3-----------------|-------------------|--0-----------------|


  W                   H.           Q       W
-------------------|--------------------|-------------------|
-------------------|--------------------|-------------------|
--L----------------|--5-----------------|-------------------|
--L----------------|--5------------3----|--L----------------|
--L----------------|--3------------3----|--L----------------|
-------------------|---------------3----|--L----------------|


  H.           Q       Q    Q    Q    Q       H        H
--------------------|----------------------|--------------------|
--------------------|----------------------|--------------------|
--3------------5----|--5----5----5---------|--------------------|
--3------------5----|--5----5----5----3----|--3--------7--------|
--1------------3----|--3----3----3----3----|--3--------7--------|
--------------------|-----------------3----|--3--------7--------|


  Q    Q    Q    Q       H.           Q       Q    Q    Q    Q
----------------------|--------------------|----------------------|
----------------------|--------------------|----------------------|
----------------------|---------------5----|--5----5----5---------|
--8----7----5----3----|--L------------5----|--5----5----5----3----|
--8----7----5----3----|--L------------3----|--3----3----3----3----|
--8----7----5----3----|--L-----------------|-----------------3----|


           PM PM PM PM                   PM PM PM PM
  E  E  E  E  S  S  E  E  E     E  E  E  E  S  S  E  E  E
-----------------------------|-----------------------------|
-----------------------------|-----------------------------|
-----------------------------|-----------------------------|
-----------------------------|-----------------------------|
--5--3--5--------------------|--5--3--5--------------------|
-----------0--0--0--0--0--2--|-----------0--0--0--0--0--2--|


  E  E  E  E  E  E  E  E     E  E  E  E  E  E  E  E     W
--------------------------|--------------------------|-------------------|
--------------------------|--------------------------|-------------------|
--3--3--3--3--5--5--5--5--|--5--5--5--5--5--5--5--5--|-------------------|
--x--x--x--x--x--x--x--x--|--x--x--x--x--x--x--x--x--|--3----------------|
--1--1--1--1--3--3--3--3--|--3--3--3--3--3--3--3--3--|--3----------------|
--------------------------|--------------------------|--3----------------|


  Q    Q    Q    Q       H.           Q       Q    Q    Q    Q
----------------------|--------------------|----------------------|
----------------------|--------------------|----------------------|
----------------------|---------------5----|--5----5----5---------|
--8----7----5----3----|--3------------5----|--5----5----5----3----|
--8----7----5----3----|--3------------3----|--3----3----3----3----|
--8----7----5----3----|--3-----------------|-----------------3----|


           PM PM PM PM                   PM PM PM PM
  E  E  E  E  S  S  E  E  E     E  E  E  E  S  S  E  E  E
-----------------------------|-----------------------------|
-----------------------------|-----------------------------|
-----------------------------|-----------------------------|
-----------------------------|-----------------------------|
--5--3--5--------------------|--5--3--5--------------------|
-----------0--0--0--0--0--2--|-----------0--0--0--0--0--2--|


           PM PM PM PM
  E  E  E  E  S  S  E  E  E     E  E  E  E  E  E  E  E
-----------------------------|--------------------------|
-----------------------------|--------------------------|
-----------------------------|--------------5--3--2--3--|
-----------------------------|--3--2-----2--------------|
--5--3--1--------------------|--------5-----------------|
-----------0--0--0--0--2--3--|--------------------------|


           PM PM PM PM                   PM PM PM PM
  E  E  E  E  S  S  E  E  E     E  E  E  E  S  S  E  E  E
-----------------------------|-----------------------------|
-----------------------------|-----------------------------|
-----------------------------|-----------------------------|
-----------------------------|-----------------------------|
--5--3--5--------------------|--5--3--5--------------------|
-----------0--0--0--0--0--2--|-----------0--0--0--0--0--2--|


           PM PM PM PM          PM PM PM PM PM PM PM PM PM PM
  E  E  E  E  S  S  E  E  E     E  E  E  E  S  S  E  S  S  E
-----------------------------|--------------------------------|
-----------------------------|--------------------------------|
-----------------------------|--------------------------------|
-----------------------------|--------------------------------|
--5--3--1--------------------|--0--0--0--0--0--0--0--0--0--0--|
-----------0--0--0--0--2--3--|--0--0--0--0--0--0--0--0--0--0--|


  W                   W                   W                   W
-------------------|-------------------|-------------------|-------------------|
-------------------|-------------------|-------------------|-------------------|
--7----------------|--L----------------|--L----------------|--L----------------|
--7----------------|--L----------------|--L----------------|--L----------------|
--5----------------|--L----------------|--L----------------|--L----------------|
-------------------|-------------------|-------------------|-------------------|


  W                   W                   W                   W
-------------------|-------------------|-------------------|-------------------|
-------------------|-------------------|-------------------|-------------------|
--L----------------|--L----------------|--L----------------|--L----------------|
--L----------------|--L----------------|--L----------------|--L----------------|
--L----------------|--L----------------|--L----------------|--L----------------|
-------------------|-------------------|-------------------|-------------------|


  W                   W                   W
-------------------|-------------------|-------------------|
-------------------|-------------------|-------------------|
--L----------------|--L----------------|--L----------------|
--L----------------|--L----------------|--L----------------|
--L----------------|--L----------------|--L----------------|
-------------------|-------------------|-------------------|


  W
-------------------||
-------------------||
--L----------------||
--L----------------||
--L----------------||
-------------------||


Duration Legend
---------------
W - whole
H - half
Q - quarter
E - 8th
S - 16th
T - 32nd
X - 64th
. - note dotted
|-n-|  - n-tuplets


Tablature Legend
----------------
L - tied note
x - dead note
g - grace note
(n) - ghost note
> - accentuded note
NH - natural harmonic
AH - artificial harmonic
TH - tapped harmonic
SH - semi harmonic
PH - pitch harmonic
h - hammer on
p - pull off
b - bend
br - bendRelease
pb - preBend
pbr - preBendRelease
brb - bendReleaseBend
\n/ - tremolo bar dip
\n - tremolo bar dive
-/n - tremolo bar Release up
/n\ - tremolo bar inverted dip
/n - tremolo bar return
-\n - tremolo bar Release down
S - shift slide
s - legato slide
/ -  slide into from below or out of upwards
\ -  slide into from above or out of downwards
~ - vibrato
W - wide vibrato
tr - trill
TP - tremolo picking
T - tapping
S - slap
P - pop
< - fade in
^ - brush up
v - brush down
comments
print report bad tab
I want to post or [tab]
guest
You may want to rate the tab now too:
select rating
Please do not post tabs as comments. Select "correction" instead!