Oops, an error
Loading. Please wait.

Enclave Tab

29,202 views 24 this week
2 commentsread comments
1 2 3 4 5
excellent!
x 4
Autoscroll
+/-
esc
set tempo
stop
Contributor
Difficulty
novice
WARNING: You are trying to view
                                    content from Ultimate-Guitar.com
                                    in an unauthorized application,
                                    which is prohibited.

                                    Please use an official Ultimate
                                    Guitar Tabs application for iPhone,
                                    iPad or Android to access legitimate
                                    chords, guitar, bass, and drum tabs
                                    from Ultimate-Guitar.com database.

                                    Type "ultimate guitar tabs" in Apple
                                    App Store's or Android Market's
                                    search to find the application.
                                    Enclave                                     


                                                                 Sonic Syndicate
Guitar



     E  E  E  E  E   E  E  E     E  E  E  E  E  E  E  E   
D||---------------------------|--------------------------|
A||---------------------------|--------------------------|
F||--2--2--2--2--2s--5--5--5--|--L-----------------------|
C||--0--0--0--0--0---0--0--0--|--L--3--3--3--3--3--3--L--|
G||---------------------------|-----1--1--1--1--1--1--L--|
C||---------------------------|--------------------------|


  E  E  E  E  E   E  E  E     E  E  E  E  E  E  E  E   
---------------------------|--------------------------|
---------------------------|--------------------------|
---------------------------|--------------------------|
--3--3--3--3--3s--7--7--7--|--L--5--5--5--5--5--5--L--|
--1--1--1--1--1s--5--5--5--|--L--3--3--3--3--3--3--L--|
---------------------------|--------------------------|


  E  E  E  E  E   E  E  E     E  E  E  E  E  E  E  E   
---------------------------|--------------------------|
---------------------------|--------------------------|
--2--2--2--2--2s--5--5--5--|--L-----------------------|
--0--0--0--0--0---0--0--0--|--L--3--3--3--3--3--3--L--|
---------------------------|-----1--1--1--1--1--1--L--|
---------------------------|--------------------------|


  E  E  E  E  E   E  E  E     E  E  E  E  E   E  E  E   
---------------------------|---------------------------|
---------------------------|---------------------------|
---------------------------|---------------------------|
--3--3--3--3--3s--5--5--5--|--L--3--3--3--3s--5--5--L--|
--1--1--1--1--1s--3--3--3--|--L--1--1--1--1s--3--3--L--|
---------------------------|---------------------------|


  E  E  E  E  E   E  E  E     E  E  E  E  E  E  E  E   
---------------------------|--------------------------|
---------------------------|--------------------------|
--2--2--2--2--2s--5--5--5--|--L-----------------------|
--0--0--0--0--0---0--0--0--|--L--3--3--3--3--3--3--L--|
---------------------------|-----1--1--1--1--1--1--L--|
---------------------------|--------------------------|


  E  E  E  E  E   E  E  E     E  E  E  E  E  E  E  E   
---------------------------|--------------------------|
---------------------------|--------------------------|
---------------------------|--------------------------|
--3--3--3--3--3s--7--7--7--|--L--5--5--5--5--5--5--L--|
--1--1--1--1--1s--5--5--5--|--L--3--3--3--3--3--3--L--|
---------------------------|--------------------------|


  E  E  E  E  E   E  E  E     E  E  E  E  E  E  E  E   
---------------------------|--------------------------|
---------------------------|--------------------------|
--2--2--2--2--2s--5--5--5--|--L-----------------------|
--0--0--0--0--0---0--0--0--|--L--3--3--3--3--3--3--L--|
---------------------------|-----1--1--1--1--1--1--L--|
---------------------------|--------------------------|


  E  E  E  E  E   E  E  E     E  E  E  E  E   E  E  E   
---------------------------|---------------------------|
---------------------------|---------------------------|
---------------------------|---------------------------|
--3--3--3--3--3s--5--5--5--|--L--3--3--3--3s--5--5--L--|
--1--1--1--1--1s--3--3--3--|--L--1--1--1--1s--3--3--L--|
---------------------------|---------------------------|


  E  E  E  E  E   E  E  E     E  E  E  E  E  E  E  E   
---------------------------|--------------------------|
---------------------------|--------------------------|
--2--2--2--2--2s--5--5--5--|--L-----------------------|
--0--0--0--0--0---0--0--0--|--L--3--3--3--3--3--3--L--|
---------------------------|-----1--1--1--1--1--1--L--|
---------------------------|--------------------------|


  E  E  E  E  E   E  E  E     E  E  E  E  E  E  E  E   
---------------------------|--------------------------|
---------------------------|--------------------------|
---------------------------|--------------------------|
--3--3--3--3--3s--7--7--7--|--L--5--5--5--5--5--5--L--|
--1--1--1--1--1s--5--5--5--|--L--3--3--3--3--3--3--L--|
---------------------------|--------------------------|


  E  E  E  E  E   E  E  E     E  E  E  E  E  E  E  E   
---------------------------|--------------------------|
---------------------------|--------------------------|
--2--2--2--2--2s--5--5--5--|--L-----------------------|
--0--0--0--0--0---0--0--0--|--L--3--3--3--3--3--3--L--|
---------------------------|-----1--1--1--1--1--1--L--|
---------------------------|--------------------------|


                                 PM PM PM PM           
  E  E  E  E  E   E  E  E     E  E  E  E  E  E  E  E   
---------------------------|--------------------------|
---------------------------|--------------------------|
---------------------------|--------------------------|
--3--3--3--3--3s--5--5--5--|--L--3--3--3--3--5--5--5--|
--1--1--1--1--1s--3--3--3--|--L--1--1--1--1--3--3--3--|
---------------------------|--------------------------|


  E  E  E  E  E  E  E  E     E  E  E  E  E  E  E  E   
--------------------------|--------------------------|
--------------------------|--------------------------|
--------------------------|--------------------------|
--0--0--0--0--0--0--0--0--|--L--0--0--0--0--0--0--0--|
--0--0--0--0--0--0--0--0--|--L--0--0--0--0--0--0--0--|
--0--0--0--0--0--0--0--0--|--L--0--0--0--0--0--0--0--|


  E  E  E  E  E  E  E  E     E  E  E  E  E  E  E  E   
--------------------------|--------------------------|
--------------------------|--------------------------|
--3--3--3--3--3--3--3--3--|-----------------5--5--5--|
--3--3--3--3--3--3--3--3--|--3--3--3--3--3--5--5--5--|
--1--1--1--1--1--1--1--1--|--3--3--3--3--3--3--3--3--|
--------------------------|--3--3--3--3--3-----------|


  E  E  E  E  E  E  E  E     E  E  E  E  E  E  E  E   
--------------------------|--------------------------|
--------------------------|--------------------------|
--------------------------|--------------------------|
--0--0--0--0--0--0--0--0--|--L--0--0--0--0--0--0--0--|
--0--0--0--0--0--0--0--0--|--L--0--0--0--0--0--0--0--|
--0--0--0--0--0--0--0--0--|--L--0--0--0--0--0--0--0--|


  E  E  E  E  E  E  E  E     E  E  E  E  E  E  E  E   
--------------------------|--------------------------|
--------------------------|--------------------------|
--3--3--3--3--3--3--3--3--|-----------------5--5--5--|
--3--3--3--3--3--3--3--3--|--3--3--3--3--3--5--5--5--|
--1--1--1--1--1--1--1--1--|--3--3--3--3--3--3--3--3--|
--------------------------|--3--3--3--3--3-----------|


  E  E  E  E  E  E  E  E     E  E  E  E  E  E  E  E   
--------------------------|--------------------------|
--------------------------|--------------------------|
--------------------------|--------------------------|
--0--0--0--0--0--0--0--0--|--L--0--0--0--0--0--0--0--|
--0--0--0--0--0--0--0--0--|--L--0--0--0--0--0--0--0--|
--0--0--0--0--0--0--0--0--|--L--0--0--0--0--0--0--0--|


  E  E  E  E  E  E  E  E     E  E  E  E  E  E  E  E   
--------------------------|--------------------------|
--------------------------|--------------------------|
--3--3--3--3--3--3--3--3--|-----------------5--5--5--|
--3--3--3--3--3--3--3--3--|--3--3--3--3--3--5--5--5--|
--1--1--1--1--1--1--1--1--|--3--3--3--3--3--3--3--3--|
--------------------------|--3--3--3--3--3-----------|


  E  E  E  E  E  E  E  E     E  E  E  E  E  E  E  E   
--------------------------|--------------------------|
--------------------------|--------------------------|
--------------------------|--------------------------|
--0--0--0--0--0--0--0--0--|--L--0--0--0--0--0--0--0--|
--0--0--0--0--0--0--0--0--|--L--0--0--0--0--0--0--0--|
--0--0--0--0--0--0--0--0--|--L--0--0--0--0--0--0--0--|


  E  E  E  E  E  E  E  E     E  E  E  E  E  E  E  E   
--------------------------|--------------------------|
--------------------------|--------------------------|
--3--3--3--3--3--3--3--3--|-----------------5--5--5--|
--3--3--3--3--3--3--3--3--|--3--3--3--3--3--5--5--5--|
--1--1--1--1--1--1--1--1--|--3--3--3--3--3--3--3--3--|
--------------------------|--3--3--3--3--3-----------|


                                            PM PM PM  
  E  E  E  E  E  E  E  E     E  E  E  E  E  E  E  E   
--------------------------|--------------------------|
--------------------------|--------------------------|
--3--3--3--3--3--3--3--3--|--5--5--5--5--5-----------|
--3--3--3--3--3--3--3--3--|--5--5--5--5--5--5--5--5--|
--1--1--1--1--1--1--1--1--|--3--3--3--3--3--3--3--3--|
--------------------------|--------------------------|


  E  E  E  E  E   E  E  E     E  E  E  E  E  E  E  E   
---------------------------|--------------------------|
---------------------------|--------------------------|
--2--2--2--2--2s--5--5--5--|--L-----------------------|
--0--0--0--0--0---0--0--0--|--L--3--3--3--3--3--3--L--|
---------------------------|-----1--1--1--1--1--1--L--|
---------------------------|--------------------------|


  E  E  E  E  E   E  E  E     E  E  E  E  E  E  E  E   
---------------------------|--------------------------|
---------------------------|--------------------------|
---------------------------|--------------------------|
--3--3--3--3--3s--7--7--7--|--L--5--5--5--5--5--5--L--|
--1--1--1--1--1s--5--5--5--|--L--3--3--3--3--3--3--L--|
---------------------------|--------------------------|


  E  E  E  E  E   E  E  E     E  E  E  E  E  E  E  E   
---------------------------|--------------------------|
---------------------------|--------------------------|
--2--2--2--2--2s--5--5--5--|--L-----------------------|
--0--0--0--0--0---0--0--0--|--L--3--3--3--3--3--3--L--|
---------------------------|-----1--1--1--1--1--1--L--|
---------------------------|--------------------------|


  E  E  E  E  E   E  E  E     E  E  E  E  E   E  E  E   
---------------------------|---------------------------|
---------------------------|---------------------------|
---------------------------|---------------------------|
--3--3--3--3--3s--5--5--5--|--L--3--3--3--3s--5--5--L--|
--1--1--1--1--1s--3--3--3--|--L--1--1--1--1s--3--3--L--|
---------------------------|---------------------------|


  PM PM PM PM PM PM PM PM       PM PM PM PM PM PM     
  E  E  E  E  E  E  E  E     E  E  E  E  E  E  E  E   
--------------------------|--------------------------|
--------------------------|--------------------------|
--------------------------|--------------------------|
--7--7--7--7--7--7--7--7--|-----3--3--3--3--3--3-----|
--5--5--5--5--5--5--5--5--|-----1--1--1--1--1--1-----|
--------------------------|--------------------------|


  PM PM PM PM PM PM PM PM       PM PM PM PM PM PM     
  E  E  E  E  E  E  E  E     E  E  E  E  E  E  E  E   
--------------------------|--------------------------|
--------------------------|--------------------------|
--------------------------|--------------------------|
--3--3--3--3--3--7--7--7--|-----5--5--5--5--5--5-----|
--1--1--1--1--1--5--5--5--|-----3--3--3--3--3--3-----|
--------------------------|--------------------------|


  PM PM PM PM PM PM PM PM       PM PM PM PM PM PM     
  E  E  E  E  E  E  E  E     E  E  E  E  E  E  E  E   
--------------------------|--------------------------|
--------------------------|--------------------------|
--------------------------|--------------------------|
--7--7--7--7--7--7--7--7--|-----3--3--3--3--3--3-----|
--5--5--5--5--5--5--5--5--|-----1--1--1--1--1--1-----|
--------------------------|--------------------------|


  PM PM PM PM PM PM PM PM       PM PM PM PM PM PM PM  
  E  E  E  E  E  E  E  E     E  E  E  E  E  E  E  E   
--------------------------|--------------------------|
--------------------------|--------------------------|
--------------------------|--------------------------|
--3--3--3--3--3--5--5--5--|-----3--3--3--3--5--5--5--|
--1--1--1--1--1--3--3--3--|-----1--1--1--1--3--3--3--|
--------------------------|--------------------------|


  PM PM PM PM PM PM PM PM    PM PM PM PM PM PM PM PM  
  E  E  E  E  E  E  E  E     E  E  E  E  E  E  E  E   
--------------------------|--------------------------|
--------------------------|--------------------------|
--------------------------|--------------------------|
--3--3--3--3--3--3--3--3--|--3--3--3--3--3--3--3--3--|
--1--1--1--1--1--1--1--1--|--1--1--1--1--1--1--1--1--|
--------------------------|--------------------------|


  PM PM PM PM PM PM PM PM    PM PM PM PM PM PM PM PM  
  E  E  E  E  E  E  E  E     E  E  E  E  E  E  E  E   
--------------------------|--------------------------|
--------------------------|--------------------------|
--------------------------|--------------------------|
--5--5--5--5--5--5--5--5--|--5--5--5--5--5--5--5--5--|
--3--3--3--3--3--3--3--3--|--3--3--3--3--3--3--3--3--|
--------------------------|--------------------------|


  PM PM PM PM PM PM PM PM    PM PM PM PM PM PM PM PM  
  E  E  E  E  E  E  E  E     E  E  E  E  E  E  E  E   
--------------------------|--------------------------|
--------------------------|--------------------------|
--------------------------|--------------------------|
--3--3--3--3--3--3--3--3--|--3--3--3--3--3--3--3--3--|
--1--1--1--1--1--1--1--1--|--1--1--1--1--1--1--1--1--|
--------------------------|--------------------------|


  PM PM PM PM PM PM PM PM       PM PM PM PM           
  E  E  E  E  E  E  E  E     E  E  E  E  E  E  E  E   
--------------------------|--------------------------|
--------------------------|--------------------------|
--------------------------|-----------------5--5--5--|
--5--5--5--5--5--5--5--5--|-----3--3--3--3--5--5--5--|
--3--3--3--3--3--3--3--3--|-----1--1--1--1--3--3--3--|
--------------------------|--------------------------|


  E  E  E  E  E  E  E  E     E  E  E  E  E  E  E  E   
--------------------------|--------------------------|
--------------------------|--------------------------|
--------------------------|--------------------------|
--0--0--0--0--0--0--0--0--|--L--0--0--0--0--0--0--0--|
--0--0--0--0--0--0--0--0--|--L--0--0--0--0--0--0--0--|
--0--0--0--0--0--0--0--0--|--L--0--0--0--0--0--0--0--|


  E  E  E  E  E  E  E  E     E  E  E  E  E  E  E  E   
--------------------------|--------------------------|
--------------------------|--------------------------|
--3--3--3--3--3--3--3--3--|-----------------5--5--5--|
--3--3--3--3--3--3--3--3--|--3--3--3--3--3--5--5--5--|
--1--1--1--1--1--1--1--1--|--3--3--3--3--3--3--3--3--|
--------------------------|--3--3--3--3--3-----------|


  E  E  E  E  E  E  E  E     E  E  E  E  E  E  E  E   
--------------------------|--------------------------|
--------------------------|--------------------------|
--------------------------|--------------------------|
--0--0--0--0--0--0--0--0--|--L--0--0--0--0--0--0--0--|
--0--0--0--0--0--0--0--0--|--L--0--0--0--0--0--0--0--|
--0--0--0--0--0--0--0--0--|--L--0--0--0--0--0--0--0--|


  E  E  E  E  E  E  E  E     E  E  E  E  E  E  E  E   
--------------------------|--------------------------|
--------------------------|--------------------------|
--3--3--3--3--3--3--3--3--|-----------------5--5--5--|
--3--3--3--3--3--3--3--3--|--3--3--3--3--3--5--5--5--|
--1--1--1--1--1--1--1--1--|--3--3--3--3--3--3--3--3--|
--------------------------|--3--3--3--3--3-----------|


  E  E  E  E  E  E  E  E     E  E  E  E  E  E  E  E   
--------------------------|--------------------------|
--------------------------|--------------------------|
--------------------------|--------------------------|
--0--0--0--0--0--0--0--0--|--L--0--0--0--0--0--0--0--|
--0--0--0--0--0--0--0--0--|--L--0--0--0--0--0--0--0--|
--0--0--0--0--0--0--0--0--|--L--0--0--0--0--0--0--0--|


  E  E  E  E  E  E  E  E     E  E  E  E  E  E  E  E   
--------------------------|--------------------------|
--------------------------|--------------------------|
--3--3--3--3--3--3--3--3--|-----------------5--5--5--|
--3--3--3--3--3--3--3--3--|--3--3--3--3--3--5--5--5--|
--1--1--1--1--1--1--1--1--|--3--3--3--3--3--3--3--3--|
--------------------------|--3--3--3--3--3-----------|


  E  E  E  E  E  E  E  E     E  E  E  E  E  E  E  E   
--------------------------|--------------------------|
--------------------------|--------------------------|
--------------------------|--------------------------|
--0--0--0--0--0--0--0--0--|--L--0--0--0--0--0--0--0--|
--0--0--0--0--0--0--0--0--|--L--0--0--0--0--0--0--0--|
--0--0--0--0--0--0--0--0--|--L--0--0--0--0--0--0--0--|


  E  E  E  E  E  E  E  E     E  E  E  E  E  E  E  E   
--------------------------|--------------------------|
--------------------------|--------------------------|
--3--3--3--3--3--3--3--3--|-----------------5--5--5--|
--3--3--3--3--3--3--3--3--|--3--3--3--3--3--5--5--5--|
--1--1--1--1--1--1--1--1--|--3--3--3--3--3--3--3--3--|
--------------------------|--3--3--3--3--3-----------|


  E  E  E  E  E  E  E  E     E  E  E  E  E  E  E  E   
--------------------------|--------------------------|
--------------------------|--------------------------|
--3--3--3--3--3--3--3--3--|--5--5--5--5--5--5--5--5--|
--3--3--3--3--3--3--3--3--|--5--5--5--5--5--5--5--5--|
--1--1--1--1--1--1--1--1--|--3--3--3--3--3--3--3--3--|
--------------------------|--------------------------|


  E  E  E  E  E  E  E  E     E  E  E  E  E  E  E  E   
--------------------------|--------------------------|
--------------------------|--------------------------|
--7--7--7--7--7--7--7--7--|--5--5--5--5--5--7--7--7--|
--7--7--7--7--7--7--7--7--|--5--5--5--5--5--7--7--7--|
--5--5--5--5--5--5--5--5--|--3--3--3--3--3--5--5--5--|
--------------------------|--------------------------|


  E  E  E  E  E  E  E  E     E  E  E  E  E  E  E  E   
--------------------------|--------------------------|
--------------------------|--------------------------|
--3--3--3--3--3--3--3--3--|--5--5--5--5--5--5--5--5--|
--3--3--3--3--3--3--3--3--|--5--5--5--5--5--5--5--5--|
--1--1--1--1--1--1--1--1--|--3--3--3--3--3--3--3--3--|
--------------------------|--------------------------|


  E  E  E  E  E  E  E  E     E  E  E  E  E  E  E  E     W                 
--------------------------|--------------------------|-------------------|
--------------------------|--------------------------|-------------------|
--7--7--7--7--7--7--7--7--|--5--5--5--5--5--7--7--7--|--3----------------|
--7--7--7--7--7--7--7--7--|--5--5--5--5--5--7--7--7--|--3----------------|
--5--5--5--5--5--5--5--5--|--3--3--3--3--3--5--5--5--|--1----------------|
--------------------------|--------------------------|-------------------|


  W                   W                   H        E  E  E  E   
-------------------|-------------------|-----------------------|
-------------------|-------------------|-----------------------|
--L----------------|--L----------------|--L--------3--5--5-----|
--L----------------|--L----------------|--L--------3--5--5-----|
--L----------------|--L----------------|--L--------1--3--3-----|
-------------------|-------------------|-----------------------|


  E  E  E  E  E  E  E  E     E  E  E  E  E  E  E  E   
--------------------------|--------------------------|
--------------------------|--------------------------|
--------------------------|--------------------------|
--0--0--0--0--0--0--0--0--|--L--0--0--0--0--0--0--0--|
--0--0--0--0--0--0--0--0--|--L--0--0--0--0--0--0--0--|
--0--0--0--0--0--0--0--0--|--L--0--0--0--0--0--0--0--|


  E  E  E  E  E  E  E  E     E  E  E  E  E  E  E  E   
--------------------------|--------------------------|
--------------------------|--------------------------|
--3--3--3--3--3--3--3--3--|-----------------5--5--5--|
--3--3--3--3--3--3--3--3--|--3--3--3--3--3--5--5--5--|
--1--1--1--1--1--1--1--1--|--3--3--3--3--3--3--3--3--|
--------------------------|--3--3--3--3--3-----------|


  E  E  E  E  E  E  E  E     E  E  E  E  E  E  E  E   
--------------------------|--------------------------|
--------------------------|--------------------------|
--------------------------|--------------------------|
--0--0--0--0--0--0--0--0--|--L--0--0--0--0--0--0--0--|
--0--0--0--0--0--0--0--0--|--L--0--0--0--0--0--0--0--|
--0--0--0--0--0--0--0--0--|--L--0--0--0--0--0--0--0--|


  E  E  E  E  E  E  E  E     E  E  E  E  E  E  E  E   
--------------------------|--------------------------|
--------------------------|--------------------------|
--3--3--3--3--3--3--3--3--|-----------------5--5--5--|
--3--3--3--3--3--3--3--3--|--3--3--3--3--3--5--5--5--|
--1--1--1--1--1--1--1--1--|--3--3--3--3--3--3--3--3--|
--------------------------|--3--3--3--3--3-----------|


  E  E  E  E  E  E  E  E     E  E  E  E  E  E  E  E   
--------------------------|--------------------------|
--------------------------|--------------------------|
--------------------------|--------------------------|
--0--0--0--0--0--0--0--0--|--L--0--0--0--0--0--0--0--|
--0--0--0--0--0--0--0--0--|--L--0--0--0--0--0--0--0--|
--0--0--0--0--0--0--0--0--|--L--0--0--0--0--0--0--0--|


  E  E  E  E  E  E  E  E     E  E  E  E  E  E  E  E   
--------------------------|--------------------------|
--------------------------|--------------------------|
--3--3--3--3--3--3--3--3--|-----------------5--5--5--|
--3--3--3--3--3--3--3--3--|--3--3--3--3--3--5--5--5--|
--1--1--1--1--1--1--1--1--|--3--3--3--3--3--3--3--3--|
--------------------------|--3--3--3--3--3-----------|


  E  E  E  E  E  E  E  E     E  E  E  E  E  E  E  E   
--------------------------|--------------------------|
--------------------------|--------------------------|
--------------------------|--------------------------|
--0--0--0--0--0--0--0--0--|--L--0--0--0--0--0--0--0--|
--0--0--0--0--0--0--0--0--|--L--0--0--0--0--0--0--0--|
--0--0--0--0--0--0--0--0--|--L--0--0--0--0--0--0--0--|


  E  E  E  E  E  E  E  E     E  E  E  E  E  E  E  E   
--------------------------|--------------------------|
--------------------------|--------------------------|
--3--3--3--3--3--3--3--3--|-----------------5--5--5--|
--3--3--3--3--3--3--3--3--|--3--3--3--3--3--5--5--5--|
--1--1--1--1--1--1--1--1--|--3--3--3--3--3--3--3--3--|
--------------------------|--3--3--3--3--3-----------|


  PM PM PM PM PM PM PM PM    PM PM PM PM       PM PM PM PM                      
  E  E  E  E  E  E  E  E     E  E  E  E  E  E  S  S  S  S     W                 
--------------------------|--------------------------------|-------------------|
--------------------------|--------------------------------|-------------------|
--------------------------|--------------------------------|--3----------------|
--3--3--3--3--3--3--3--3--|--5--5--5--5--5-----5--5--5--5--|--3----------------|
--1--1--1--1--1--1--1--1--|--3--3--3--3--3--L--3--3--3--3--|--1----------------|
--------------------------|--------------------------------|-------------------|


  W                   W                   W                   W                 
-------------------|-------------------|-------------------|-------------------|
-------------------|-------------------|-------------------|-------------------|
--L----------------|--L----------------|--L----------------|--L----------------|
--L----------------|--L----------------|--L----------------|--L----------------|
--L----------------|--L----------------|--L----------------|--L----------------|
-------------------|-------------------|-------------------|-------------------|


  W                   W                   W                   W                 
-------------------|-------------------|-------------------|-------------------|
-------------------|-------------------|-------------------|-------------------|
--L----------------|--3----------------|--L----------------|--L----------------|
--L----------------|--3----------------|--L----------------|--L----------------|
--L----------------|--1----------------|--L----------------|--L----------------|
-------------------|-------------------|-------------------|-------------------|


  W                  
-------------------||
-------------------||
--L----------------||
--L----------------||
--L----------------||
-------------------||




Duration Legend
---------------
W - whole
H - half
Q - quarter
E - 8th
S - 16th
T - 32nd
X - 64th
. - note dotted
|-n-|  - n-tuplets


Tablature Legend
----------------
L - tied note
x - dead note
g - grace note
(n) - ghost note
> - accentuded note
NH - natural harmonic
AH - artificial harmonic
TH - tapped harmonic
SH - semi harmonic
PH - pitch harmonic
h - hammer on
p - pull off
b - bend
br - bendRelease
pb - preBend
pbr - preBendRelease
brb - bendReleaseBend
\n/ - tremolo bar dip
\n - tremolo bar dive
-/n - tremolo bar Release up
/n\ - tremolo bar inverted dip
/n - tremolo bar return
-\n - tremolo bar Release down
S - shift slide
s - legato slide
/ -  slide into from below or out of upwards
\ -  slide into from above or out of downwards
~ - vibrato
W - wide vibrato
tr - trill
TP - tremolo picking
T - tapping
S - slap
P - pop
< - fade in
^ - brush up
v - brush down
2 comments total.
0 reply
saberrocks wrote on September 16 2007, 09:18 am

awesome tab dude. go on!

0 reply
Logan_B wrote on December 2 2007, 05:31 pm

hey yo ushould get on that Denied tab....i wanna learn to play that song really bad

I want to post or [tab]
guest
You may want to rate the tab now too:
select rating
Please do not post tabs as comments. Select "correction" instead!