Oops, an error
Loading. Please wait.

Psychic Suicide Tab

ver1
ver1

Whole song

Interactive

More versions @911Tabs.com
6,975 views 1 this week
1 commentread comment
1 2 3 4 5
accurate
x 2
Autoscroll
+/-
esc
set tempo
stop
Contributor
Difficulty
intermediate
WARNING: You are trying to view
                                    content from Ultimate-Guitar.com
                                    in an unauthorized application,
                                    which is prohibited.

                                    Please use an official Ultimate
                                    Guitar Tabs application for iPhone,
                                    iPad or Android to access legitimate
                                    chords, guitar, bass, and drum tabs
                                    from Ultimate-Guitar.com database.

                                    Type "ultimate guitar tabs" in Apple
                                    App Store's or Android Market's
                                    search to find the application.
                                Psychic Suicide   
                              
                                Sonic Syndicate


Attention, this is a copy from the guitar pro file...
_______________________________________________________________________


Ctrl + F and search for these...

Guitar 1 (Synth)
Guitar 2




Duration Legend
---------------
W - whole
H - half
Q - quarter
E - 8th
S - 16th
T - 32nd
X - 64th
. - note dotted
|-n-|  - n-tuplets


Tablature Legend
----------------
L - tied note
x - dead note
g - grace note
(n) - ghost note
> - accentuded note
NH - natural harmonic
AH - artificial harmonic
TH - tapped harmonic
SH - semi harmonic
PH - pitch harmonic
h - hammer on
p - pull off
b - bend
br - bendRelease
pb - preBend
pbr - preBendRelease
brb - bendReleaseBend
\n/ - tremolo bar dip
\n - tremolo bar dive
-/n - tremolo bar Release up
/n\ - tremolo bar inverted dip
/n - tremolo bar return
-\n - tremolo bar Release down
S - shift slide
s - legato slide
/ -  slide into from below or out of upwards
\ -  slide into from above or out of downwards
~ - vibrato
W - wide vibrato
tr - trill
TP - tremolo picking
T - tapping
S - slap
P - pop
< - fade in
^ - brush up
v - brush down





		--		Guitar 1 (synth)		--


      E  E   E  E   E  E   E   E     E   E  E   E  E   E   E   E   
D||-------------------------------|-------------------------------|
A||-------------------------------|-------------------------------|
F||-------------------------------|-------------------------------|
C||--15--0--12--0--10--0--12--15--|--0--12--0--10--0--10--12--10--|
G||-------------------------------|-------------------------------|
C||-------------------------------|-------------------------------|


   E  E   E  E   E  E   E   E     E   E  E   E   E   E   E   E   
-------------------------------|--------------------------------|
-------------------------------|--------------------------------|
-------------------------------|--------------------------------|
--15--0--12--0--10--0--15--17--|--0--17--0--17--15--17--15--14--|
-------------------------------|--------------------------------|
-------------------------------|--------------------------------|


   E  E   E  E   E  E   E   E     E   E  E   E  E   E   E   E   
-------------------------------|-------------------------------|
-------------------------------|-------------------------------|
-------------------------------|-------------------------------|
--15--0--12--0--10--0--12--15--|--0--12--0--10--0--10--12--10--|
-------------------------------|-------------------------------|
-------------------------------|-------------------------------|


   E  E   E  E   E  E   E   E     E   E  E   E   E   E   E   E   
-------------------------------|--------------------------------|
-------------------------------|--------------------------------|
-------------------------------|--------------------------------|
--15--0--12--0--10--0--15--17--|--0--17--0--17--15--17--15--14--|
-------------------------------|--------------------------------|
-------------------------------|--------------------------------|


   E  E   E  E   E  E   E   E     E   E  E   E  E   E   E   E   
-------------------------------|-------------------------------|
-------------------------------|-------------------------------|
-------------------------------|-------------------------------|
--15--0--12--0--10--0--12--15--|--0--12--0--10--0--10--12--10--|
-------------------------------|-------------------------------|
-------------------------------|-------------------------------|


   E  E   E  E   E  E   E   E     E   E  E   E   E   E   E   E               
-------------------------------|--------------------------------|-----|-----|
-------------------------------|--------------------------------|-----|-----|
-------------------------------|--------------------------------|-----|-----|
--15--0--12--0--10--0--15--17--|--0--17--0--17--15--17--15--14--|-----|-----|
-------------------------------|--------------------------------|-----|-----|
-------------------------------|--------------------------------|-----|-----|


                                       E  E   E  E   E  E   E   E   
-----|-----|-----|-----|-----|-----|-------------------------------|
-----|-----|-----|-----|-----|-----|-------------------------------|
-----|-----|-----|-----|-----|-----|-------------------------------|
-----|-----|-----|-----|-----|-----|--15--0--12--0--10--0--12--15--|
-----|-----|-----|-----|-----|-----|-------------------------------|
-----|-----|-----|-----|-----|-----|-------------------------------|


  E   E  E   E  E   E   E   E      E  E   E  E   E  E   E   E   
-------------------------------|-------------------------------|
-------------------------------|-------------------------------|
-------------------------------|-------------------------------|
--0--12--0--10--0--10--12--10--|--15--0--12--0--10--0--15--17--|
-------------------------------|-------------------------------|
-------------------------------|-------------------------------|


  E   E  E   E   E   E   E   E      E  E   E  E   E  E   E   E   
--------------------------------|-------------------------------|
--------------------------------|-------------------------------|
--------------------------------|-------------------------------|
--0--17--0--17--15--17--15--14--|--15--0--12--0--10--0--12--15--|
--------------------------------|-------------------------------|
--------------------------------|-------------------------------|


  E   E  E   E  E   E   E   E      E  E   E  E   E  E   E   E   
-------------------------------|-------------------------------|
-------------------------------|-------------------------------|
-------------------------------|-------------------------------|
--0--12--0--10--0--10--12--10--|--15--0--12--0--10--0--15--17--|
-------------------------------|-------------------------------|
-------------------------------|-------------------------------|


  E   E  E   E   E   E   E   E                                             
--------------------------------|-----|-----|-----|-----|-----|-----|-----|
--------------------------------|-----|-----|-----|-----|-----|-----|-----|
--------------------------------|-----|-----|-----|-----|-----|-----|-----|
--0--17--0--17--15--17--15--14--|-----|-----|-----|-----|-----|-----|-----|
--------------------------------|-----|-----|-----|-----|-----|-----|-----|
--------------------------------|-----|-----|-----|-----|-----|-----|-----|


        PM PM    PM       PM PM       PM PM    PM             
        E  E  E  E  E  E  E  E     E  E  E  E  E  E   E   E   
-----|--------------------------|----------------------------|
-----|--------------------------|----------------------------|
-----|--------9-----7--5--------|--5--------7----------------|
-----|--------------------------|-----------------8--10--12--|
-----|--------------------------|----------------------------|
-----|--8--8-----8--------8--8--|-----8--8-----8-------------|


  PM PM    PM       PM PM       PM    PM     PM          
  E  E  E  E  E  E  E  E     E  E  E  E   E  E   E   E   
--------------------------|-----------------------------|
--------------------------|-----------------------------|
--------5-----3--5--------|-----------------------------|
--------------------------|--8-----7--------------------|
--------------------------|--------------10-----10p--8--|
--0--0-----0--------0--0--|-----0-----0------0----------|


  PM PM    PM       PM PM        PM PM    PM            
  E  E  E  E  E  E  E  E      E  E  E  E  E  E  E   E   
--------------------------|----------------------------|
--------------------------|----------------------------|
--------9-----7--5--------|--10--------9-----7--9--12--|
--------------------------|----------------------------|
--------------------------|----------------------------|
--8--8-----8--------8--8--|------8--8-----8------------|


  PM PM PM PM       PM PM                                   
  E  E  E  E  E  E  E  E           E  E  E  E  E  E  E  E   
--------------------------|-----|--------------------------|
--------------------------|-----|--------------------------|
--------------------------|-----|--------------------------|
--------------8--7--------|-----|--8--8--8--8--8--8--8--8--|
--------------------------|-----|--8--8--8--8--8--8--8--8--|
--0--0--0--0--------0--0--|-----|--8--8--8--8--8--8--8--8--|


   E   E   E   E   E   E   E   E      E   E   E   E   E   E   E   E   
----------------------------------|----------------------------------|
----------------------------------|----------------------------------|
----------------------------------|----------------------------------|
--10--10--10--10--10--10--10--10--|--12--12--12--12--12--12--12--12--|
--10--10--10--10--10--10--10--10--|--12--12--12--12--12--12--12--12--|
--10--10--10--10--10--10--10--10--|--12--12--12--12--12--12--12--12--|


   E   E   E   E   E   E   E   E     E  E  E  E  E  E  E  E   
----------------------------------|--------------------------|
----------------------------------|--------------------------|
----------------------------------|--------------------------|
--12--12--12--12--12--10--10--10--|--8--8--8--8--8--8--8--8--|
--12--12--12--12--12--10--10--10--|--8--8--8--8--8--8--8--8--|
--12--12--12--12--12--10--10--10--|--8--8--8--8--8--8--8--8--|


   E   E   E   E   E   E   E   E      E   E   E   E   E   E   E   E   
----------------------------------|----------------------------------|
----------------------------------|----------------------------------|
----------------------------------|----------------------------------|
--10--10--10--10--10--10--10--10--|--12--12--12--12--12--12--12--12--|
--10--10--10--10--10--10--10--10--|--12--12--12--12--12--12--12--12--|
--10--10--10--10--10--10--10--10--|--12--12--12--12--12--12--12--12--|


   E   E   E   E   E   E   E   E     E  E  E  E  E  E  E  E   
----------------------------------|--------------------------|
----------------------------------|--------------------------|
----------------------------------|--------------------------|
--12--12--12--12--12--10--10--10--|--8--8--8--8--8--8--8--8--|
--12--12--12--12--12--10--10--10--|--8--8--8--8--8--8--8--8--|
--12--12--12--12--12--10--10--10--|--8--8--8--8--8--8--8--8--|


   E   E   E   E   E   E   E   E      E   E   E   E   E   E   E   E   
----------------------------------|----------------------------------|
----------------------------------|----------------------------------|
----------------------------------|----------------------------------|
--10--10--10--10--10--10--10--10--|--12--12--12--12--12--12--12--12--|
--10--10--10--10--10--10--10--10--|--12--12--12--12--12--12--12--12--|
--10--10--10--10--10--10--10--10--|--12--12--12--12--12--12--12--12--|


   E   E   E   E   E   E   E   E     E  E  E  E  E  E  E  E   
----------------------------------|--------------------------|
----------------------------------|--------------------------|
----------------------------------|--------------------------|
--12--12--12--12--12--10--10--10--|--8--8--8--8--8--8--8--8--|
--12--12--12--12--12--10--10--10--|--8--8--8--8--8--8--8--8--|
--12--12--12--12--12--10--10--10--|--8--8--8--8--8--8--8--8--|


   E   E   E   E   E   E   E   E      E   E   E   E   E   E   E   E   
----------------------------------|----------------------------------|
----------------------------------|----------------------------------|
----------------------------------|----------------------------------|
--10--10--10--10--10--10--10--10--|--12--12--12--12--12--12--12--12--|
--10--10--10--10--10--10--10--10--|--12--12--12--12--12--12--12--12--|
--10--10--10--10--10--10--10--10--|--12--12--12--12--12--12--12--12--|


   E   E   E   E   E   E   E   E      E  E   E  E   E  E   E   E   
----------------------------------|-------------------------------|
----------------------------------|-------------------------------|
----------------------------------|-------------------------------|
--12--12--12--12--12--10--10--10--|--15--0--12--0--10--0--12--15--|
--12--12--12--12--12--10--10--10--|-------------------------------|
--12--12--12--12--12--10--10--10--|-------------------------------|


  E   E  E   E  E   E   E   E      E  E   E  E   E  E   E   E   
-------------------------------|-------------------------------|
-------------------------------|-------------------------------|
-------------------------------|-------------------------------|
--0--12--0--10--0--10--12--10--|--15--0--12--0--10--0--15--17--|
-------------------------------|-------------------------------|
-------------------------------|-------------------------------|


  E   E  E   E   E   E   E   E      E  E   E  E   E  E   E   E   
--------------------------------|-------------------------------|
--------------------------------|-------------------------------|
--------------------------------|-------------------------------|
--0--17--0--17--15--17--15--14--|--15--0--12--0--10--0--12--15--|
--------------------------------|-------------------------------|
--------------------------------|-------------------------------|


  E   E  E   E  E   E   E   E      E  E   E  E   E  E   E   E   
-------------------------------|-------------------------------|
-------------------------------|-------------------------------|
-------------------------------|-------------------------------|
--0--12--0--10--0--10--12--10--|--15--0--12--0--10--0--15--17--|
-------------------------------|-------------------------------|
-------------------------------|-------------------------------|


  E   E  E   E   E   E   E   E      E   E   E   E   E   E   E   E   
--------------------------------|----------------------------------|
--------------------------------|----------------------------------|
--------------------------------|----------------------------------|
--0--17--0--17--15--17--15--14--|--15--12--12--12--12--12--12--12--|
--------------------------------|----------------------------------|
--------------------------------|----------------------------------|


   E   E   E   E   E   E   E   E      E   E   E   E   E   E   E   E   
----------------------------------|----------------------------------|
----------------------------------|----------------------------------|
----------------------------------|----------------------------------|
--15--12--12--12--10--10--14--10--|--15--12--12--12--12--12--12--12--|
----------------------------------|----------------------------------|
----------------------------------|----------------------------------|


   E   E   E   E   E   E   E   E      E   E   E   E   E   E   E   E   
----------------------------------|----------------------------------|
----------------------------------|----------------------------------|
----------------------------------|----------------------------------|
--15--12--12--12--14--14--15--17--|--15--12--12--12--12--12--12--12--|
----------------------------------|----------------------------------|
----------------------------------|----------------------------------|


   E   E   E   E   E   E   E   E      E   E   E   E   E   E   E   E   
----------------------------------|----------------------------------|
----------------------------------|----------------------------------|
----------------------------------|----------------------------------|
--15--12--12--12--10--10--14--10--|--15--12--12--12--12--12--12--12--|
----------------------------------|----------------------------------|
----------------------------------|----------------------------------|


   E   E   E   E   E   E   E   E                                             
----------------------------------|-----|-----|-----|-----|-----|-----|-----|
----------------------------------|-----|-----|-----|-----|-----|-----|-----|
----------------------------------|-----|-----|-----|-----|-----|-----|-----|
--15--12--12--12--14--14--15--17--|-----|-----|-----|-----|-----|-----|-----|
----------------------------------|-----|-----|-----|-----|-----|-----|-----|
----------------------------------|-----|-----|-----|-----|-----|-----|-----|


  E  E      E   E   E   E   E   E  E  E      E   E   E   E   E   E   E   E   
--------|--------------------------------|----------------------------------|
--------|--------------------------------|----------------------------------|
--------|--------------------------------|----------------------------------|
--------|--12--10--15--14--15--12--------|--15--14--15--12--14--12--12--12--|
--------|--------------------------------|----------------------------------|
--------|--------------------------------|----------------------------------|


  E  E   E   E   E   E  E  E      E   E   E   E   E   E   E   E   
------------------------------|----------------------------------|
------------------------------|----------------------------------|
------------------------------|----------------------------------|
--------15--14--15--12--------|--15--14--15--12--14--12--12--12--|
------------------------------|----------------------------------|
------------------------------|----------------------------------|


  E  E   E   E   E   E  E  E      E   E   E   E   E   E   E   E   
------------------------------|----------------------------------|
------------------------------|----------------------------------|
------------------------------|----------------------------------|
--------15--14--15--12--------|--15--14--15--12--14--12--12--12--|
------------------------------|----------------------------------|
------------------------------|----------------------------------|


  E  E   E   E   E   E  E  E      E   E   E   E  E  E  E  E   
------------------------------|------------------------------|
------------------------------|------------------------------|
------------------------------|------------------------------|
--------15--14--15--12--------|--15--14--15--12--------------|
------------------------------|------------------------------|
------------------------------|------------------------------|


  E  E  E  E  E  E  E  E      E   E   E   E   E   E   E   E   
--------------------------|----------------------------------|
--------------------------|----------------------------------|
--------------------------|----------------------------------|
--8--8--8--8--8--8--8--8--|--10--10--10--10--10--10--10--10--|
--8--8--8--8--8--8--8--8--|--10--10--10--10--10--10--10--10--|
--8--8--8--8--8--8--8--8--|--10--10--10--10--10--10--10--10--|


   E   E   E   E   E   E   E   E      E   E   E   E   E   E   E   E   
----------------------------------|----------------------------------|
----------------------------------|----------------------------------|
----------------------------------|----------------------------------|
--12--12--12--12--12--12--12--12--|--12--12--12--12--12--10--10--10--|
--12--12--12--12--12--12--12--12--|--12--12--12--12--12--10--10--10--|
--12--12--12--12--12--12--12--12--|--12--12--12--12--12--10--10--10--|


  E  E  E  E  E  E  E  E      E   E   E   E   E   E   E   E   
--------------------------|----------------------------------|
--------------------------|----------------------------------|
--------------------------|----------------------------------|
--8--8--8--8--8--8--8--8--|--10--10--10--10--10--10--10--10--|
--8--8--8--8--8--8--8--8--|--10--10--10--10--10--10--10--10--|
--8--8--8--8--8--8--8--8--|--10--10--10--10--10--10--10--10--|


   E   E   E   E   E   E   E   E      E   E   E   E   E   E   E   E   
----------------------------------|----------------------------------|
----------------------------------|----------------------------------|
----------------------------------|----------------------------------|
--12--12--12--12--12--12--12--12--|--12--12--12--12--12--10--10--10--|
--12--12--12--12--12--12--12--12--|--12--12--12--12--12--10--10--10--|
--12--12--12--12--12--12--12--12--|--12--12--12--12--12--10--10--10--|


  E  E  E  E  E  E  E  E      E   E   E   E   E   E   E   E   
--------------------------|----------------------------------|
--------------------------|----------------------------------|
--------------------------|----------------------------------|
--8--8--8--8--8--8--8--8--|--10--10--10--10--10--10--10--10--|
--8--8--8--8--8--8--8--8--|--10--10--10--10--10--10--10--10--|
--8--8--8--8--8--8--8--8--|--10--10--10--10--10--10--10--10--|


   E   E   E   E   E   E   E   E      E   E   E   E   E   E   E   E   
----------------------------------|----------------------------------|
----------------------------------|----------------------------------|
----------------------------------|----------------------------------|
--12--12--12--12--12--12--12--12--|--12--12--12--12--12--10--10--10--|
--12--12--12--12--12--12--12--12--|--12--12--12--12--12--10--10--10--|
--12--12--12--12--12--12--12--12--|--12--12--12--12--12--10--10--10--|


  E  E  E  E  E  E  E  E      E   E   E   E   E   E   E   E   
--------------------------|----------------------------------|
--------------------------|----------------------------------|
--------------------------|----------------------------------|
--8--8--8--8--8--8--8--8--|--10--10--10--10--10--10--10--10--|
--8--8--8--8--8--8--8--8--|--10--10--10--10--10--10--10--10--|
--8--8--8--8--8--8--8--8--|--10--10--10--10--10--10--10--10--|


                                                     PM   PM   PM    
                                                     |----3----|     
   E   E   E   E   E   E   E   E      E   E   E   E  Q    Q    Q     
----------------------------------|---------------------------------|
----------------------------------|---------------------------------|
----------------------------------|---------------------------------|
--12--12--12--12--12--12--12--12--|--12--12--12--12-----------------|
--12--12--12--12--12--12--12--12--|--12--12--12--12--0----0----0----|
--12--12--12--12--12--12--12--12--|--12--12--12--12--0----0----0----|


  E  E  E  E  E  E  E  E     E  E  E  E  E  E  E  E   
--------------------------|--------------------------|
--------------------------|--------------------------|
--7--7--7--7--7--7--7--7--|--7--7--7--7--7--7--7--7--|
--------------------------|--------------------------|
--5--5--5--5--5--5--5--5--|--5--5--5--5--5--5--5--5--|
--------------------------|--------------------------|


   E   E   E   E   E   E   E   E      E   E   E   E   E   E   E   E   
----------------------------------|----------------------------------|
----------------------------------|----------------------------------|
--10--10--10--10--10--10--10--10--|--12--12--12--12--12--12--12--12--|
----------------------------------|----------------------------------|
---8---8---8---8---8---8---8---8--|--10--10--10--10--10--10--10--10--|
----------------------------------|----------------------------------|


  E  E  E  E  E  E  E  E     E  E  E  E  E  E  E  E   
--------------------------|--------------------------|
--------------------------|--------------------------|
--7--7--7--7--------7--7--|--7--7--------7--7--7--7--|
--------------------------|--------------------------|
--5--5--5--5--------5--5--|--5--5--------5--5--5--5--|
--------------------------|--------------------------|


   E   E   E   E  E  E   E   E      E   E   E   E   E  E  E  E   
--------------------------------|-------------------------------|
--------------------------------|-------------------------------|
--14--14--14--14--------14--14--|--12--12--12--12--12-----------|
--------------------------------|-------------------------------|
--12--12--12--12--------12--12--|--10--10--10--10--10-----------|
--------------------------------|-------------------------------|


  E  E  E  E  E  E  E  E      E   E   E   E   E   E  E  E   
--------------------------|--------------------------------|
--------------------------|--------------------------------|
--7--7--7--5--5--5--7--7--|--10--10--10--10--10--10--9--9--|
--------------------------|--------------------------------|
--5--5--5--3--3--3--5--5--|---8---8---8---8---8---8--7--7--|
--------------------------|--------------------------------|


   E   E   E  E  E  E   E   E      E   E   E   E   E   E  E  E   
-------------------------------|--------------------------------|
-------------------------------|--------------------------------|
--10--10--10--9--9--9--10--10--|--12--12--12--10--10--10--9--9--|
-------------------------------|--------------------------------|
---8---8---8--7--7--7---8---8--|--10--10--10---8---8---8--7--7--|
-------------------------------|--------------------------------|


  E  E  E  E  E  E  E  E      E   E   E   E   E   E  E  E   
--------------------------|--------------------------------|
--------------------------|--------------------------------|
--7--7--7--5--5--5--7--7--|--10--10--10--10--10--10--9--9--|
--------------------------|--------------------------------|
--5--5--5--3--3--3--5--5--|---8---8---8---8---8---8--7--7--|
--------------------------|--------------------------------|


   E   E   E   E   E   E  E  E     E  E  E  E  E  E   E   E   
--------------------------------|----------------------------|
--------------------------------|----------------------------|
--12--12--12--10--10--10--9--9--|--5--5--5--5--5--5--10--10--|
--------------------------------|----------------------------|
--10--10--10---8---8---8--7--7--|--3--3--3--3--3--3---8---8--|
--------------------------------|----------------------------|


  E  E  E  E  E  E  E  E      E   E   E   E   E   E  E  E   
--------------------------|--------------------------------|
--------------------------|--------------------------------|
--7--7--7--5--5--5--7--7--|--10--10--10--10--10--10--9--9--|
--------------------------|--------------------------------|
--5--5--5--3--3--3--5--5--|---8---8---8---8---8---8--7--7--|
--------------------------|--------------------------------|


   E   E   E  E  E  E   E   E      E   E   E   E   E   E  E  E   
-------------------------------|--------------------------------|
-------------------------------|--------------------------------|
--10--10--10--9--9--9--10--10--|--12--12--12--10--10--10--9--9--|
-------------------------------|--------------------------------|
---8---8---8--7--7--7---8---8--|--10--10--10---8---8---8--7--7--|
-------------------------------|--------------------------------|


  E  E  E  E  E  E  E  E      E   E   E   E   E   E  E  E   
--------------------------|--------------------------------|
--------------------------|--------------------------------|
--7--7--7--5--5--5--7--7--|--10--10--10--10--10--10--9--9--|
--------------------------|--------------------------------|
--5--5--5--3--3--3--5--5--|---8---8---8---8---8---8--7--7--|
--------------------------|--------------------------------|


   E   E   E   E   E   E  E  E     E  E  E  E  E  E   E   E                     
--------------------------------|----------------------------|-----|-----|-----|
--------------------------------|----------------------------|-----|-----|-----|
--12--12--12--10--10--10--9--9--|--5--5--5--5--5--5--10--10--|-----|-----|-----|
--------------------------------|----------------------------|-----|-----|-----|
--10--10--10---8---8---8--7--7--|--3--3--3--3--3--3---8---8--|-----|-----|-----|
--------------------------------|----------------------------|-----|-----|-----|


                                PM PM    PM       PM PM  
                                E  E  E  E  E  E  E  E   
-----|-----|-----|-----|-----|--------------------------|
-----|-----|-----|-----|-----|--------------------------|
-----|-----|-----|-----|-----|--------9-----7--5--------|
-----|-----|-----|-----|-----|--------------------------|
-----|-----|-----|-----|-----|--------------------------|
-----|-----|-----|-----|-----|--8--8-----8--------8--8--|


     PM PM    PM               PM PM    PM       PM PM  
  E  E  E  E  E  E   E   E     E  E  E  E  E  E  E  E   
----------------------------|--------------------------|
----------------------------|--------------------------|
--5--------7----------------|--------5-----3--5--------|
-----------------8--10--12--|--------------------------|
----------------------------|--------------------------|
-----8--8-----8-------------|--0--0-----0--------0--0--|


     PM    PM     PM            PM PM    PM       PM PM  
  E  E  E  E   E  E   E   E     E  E  E  E  E  E  E  E   
-----------------------------|--------------------------|
-----------------------------|--------------------------|
-----------------------------|--------9-----7--5--------|
--8-----7--------------------|--------------------------|
--------------10-----10p--8--|--------------------------|
-----0-----0------0----------|--8--8-----8--------8--8--|


      PM PM    PM              PM PM PM PM       PM PM        
   E  E  E  E  E  E  E   E     E  E  E  E  E  E  E  E         
----------------------------|--------------------------|-----|
----------------------------|--------------------------|-----|
--10--------9-----7--9--12--|--------------------------|-----|
----------------------------|--------------8--7--------|-----|
----------------------------|--------------------------|-----|
------8--8-----8------------|--0--0--0--0--------0--0--|-----|


  E  E  E  E  E  E  E  E      E   E   E   E   E   E   E   E   
--------------------------|----------------------------------|
--------------------------|----------------------------------|
--------------------------|----------------------------------|
--8--8--8--8--8--8--8--8--|--10--10--10--10--10--10--10--10--|
--8--8--8--8--8--8--8--8--|--10--10--10--10--10--10--10--10--|
--8--8--8--8--8--8--8--8--|--10--10--10--10--10--10--10--10--|


   E   E   E   E   E   E   E   E      E   E   E   E   E   E   E   E   
----------------------------------|----------------------------------|
----------------------------------|----------------------------------|
----------------------------------|----------------------------------|
--12--12--12--12--12--12--12--12--|--12--12--12--12--12--10--10--10--|
--12--12--12--12--12--12--12--12--|--12--12--12--12--12--10--10--10--|
--12--12--12--12--12--12--12--12--|--12--12--12--12--12--10--10--10--|


  E  E  E  E  E  E  E  E      E   E   E   E   E   E   E   E   
--------------------------|----------------------------------|
--------------------------|----------------------------------|
--------------------------|----------------------------------|
--8--8--8--8--8--8--8--8--|--10--10--10--10--10--10--10--10--|
--8--8--8--8--8--8--8--8--|--10--10--10--10--10--10--10--10--|
--8--8--8--8--8--8--8--8--|--10--10--10--10--10--10--10--10--|


   E   E   E   E   E   E   E   E      E   E   E   E   E   E   E   E   
----------------------------------|----------------------------------|
----------------------------------|----------------------------------|
----------------------------------|----------------------------------|
--12--12--12--12--12--12--12--12--|--12--12--12--12--12--10--10--10--|
--12--12--12--12--12--12--12--12--|--12--12--12--12--12--10--10--10--|
--12--12--12--12--12--12--12--12--|--12--12--12--12--12--10--10--10--|


  E  E  E  E  E  E  E  E      E   E   E   E   E   E   E   E   
--------------------------|----------------------------------|
--------------------------|----------------------------------|
--------------------------|----------------------------------|
--8--8--8--8--8--8--8--8--|--10--10--10--10--10--10--10--10--|
--8--8--8--8--8--8--8--8--|--10--10--10--10--10--10--10--10--|
--8--8--8--8--8--8--8--8--|--10--10--10--10--10--10--10--10--|


   E   E   E   E   E   E   E   E      E   E   E   E   E   E   E   E   
----------------------------------|----------------------------------|
----------------------------------|----------------------------------|
----------------------------------|----------------------------------|
--12--12--12--12--12--12--12--12--|--12--12--12--12--12--10--10--10--|
--12--12--12--12--12--12--12--12--|--12--12--12--12--12--10--10--10--|
--12--12--12--12--12--12--12--12--|--12--12--12--12--12--10--10--10--|


  E  E  E  E  E  E  E  E      E   E   E   E   E   E   E   E   
--------------------------|----------------------------------|
--------------------------|----------------------------------|
--------------------------|----------------------------------|
--8--8--8--8--8--8--8--8--|--10--10--10--10--10--10--10--10--|
--8--8--8--8--8--8--8--8--|--10--10--10--10--10--10--10--10--|
--8--8--8--8--8--8--8--8--|--10--10--10--10--10--10--10--10--|


   E   E   E   E   E   E   E   E      E   E   E   E   E   E   E   E   
----------------------------------|----------------------------------|
----------------------------------|----------------------------------|
----------------------------------|----------------------------------|
--12--12--12--12--12--12--12--12--|--12--12--12--12--12--10--10--10--|
--12--12--12--12--12--12--12--12--|--12--12--12--12--12--10--10--10--|
--12--12--12--12--12--12--12--12--|--12--12--12--12--12--10--10--10--|


  E  E  E  E  E  E  E  E      E   E   E   E   E   E   E   E   
--------------------------|----------------------------------|
--------------------------|----------------------------------|
--------------------------|----------------------------------|
--8--8--8--8--8--8--8--8--|--10--10--10--10--10--10--10--10--|
--8--8--8--8--8--8--8--8--|--10--10--10--10--10--10--10--10--|
--8--8--8--8--8--8--8--8--|--10--10--10--10--10--10--10--10--|


   E   E   E   E   E   E   E   E      E   E   E   E   E   E   E   E   
----------------------------------|----------------------------------|
----------------------------------|----------------------------------|
----------------------------------|----------------------------------|
--12--12--12--12--12--12--12--12--|--12--12--12--12--12--10--10--10--|
--12--12--12--12--12--12--12--12--|--12--12--12--12--12--10--10--10--|
--12--12--12--12--12--12--12--12--|--12--12--12--12--12--10--10--10--|


  E  E  E  E  E  E  E  E      E   E   E   E   E   E   E   E   
--------------------------|----------------------------------|
--------------------------|----------------------------------|
--------------------------|----------------------------------|
--8--8--8--8--8--8--8--8--|--10--10--10--10--10--10--10--10--|
--8--8--8--8--8--8--8--8--|--10--10--10--10--10--10--10--10--|
--8--8--8--8--8--8--8--8--|--10--10--10--10--10--10--10--10--|


   E   E   E   E   E   E   E   E      E   E   E   E   E   E   E   E   
----------------------------------|----------------------------------|
----------------------------------|----------------------------------|
----------------------------------|----------------------------------|
--12--12--12--12--12--12--12--12--|--12--12--12--12--12--10--10--10--|
--12--12--12--12--12--12--12--12--|--12--12--12--12--12--10--10--10--|
--12--12--12--12--12--12--12--12--|--12--12--12--12--12--10--10--10--|


  E  E  E  E  E  E  E  E      E   E   E   E   E   E   E   E   
--------------------------|----------------------------------|
--------------------------|----------------------------------|
--------------------------|----------------------------------|
--8--8--8--8--8--8--8--8--|--10--10--10--10--10--10--10--10--|
--8--8--8--8--8--8--8--8--|--10--10--10--10--10--10--10--10--|
--8--8--8--8--8--8--8--8--|--10--10--10--10--10--10--10--10--|


   E   E   E   E   E   E   E   E      E   E   E   E   E   E   E   E   
----------------------------------|----------------------------------|
----------------------------------|----------------------------------|
----------------------------------|----------------------------------|
--12--12--12--12--12--12--12--12--|--12--12--12--12--12--10--10--10--|
--12--12--12--12--12--12--12--12--|--12--12--12--12--12--10--10--10--|
--12--12--12--12--12--12--12--12--|--12--12--12--12--12--10--10--10--|


  E  E  E  E  E  E  E  E      E   E   E   E   E   E   E   E   
--------------------------|----------------------------------|
--------------------------|----------------------------------|
--------------------------|----------------------------------|
--8--8--8--8--8--8--8--8--|--10--10--10--10--10--10--10--10--|
--8--8--8--8--8--8--8--8--|--10--10--10--10--10--10--10--10--|
--8--8--8--8--8--8--8--8--|--10--10--10--10--10--10--10--10--|


   E   E   E   E   E   E   E   E      E   E   E   E   E   E   E   E   
----------------------------------|----------------------------------|
----------------------------------|----------------------------------|
----------------------------------|----------------------------------|
--12--12--12--12--12--12--12--12--|--12--12--12--12--12--10--10--10--|
--12--12--12--12--12--12--12--12--|--12--12--12--12--12--10--10--10--|
--12--12--12--12--12--12--12--12--|--12--12--12--12--12--10--10--10--|


   E  E   E  E   E  E   E   E     E   E  E   E  E   E   E   E   
-------------------------------|-------------------------------|
-------------------------------|-------------------------------|
-------------------------------|-------------------------------|
--15--0--12--0--10--0--12--15--|--0--12--0--10--0--10--12--10--|
-------------------------------|-------------------------------|
-------------------------------|-------------------------------|


   E  E   E  E   E  E   E   E     E   E  E   E   E   E   E   E   
-------------------------------|--------------------------------|
-------------------------------|--------------------------------|
-------------------------------|--------------------------------|
--15--0--12--0--10--0--15--17--|--0--17--0--17--15--17--15--14--|
-------------------------------|--------------------------------|
-------------------------------|--------------------------------|


   E  E   E  E   E  E   E   E     E   E  E   E  E   E   E   E   
-------------------------------|-------------------------------|
-------------------------------|-------------------------------|
-------------------------------|-------------------------------|
--15--0--12--0--10--0--12--15--|--0--12--0--10--0--10--12--10--|
-------------------------------|-------------------------------|
-------------------------------|-------------------------------|


   E  E   E  E   E  E   E   E     E   E  E   E   E   E   E   E                
-------------------------------|--------------------------------|-----|-----||
-------------------------------|--------------------------------|-----|-----||
-------------------------------|--------------------------------|-----|-----||
--15--0--12--0--10--0--15--17--|--0--17--0--17--15--17--15--14--|-----|-----||
-------------------------------|--------------------------------|-----|-----||
-------------------------------|--------------------------------|-----|-----||







			--		Guitar 2 		--


                                         PM PM PM PM  
                             E  E  E  E  E  E  E  E   
D||-------|-------|-------|--------------------------|
A||-------|-------|-------|--------------------------|
F||-------|-------|-------|--------------------------|
C||-------|-------|-------|--------------------------|
G||-------|-------|-------|--------------x--x--x--x--|
C||-------|-------|-------|--------------0--0--0--0--|


  E  E  E  E  E  E  E  E     E  E  E  E  E  E  E  E   
--------------------------|--------------------------|
--------------------------|--------------------------|
--------------------------|--------------------------|
--0--0--0--0--0--0--0--0--|--0--0--0--0--0--0--0--0--|
--0--0--0--0--0--0--0--0--|--0--0--0--0--0--0--0--0--|
--0--0--0--0--0--0--0--0--|--0--0--0--0--0--0--0--0--|


  E  E  E  E  E  E  E  E      E   E   E   E   E   E   E   E   
--------------------------|----------------------------------|
--------------------------|----------------------------------|
--------------------------|----------------------------------|
--8--8--8--8--8--8--8--8--|--10--10--10--10--10--10--10--10--|
--8--8--8--8--8--8--8--8--|--10--10--10--10--10--10--10--10--|
--8--8--8--8--8--8--8--8--|--10--10--10--10--10--10--10--10--|


  E  E  E  E  E  E  E  E     E  E  E  E  E  E  E  E   
--------------------------|--------------------------|
--------------------------|--------------------------|
--------------------------|--------------------------|
--0--0--0--0--0--0--0--0--|--0--0--0--0--0--0--0--0--|
--0--0--0--0--0--0--0--0--|--0--0--0--0--0--0--0--0--|
--0--0--0--0--0--0--0--0--|--0--0--0--0--0--0--0--0--|


                                              PM PM PM        
  E  E  E  E  E  E  E  E      E   E   E   E   S  S  E   Q     
--------------------------|----------------------------------|
--------------------------|----------------------------------|
--------------------------|----------------------------------|
--8--8--8--8--8--8--8--8--|--10--10--10--10------------10----|
--8--8--8--8--8--8--8--8--|--10--10--10--10------------10----|
--8--8--8--8--8--8--8--8--|--10--10--10--10--10-10-10--10----|


  PM PM PM            PM PM               PM PM PM PM       
  S  S  S  S Q.     S S  E  E     Q    E  S  S  E  E  Q     
-------------------------------|---------------------------|
-------------------------------|---------------------------|
-------------------------------|---------------------------|
-------------------------------|---------------------------|
----------------------------0--|--L----0--------------0----|
--0--0--0-----------0-0--0--0--|--L----0--0--0--0--0--0----|


  PM PM PM            PM PM                  PM PM PM   PM PM PM   
  S  S  S  S Q.     S S  E   E     H         S  S  S S  S  S  S S  
--------------------------------|---------------------------------|
--------------------------------|---------------------------------|
--------------------------------|---------------------------------|
--------------------------------|---------------------------------|
----------------------------10--|--L------------------------------|
--8--8--8-----------8-8--8--10--|--L--------10-10-10---10-10-10---|


  PM PM PM            PM PM               PM PM PM PM       
  S  S  S  S Q.     S S  E  E     Q    E  S  S  E  E  Q     
-------------------------------|---------------------------|
-------------------------------|---------------------------|
-------------------------------|---------------------------|
-------------------------------|---------------------------|
----------------------------0--|--L----0--------------0----|
--0--0--0-----------0-0--0--0--|--L----0--0--0--0--0--0----|


  PM PM PM            PM PM                PM PM PM       
  S  S  S  S Q.     S S  E  E     H        S  S  E  Q     
-------------------------------|-------------------------|
-------------------------------|-------------------------|
-------------------------------|-------------------------|
-------------------------------|-------------------------|
----------------------------8--|--L-----------------8----|
--5--5--5-----------5-5--5--8--|--L--------8--8--8--8----|


  PM PM PM            PM PM               PM PM PM PM       
  S  S  S  S Q.     S S  E  E     Q    E  S  S  E  E  Q     
-------------------------------|---------------------------|
-------------------------------|---------------------------|
-------------------------------|---------------------------|
-------------------------------|---------------------------|
----------------------------0--|--L----0--------------0----|
--0--0--0-----------0-0--0--0--|--L----0--0--0--0--0--0----|


  PM PM PM            PM PM                  PM PM PM   PM PM PM   
  S  S  S  S Q.     S S  E   E     H         S  S  S S  S  S  S S  
--------------------------------|---------------------------------|
--------------------------------|---------------------------------|
--------------------------------|---------------------------------|
--------------------------------|---------------------------------|
----------------------------10--|--L------------------------------|
--8--8--8-----------8-8--8--10--|--L--------10-10-10---10-10-10---|


  PM PM PM            PM PM               PM PM PM PM       
  S  S  S  S Q.     S S  E  E     Q    E  S  S  E  E  Q     
-------------------------------|---------------------------|
-------------------------------|---------------------------|
-------------------------------|---------------------------|
-------------------------------|---------------------------|
----------------------------0--|--L----0--------------0----|
--0--0--0-----------0-0--0--0--|--L----0--0--0--0--0--0----|


  PM PM PM            PM PM              PM PM PM PM PM PM  
  S  S  S  S Q.     S S  E  E     Q.     S  S  E  E  E  E   
-------------------------------|---------------------------|
-------------------------------|---------------------------|
-------------------------------|---------------------------|
-------------------------------|---------------------------|
----------------------------8--|--L------------------------|
--5--5--5-----------5-5--5--8--|---------8--8--8--8--8--8--|


  PM PM     PM        PM PM       PM PM    PM           
  E  E   E  E  E   E  E  E     E  E  E  E  E  E  E  E   
----------------------------|--------------------------|
----------------------------|--------------------------|
----------------------------|--------------------------|
--------10-----8p--7--------|--7--------8-----5--7--8--|
----------------------------|--------------------------|
--8--8------8---------8--8--|-----8--8-----8-----------|


  PM PM    PM       PM PM       PM    PM     PM          
  E  E  E  E  E  E  E  E     E  E  E  E   E  E   E   E   
--------------------------|-----------------------------|
--------------------------|-----------------------------|
--------------------------|-----------------------------|
--------7-----5--7--------|--8-----7--------------------|
--------------------------|--------------10-----10p--8--|
--0--0-----0--------0--0--|-----0-----0------0----------|


  PM PM     PM        PM PM        PM PM     PM             
  E  E   E  E  E   E  E  E      E  E  E   E  E  E   E   E   
----------------------------|------------------------------|
----------------------------|------------------------------|
----------------------------|------------------------------|
--------10-----8p--7--------|--12--------10-----8--10--12--|
----------------------------|------------------------------|
--8--8------8---------8--8--|------8--8------8-------------|


  PM PM PM PM       PM PM          PM PM              
  E  E  E  E  E  E  E  E     E  E  E  E  E  E  E  E   
--------------------------|--------------------------|
--------------------------|--------------------------|
--------------------------|--------------------------|
--------------8--7--------|--7--5--------8--7--5--7--|
--------------------------|--------------------------|
--0--0--0--0--------0--0--|--------0--0--------------|


  PM PM     PM        PM PM       PM PM    PM           
  E  E   E  E  E   E  E  E     E  E  E  E  E  E  E  E   
----------------------------|--------------------------|
----------------------------|--------------------------|
----------------------------|--------------------------|
--------10-----8p--7--------|--7--------8-----5--7--8--|
----------------------------|--------------------------|
--8--8------8---------8--8--|-----8--8-----8-----------|


  PM PM    PM       PM PM       PM    PM     PM          
  E  E  E  E  E  E  E  E     E  E  E  E   E  E   E   E   
--------------------------|-----------------------------|
--------------------------|-----------------------------|
--------------------------|-----------------------------|
--------7-----5--7--------|--8-----7--------------------|
--------------------------|--------------10-----10p--8--|
--0--0-----0--------0--0--|-----0-----0------0----------|


  PM PM     PM        PM PM        PM PM     PM             
  E  E   E  E  E   E  E  E      E  E  E   E  E  E   E   E   
----------------------------|------------------------------|
----------------------------|------------------------------|
----------------------------|------------------------------|
--------10-----8p--7--------|--12--------10-----8--10--12--|
----------------------------|------------------------------|
--8--8------8---------8--8--|------8--8------8-------------|


  PM PM PM PM       PM PM                               
  E  E  E  E  E  E  E  E     E  E  E   E  E  E   E  E   
--------------------------|----------------------------|
--------------------------|----------------------------|
--------------------------|----------------------------|
--------------8--7--------|--8--7--8--10--8--7---------|
--------------------------|---------------------10--8--|
--0--0--0--0--------0--0--|----------------------------|


  E  E  E  E  E  E  E  E      E   E   E   E   E   E   E   E   
--------------------------|----------------------------------|
--------------------------|----------------------------------|
--------------------------|----------------------------------|
--8--8--8--8--8--8--8--8--|--10--10--10--10--10--10--10--10--|
--8--8--8--8--8--8--8--8--|--10--10--10--10--10--10--10--10--|
--8--8--8--8--8--8--8--8--|--10--10--10--10--10--10--10--10--|


   E   E   E   E   E   E   E   E      E   E   E   E   E   E   E   E   
----------------------------------|----------------------------------|
----------------------------------|----------------------------------|
----------------------------------|----------------------------------|
--12--12--12--12--12--12--12--12--|--12--12--12--12--12--10--10--10--|
--12--12--12--12--12--12--12--12--|--12--12--12--12--12--10--10--10--|
--12--12--12--12--12--12--12--12--|--12--12--12--12--12--10--10--10--|


  E  E  E  E  E  E  E  E      E   E   E   E   E   E   E   E   
--------------------------|----------------------------------|
--------------------------|----------------------------------|
--------------------------|----------------------------------|
--8--8--8--8--8--8--8--8--|--10--10--10--10--10--10--10--10--|
--8--8--8--8--8--8--8--8--|--10--10--10--10--10--10--10--10--|
--8--8--8--8--8--8--8--8--|--10--10--10--10--10--10--10--10--|


   E   E   E   E   E   E   E   E      E   E   E   E   E   E   E   E   
----------------------------------|----------------------------------|
----------------------------------|----------------------------------|
----------------------------------|----------------------------------|
--12--12--12--12--12--12--12--12--|--12--12--12--12--12--10--10--10--|
--12--12--12--12--12--12--12--12--|--12--12--12--12--12--10--10--10--|
--12--12--12--12--12--12--12--12--|--12--12--12--12--12--10--10--10--|


  E  E  E  E  E  E  E  E      E   E   E   E   E   E   E   E   
--------------------------|----------------------------------|
--------------------------|----------------------------------|
--------------------------|----------------------------------|
--8--8--8--8--8--8--8--8--|--10--10--10--10--10--10--10--10--|
--8--8--8--8--8--8--8--8--|--10--10--10--10--10--10--10--10--|
--8--8--8--8--8--8--8--8--|--10--10--10--10--10--10--10--10--|


   E   E   E   E   E   E   E   E      E   E   E   E   E   E   E   E   
----------------------------------|----------------------------------|
----------------------------------|----------------------------------|
----------------------------------|----------------------------------|
--12--12--12--12--12--12--12--12--|--12--12--12--12--12--10--10--10--|
--12--12--12--12--12--12--12--12--|--12--12--12--12--12--10--10--10--|
--12--12--12--12--12--12--12--12--|--12--12--12--12--12--10--10--10--|


  E  E  E  E  E  E  E  E      E   E   E   E   E   E   E   E   
--------------------------|----------------------------------|
--------------------------|----------------------------------|
--------------------------|----------------------------------|
--8--8--8--8--8--8--8--8--|--10--10--10--10--10--10--10--10--|
--8--8--8--8--8--8--8--8--|--10--10--10--10--10--10--10--10--|
--8--8--8--8--8--8--8--8--|--10--10--10--10--10--10--10--10--|


   E   E   E   E   E   E   E   E      E   E   E   E   E   E   E   E   
----------------------------------|----------------------------------|
----------------------------------|----------------------------------|
----------------------------------|----------------------------------|
--12--12--12--12--12--12--12--12--|--12--12--12--12--12--10--10--10--|
--12--12--12--12--12--12--12--12--|--12--12--12--12--12--10--10--10--|
--12--12--12--12--12--12--12--12--|--12--12--12--12--12--10--10--10--|


  E  E  E  E  E  E  E  E     E  E  E  E  E  E  E  E   
--------------------------|--------------------------|
--------------------------|--------------------------|
--------------------------|--------------------------|
--0--0--0--0--0--0--0--0--|--0--0--0--0--0--0--0--0--|
--0--0--0--0--0--0--0--0--|--0--0--0--0--0--0--0--0--|
--0--0--0--0--0--0--0--0--|--0--0--0--0--0--0--0--0--|


  E  E  E  E  E  E  E  E      E   E   E   E   E   E   E   E   
--------------------------|----------------------------------|
--------------------------|----------------------------------|
--------------------------|----------------------------------|
--8--8--8--8--8--8--8--8--|--10--10--10--10--10--10--10--10--|
--8--8--8--8--8--8--8--8--|--10--10--10--10--10--10--10--10--|
--8--8--8--8--8--8--8--8--|--10--10--10--10--10--10--10--10--|


  E  E  E  E  E  E  E  E     E  E  E  E  E  E  E  E   
--------------------------|--------------------------|
--------------------------|--------------------------|
--------------------------|--------------------------|
--0--0--0--0--0--0--0--0--|--0--0--0--0--0--0--0--0--|
--0--0--0--0--0--0--0--0--|--0--0--0--0--0--0--0--0--|
--0--0--0--0--0--0--0--0--|--0--0--0--0--0--0--0--0--|


                                              PM PM PM        
  E  E  E  E  E  E  E  E      E   E   E   E   S  S  E   Q     
--------------------------|----------------------------------|
--------------------------|----------------------------------|
--------------------------|----------------------------------|
--8--8--8--8--8--8--8--8--|--10--10--10--10------------10----|
--8--8--8--8--8--8--8--8--|--10--10--10--10------------10----|
--8--8--8--8--8--8--8--8--|--10--10--10--10--10-10-10--10----|


  PM PM PM                              PM PM PM          PM PM PM     
  S  S  E  E  E  E  E  E  E             S  S  E  E  E  E  S  S  E  E   
-----------------------------|-------|--------------------------------|
-----------------------------|-------|--------------------------------|
-----------------------------|-------|--------------------------------|
-----------------------------|-------|--------------------------------|
-----------------------------|-------|-----------------------------0--|
--0--0--0--------------------|-------|--0--0--0-----------0--0--0--0--|


           PM PM PM PM PM PM    PM PM PM                            
  H        S  S  E  S  S  E     S  S  E  E  E  E  E  E  E           
-----------------------------|-----------------------------|-------|
-----------------------------|-----------------------------|-------|
-----------------------------|-----------------------------|-------|
-----------------------------|-----------------------------|-------|
--L--------------------------|-----------------------------|-------|
--L--------3--3--3--3--3--3--|--0--0--0--------------------|-------|


  PM PM PM          PM PM PM                PM PM PM PM PM PM  
  S  S  E  E  E  E  S  S  E  E     H        S  S  E  S  S  E   
--------------------------------|-----------------------------|
--------------------------------|-----------------------------|
--------------------------------|-----------------------------|
--------------------------------|-----------------------------|
-----------------------------0--|--L--------------------------|
--0--0--0-----------0--0--0--0--|--L--------3--3--3--3--3--3--|


  PM PM PM          PM PM PM PM                PM PM PM        
  S  S  E  E  E  E  S  S  E  E     E  E  E  E  S  S  E  E  E   
--------------------------------|-----------------------------|
--------------------------------|-----------------------------|
--------------------------------|-----------------------------|
--------------------------------|-----------------------------|
--------------------------------|-----------------------------|
--0--0--0--L--L--L--0--0--0--0--|--L--L--L--L--0--0--0--L--L--|


  PM PM PM          PM PM PM PM                PM PM PM        
  S  S  E  E  E  E  S  S  E  E     E  E  E  E  S  S  E  E  E   
--------------------------------|-----------------------------|
--------------------------------|-----------------------------|
--------------------------------|-----------------------------|
--------------------------------|-----------------------------|
--------------------------------|-----------------------------|
--0--0--0--L--L--L--0--0--0--0--|--L--L--L--L--0--0--0--L--L--|


  PM PM PM          PM PM PM PM                PM PM PM        
  S  S  E  E  E  E  S  S  E  E     E  E  E  E  S  S  E  E  E   
--------------------------------|-----------------------------|
--------------------------------|-----------------------------|
--------------------------------|-----------------------------|
--------------------------------|-----------------------------|
--------------------------------|-----------------------------|
--0--0--0--L--L--L--0--0--0--0--|--L--L--L--L--0--0--0--L--L--|


  PM PM PM          PM PM PM PM                PM PM PM        
  S  S  E  E  E  E  S  S  E  E     E  E  E  E  S  S  E  E  E   
--------------------------------|-----------------------------|
--------------------------------|-----------------------------|
--------------------------------|-----------------------------|
--------------------------------|-----------------------------|
--------------------------------|-----------------------------|
--0--0--0--L--L--L--0--0--0--0--|--L--L--L--L--0--0--0--L--L--|


  PM PM PM          PM PM PM PM                PM PM PM        
  S  S  E  E  E  E  S  S  E  E     E  E  E  E  S  S  E  E  E   
--------------------------------|-----------------------------|
--------------------------------|-----------------------------|
--------------------------------|-----------------------------|
--------------------------------|-----------------------------|
--------------------------------|-----------------------------|
--0--0--0-----------0--0--0--0--|--------------0--0--0--------|


  PM PM PM          PM PM PM PM                PM PM PM        
  S  S  E  E  E  E  S  S  E  E     E  E  E  E  S  S  E  E  E   
--------------------------------|-----------------------------|
--------------------------------|-----------------------------|
--------------------------------|-----------------------------|
--------------------------------|-----------------------------|
--------------------------------|-----------------------------|
--0--0--0-----------0--0--0--0--|--------------0--0--0--------|


  PM PM PM          PM PM PM PM                PM PM PM        
  S  S  E  E  E  E  S  S  E  E     E  E  E  E  S  S  E  E  E   
--------------------------------|-----------------------------|
--------------------------------|-----------------------------|
--------------------------------|-----------------------------|
--------------------------------|-----------------------------|
--------------------------------|-----------------------------|
--0--0--0-----------0--0--0--0--|--------------0--0--0--------|


  PM PM PM          PM PM PM PM                PM           
  S  S  E  E  E  E  S  S  E  E     E  E  E  E  E  E  E  E   
--------------------------------|--------------------------|
--------------------------------|--------------------------|
--------------------------------|--------------------------|
--------------------------------|--------------------------|
--------------------------------|--------------------------|
--0--0--0-----------0--0--0--0--|--------------0-----------|


  E  E  E  E  E  E  E  E      E   E   E   E   E   E   E   E   
--------------------------|----------------------------------|
--------------------------|----------------------------------|
--------------------------|----------------------------------|
--8--8--8--8--8--8--8--8--|--10--10--10--10--10--10--10--10--|
--8--8--8--8--8--8--8--8--|--10--10--10--10--10--10--10--10--|
--8--8--8--8--8--8--8--8--|--10--10--10--10--10--10--10--10--|


   E   E   E   E   E   E   E   E      E   E   E   E   E   E   E   E   
----------------------------------|----------------------------------|
----------------------------------|----------------------------------|
----------------------------------|----------------------------------|
--12--12--12--12--12--12--12--12--|--12--12--12--12--12--10--10--10--|
--12--12--12--12--12--12--12--12--|--12--12--12--12--12--10--10--10--|
--12--12--12--12--12--12--12--12--|--12--12--12--12--12--10--10--10--|


  E  E  E  E  E  E  E  E      E   E   E   E   E   E   E   E   
--------------------------|----------------------------------|
--------------------------|----------------------------------|
--------------------------|----------------------------------|
--8--8--8--8--8--8--8--8--|--10--10--10--10--10--10--10--10--|
--8--8--8--8--8--8--8--8--|--10--10--10--10--10--10--10--10--|
--8--8--8--8--8--8--8--8--|--10--10--10--10--10--10--10--10--|


   E   E   E   E   E   E   E   E      E   E   E   E   E   E   E   E   
----------------------------------|----------------------------------|
----------------------------------|----------------------------------|
----------------------------------|----------------------------------|
--12--12--12--12--12--12--12--12--|--12--12--12--12--12--10--10--10--|
--12--12--12--12--12--12--12--12--|--12--12--12--12--12--10--10--10--|
--12--12--12--12--12--12--12--12--|--12--12--12--12--12--10--10--10--|


  E  E  E  E  E  E  E  E      E   E   E   E   E   E   E   E   
--------------------------|----------------------------------|
--------------------------|----------------------------------|
--------------------------|----------------------------------|
--8--8--8--8--8--8--8--8--|--10--10--10--10--10--10--10--10--|
--8--8--8--8--8--8--8--8--|--10--10--10--10--10--10--10--10--|
--8--8--8--8--8--8--8--8--|--10--10--10--10--10--10--10--10--|


   E   E   E   E   E   E   E   E      E   E   E   E   E   E   E   E   
----------------------------------|----------------------------------|
----------------------------------|----------------------------------|
----------------------------------|----------------------------------|
--12--12--12--12--12--12--12--12--|--12--12--12--12--12--10--10--10--|
--12--12--12--12--12--12--12--12--|--12--12--12--12--12--10--10--10--|
--12--12--12--12--12--12--12--12--|--12--12--12--12--12--10--10--10--|


  E  E  E  E  E  E  E  E      E   E   E   E   E   E   E   E   
--------------------------|----------------------------------|
--------------------------|----------------------------------|
--------------------------|----------------------------------|
--8--8--8--8--8--8--8--8--|--10--10--10--10--10--10--10--10--|
--8--8--8--8--8--8--8--8--|--10--10--10--10--10--10--10--10--|
--8--8--8--8--8--8--8--8--|--10--10--10--10--10--10--10--10--|


                                                     PM   PM   PM    
                                                     |----3----|     
   E   E   E   E   E   E   E   E      E   E   E   E  Q    Q    Q     
----------------------------------|---------------------------------|
----------------------------------|---------------------------------|
----------------------------------|---------------------------------|
--12--12--12--12--12--12--12--12--|--12--12--12--12-----------------|
--12--12--12--12--12--12--12--12--|--12--12--12--12--0----0----0----|
--12--12--12--12--12--12--12--12--|--12--12--12--12--0----0----0----|


  W                   W                   W                   W                 
-------------------|-------------------|-------------------|-------------------|
-------------------|-------------------|-------------------|-------------------|
-------------------|-------------------|-------------------|-------------------|
--0----------------|--L----------------|--L----------------|--L----------------|
--0----------------|--L----------------|--L----------------|--L----------------|
--0----------------|--L----------------|--L----------------|--L----------------|


  E  E  E  E  Q    E  E     E  E  Q    E  E  E  E     E  E  E  E  Q    E  E   
-------------------------|-------------------------|-------------------------|
-------------------------|-------------------------|-------------------------|
-------------------------|-------------------------|-------------------------|
-------------------------|-------------------------|-------------------------|
--0--0--0--0-------0--0--|--0--0-------0--0--0--0--|--3--3--3--3-------3--3--|
--0--0--0--0-------0--0--|--0--0-------0--0--0--0--|--3--3--3--3-------3--3--|


  PM PM PM PM PM                                                           
  E  E  E  E  E  E     E  E  E  E  E  E  E  E     E  E  E  E  E  E  E  E   
--------------------|--------------------------|--------------------------|
--------------------|--------------------------|--------------------------|
--------------------|--------------------------|--------------------------|
--------------------|--0--0--0--0--0--0--0--0--|--0--0--0--0--0--0--0--0--|
--5--5--5--5--5-----|--0--0--0--0--0--0--0--0--|--0--0--0--0--0--0--0--0--|
--5--5--5--5--5-----|--0--0--0--0--0--0--0--0--|--0--0--0--0--0--0--0--0--|


  E  E  E  E  E  E  E  E      E   E   E   E   E   E   E   E   
--------------------------|----------------------------------|
--------------------------|----------------------------------|
--------------------------|----------------------------------|
--8--8--8--8--8--8--8--8--|--10--10--10--10--10--10--10--10--|
--8--8--8--8--8--8--8--8--|--10--10--10--10--10--10--10--10--|
--8--8--8--8--8--8--8--8--|--10--10--10--10--10--10--10--10--|


  E  E  E  E  E  E  E  E     E  E  E  E  E  E  E  E   
--------------------------|--------------------------|
--------------------------|--------------------------|
--------------------------|--------------------------|
--0--0--0--0--0--0--0--0--|--0--0--0--0--0--0--0--0--|
--0--0--0--0--0--0--0--0--|--0--0--0--0--0--0--0--0--|
--0--0--0--0--0--0--0--0--|--0--0--0--0--0--0--0--0--|


   E   E   E   E   E   E   E   E     E  E  E  E  E  E  E  E   
----------------------------------|--------------------------|
----------------------------------|--------------------------|
----------------------------------|--------------------------|
--10--10--10--10--10--10--10--10--|--3--3--3--3--3--3--3--3--|
--10--10--10--10--10--10--10--10--|--3--3--3--3--3--3--3--3--|
--10--10--10--10--10--10--10--10--|--3--3--3--3--3--3--3--3--|


  E  E  E  E  E  E  E  E     E  E  E  E  E  E  E  E   
--------------------------|--------------------------|
--------------------------|--------------------------|
--------------------------|--------------------------|
--0--0--0--0--0--0--0--0--|--0--0--0--0--0--0--0--0--|
--0--0--0--0--0--0--0--0--|--0--0--0--0--0--0--0--0--|
--0--0--0--0--0--0--0--0--|--0--0--0--0--0--0--0--0--|


  E  E  E  E  E  E  E  E      E   E   E   E   E   E   E   E   
--------------------------|----------------------------------|
--------------------------|----------------------------------|
--------------------------|----------------------------------|
--8--8--8--8--8--8--8--8--|--10--10--10--10--10--10--10--10--|
--8--8--8--8--8--8--8--8--|--10--10--10--10--10--10--10--10--|
--8--8--8--8--8--8--8--8--|--10--10--10--10--10--10--10--10--|


  E  E  E  E  E  E  E  E     E  E  E  E  E  E  E  E   
--------------------------|--------------------------|
--------------------------|--------------------------|
--------------------------|--------------------------|
--0--0--0--0--0--0--0--0--|--0--0--0--0--0--0--0--0--|
--0--0--0--0--0--0--0--0--|--0--0--0--0--0--0--0--0--|
--0--0--0--0--0--0--0--0--|--0--0--0--0--0--0--0--0--|


                                                 PM PM PM PM  
   E   E   E   E   E   E   E   E     E  E  E  E  E  E  E  E   
----------------------------------|--------------------------|
----------------------------------|--------------------------|
----------------------------------|--------------------------|
--10--10--10--10--10--10--10--10--|--3--3--3--3--------------|
--10--10--10--10--10--10--10--10--|--3--3--3--3--3--3--3--3--|
--10--10--10--10--10--10--10--10--|--3--3--3--3--3--3--3--3--|


  PM PM     PM        PM PM       PM PM    PM           
  E  E   E  E  E   E  E  E     E  E  E  E  E  E  E  E   
----------------------------|--------------------------|
----------------------------|--------------------------|
----------------------------|--------------------------|
--------10-----8p--7--------|--7--------8-----5--7--8--|
----------------------------|--------------------------|
--8--8------8---------8--8--|-----8--8-----8-----------|


  PM PM    PM       PM PM       PM    PM     PM          
  E  E  E  E  E  E  E  E     E  E  E  E   E  E   E   E   
--------------------------|-----------------------------|
--------------------------|-----------------------------|
--------------------------|-----------------------------|
--------7-----5--7--------|--8-----7--------------------|
--------------------------|--------------10-----10p--8--|
--0--0-----0--------0--0--|-----0-----0------0----------|


  PM PM     PM        PM PM        PM PM     PM             
  E  E   E  E  E   E  E  E      E  E  E   E  E  E   E   E   
----------------------------|------------------------------|
----------------------------|------------------------------|
----------------------------|------------------------------|
--------10-----8p--7--------|--12--------10-----8--10--12--|
----------------------------|------------------------------|
--8--8------8---------8--8--|------8--8------8-------------|


  PM PM PM PM       PM PM          PM PM              
  E  E  E  E  E  E  E  E     E  E  E  E  E  E  E  E   
--------------------------|--------------------------|
--------------------------|--------------------------|
--------------------------|--------------------------|
--------------8--7--------|--7--5--------8--7--5--7--|
--------------------------|--------------------------|
--0--0--0--0--------0--0--|--------0--0--------------|


  PM PM     PM        PM PM       PM PM    PM           
  E  E   E  E  E   E  E  E     E  E  E  E  E  E  E  E   
----------------------------|--------------------------|
----------------------------|--------------------------|
----------------------------|--------------------------|
--------10-----8p--7--------|--7--------8-----5--7--8--|
----------------------------|--------------------------|
--8--8------8---------8--8--|-----8--8-----8-----------|


  PM PM    PM       PM PM       PM    PM     PM          
  E  E  E  E  E  E  E  E     E  E  E  E   E  E   E   E   
--------------------------|-----------------------------|
--------------------------|-----------------------------|
--------------------------|-----------------------------|
--------7-----5--7--------|--8-----7--------------------|
--------------------------|--------------10-----10p--8--|
--0--0-----0--------0--0--|-----0-----0------0----------|


  PM PM     PM        PM PM        PM PM     PM             
  E  E   E  E  E   E  E  E      E  E  E   E  E  E   E   E   
----------------------------|------------------------------|
----------------------------|------------------------------|
----------------------------|------------------------------|
--------10-----8p--7--------|--12--------10-----8--10--12--|
----------------------------|------------------------------|
--8--8------8---------8--8--|------8--8------8-------------|


  PM PM PM PM       PM PM                               
  E  E  E  E  E  E  E  E     E  E  E   E  E  E   E  E   
--------------------------|----------------------------|
--------------------------|----------------------------|
--------------------------|----------------------------|
--------------8--7--------|--8--7--8--10--8--7---------|
--------------------------|---------------------10--8--|
--0--0--0--0--------0--0--|----------------------------|


  E  E  E  E  E  E  E  E      E   E   E   E   E   E   E   E   
--------------------------|----------------------------------|
--------------------------|----------------------------------|
--------------------------|----------------------------------|
--8--8--8--8--8--8--8--8--|--10--10--10--10--10--10--10--10--|
--8--8--8--8--8--8--8--8--|--10--10--10--10--10--10--10--10--|
--8--8--8--8--8--8--8--8--|--10--10--10--10--10--10--10--10--|


   E   E   E   E   E   E   E   E      E   E   E   E   E   E   E   E   
----------------------------------|----------------------------------|
----------------------------------|----------------------------------|
----------------------------------|----------------------------------|
--12--12--12--12--12--12--12--12--|--12--12--12--12--12--10--10--10--|
--12--12--12--12--12--12--12--12--|--12--12--12--12--12--10--10--10--|
--12--12--12--12--12--12--12--12--|--12--12--12--12--12--10--10--10--|


  E  E  E  E  E  E  E  E      E   E   E   E   E   E   E   E   
--------------------------|----------------------------------|
--------------------------|----------------------------------|
--------------------------|----------------------------------|
--8--8--8--8--8--8--8--8--|--10--10--10--10--10--10--10--10--|
--8--8--8--8--8--8--8--8--|--10--10--10--10--10--10--10--10--|
--8--8--8--8--8--8--8--8--|--10--10--10--10--10--10--10--10--|


   E   E   E   E   E   E   E   E      E   E   E   E   E   E   E   E   
----------------------------------|----------------------------------|
----------------------------------|----------------------------------|
----------------------------------|----------------------------------|
--12--12--12--12--12--12--12--12--|--12--12--12--12--12--10--10--10--|
--12--12--12--12--12--12--12--12--|--12--12--12--12--12--10--10--10--|
--12--12--12--12--12--12--12--12--|--12--12--12--12--12--10--10--10--|


  E  E  E  E  E  E  E  E      E   E   E   E   E   E   E   E   
--------------------------|----------------------------------|
--------------------------|----------------------------------|
--------------------------|----------------------------------|
--8--8--8--8--8--8--8--8--|--10--10--10--10--10--10--10--10--|
--8--8--8--8--8--8--8--8--|--10--10--10--10--10--10--10--10--|
--8--8--8--8--8--8--8--8--|--10--10--10--10--10--10--10--10--|


   E   E   E   E   E   E   E   E      E   E   E   E   E   E   E   E   
----------------------------------|----------------------------------|
----------------------------------|----------------------------------|
----------------------------------|----------------------------------|
--12--12--12--12--12--12--12--12--|--12--12--12--12--12--10--10--10--|
--12--12--12--12--12--12--12--12--|--12--12--12--12--12--10--10--10--|
--12--12--12--12--12--12--12--12--|--12--12--12--12--12--10--10--10--|


  E  E  E  E  E  E  E  E      E   E   E   E   E   E   E   E   
--------------------------|----------------------------------|
--------------------------|----------------------------------|
--------------------------|----------------------------------|
--8--8--8--8--8--8--8--8--|--10--10--10--10--10--10--10--10--|
--8--8--8--8--8--8--8--8--|--10--10--10--10--10--10--10--10--|
--8--8--8--8--8--8--8--8--|--10--10--10--10--10--10--10--10--|


   E   E   E   E   E   E   E   E      E   E   E   E   E   E   E   E   
----------------------------------|----------------------------------|
----------------------------------|----------------------------------|
----------------------------------|----------------------------------|
--12--12--12--12--12--12--12--12--|--12--12--12--12--12--10--10--10--|
--12--12--12--12--12--12--12--12--|--12--12--12--12--12--10--10--10--|
--12--12--12--12--12--12--12--12--|--12--12--12--12--12--10--10--10--|


  E  E  E  E  E  E  E  E      E   E   E   E   E   E   E   E   
--------------------------|----------------------------------|
--------------------------|----------------------------------|
--------------------------|----------------------------------|
--8--8--8--8--8--8--8--8--|--10--10--10--10--10--10--10--10--|
--8--8--8--8--8--8--8--8--|--10--10--10--10--10--10--10--10--|
--8--8--8--8--8--8--8--8--|--10--10--10--10--10--10--10--10--|


   E   E   E   E   E   E   E   E      E   E   E   E   E   E   E   E   
----------------------------------|----------------------------------|
----------------------------------|----------------------------------|
----------------------------------|----------------------------------|
--12--12--12--12--12--12--12--12--|--12--12--12--12--12--10--10--10--|
--12--12--12--12--12--12--12--12--|--12--12--12--12--12--10--10--10--|
--12--12--12--12--12--12--12--12--|--12--12--12--12--12--10--10--10--|


  E  E  E  E  E  E  E  E      E   E   E   E   E   E   E   E   
--------------------------|----------------------------------|
--------------------------|----------------------------------|
--------------------------|----------------------------------|
--8--8--8--8--8--8--8--8--|--10--10--10--10--10--10--10--10--|
--8--8--8--8--8--8--8--8--|--10--10--10--10--10--10--10--10--|
--8--8--8--8--8--8--8--8--|--10--10--10--10--10--10--10--10--|


   E   E   E   E   E   E   E   E      E   E   E   E   E   E   E   E   
----------------------------------|----------------------------------|
----------------------------------|----------------------------------|
----------------------------------|----------------------------------|
--12--12--12--12--12--12--12--12--|--12--12--12--12--12--10--10--10--|
--12--12--12--12--12--12--12--12--|--12--12--12--12--12--10--10--10--|
--12--12--12--12--12--12--12--12--|--12--12--12--12--12--10--10--10--|


  E  E  E  E  E  E  E  E      E   E   E   E   E   E   E   E   
--------------------------|----------------------------------|
--------------------------|----------------------------------|
--------------------------|----------------------------------|
--8--8--8--8--8--8--8--8--|--10--10--10--10--10--10--10--10--|
--8--8--8--8--8--8--8--8--|--10--10--10--10--10--10--10--10--|
--8--8--8--8--8--8--8--8--|--10--10--10--10--10--10--10--10--|


   E   E   E   E   E   E   E   E      E   E   E   E   E   E   E   E   
----------------------------------|----------------------------------|
----------------------------------|----------------------------------|
----------------------------------|----------------------------------|
--12--12--12--12--12--12--12--12--|--12--12--12--12--12--10--10--10--|
--12--12--12--12--12--12--12--12--|--12--12--12--12--12--10--10--10--|
--12--12--12--12--12--12--12--12--|--12--12--12--12--12--10--10--10--|


  E  E  E  E  E  E  E  E      E   E   E   E   E   E   E   E   
--------------------------|----------------------------------|
--------------------------|----------------------------------|
--------------------------|----------------------------------|
--8--8--8--8--8--8--8--8--|--10--10--10--10--10--10--10--10--|
--8--8--8--8--8--8--8--8--|--10--10--10--10--10--10--10--10--|
--8--8--8--8--8--8--8--8--|--10--10--10--10--10--10--10--10--|


   E   E   E   E   E   E   E   E      E   E   E   E   E   E   E   E   
----------------------------------|----------------------------------|
----------------------------------|----------------------------------|
----------------------------------|----------------------------------|
--12--12--12--12--12--12--12--12--|--12--12--12--12--12--10--10--10--|
--12--12--12--12--12--12--12--12--|--12--12--12--12--12--10--10--10--|
--12--12--12--12--12--12--12--12--|--12--12--12--12--12--10--10--10--|


  E  E  E  E  E  E  E  E     E  E  E  E  E  E  E  E   
--------------------------|--------------------------|
--------------------------|--------------------------|
--------------------------|--------------------------|
--0--0--0--0--0--0--0--0--|--0--0--0--0--0--0--0--0--|
--0--0--0--0--0--0--0--0--|--0--0--0--0--0--0--0--0--|
--0--0--0--0--0--0--0--0--|--0--0--0--0--0--0--0--0--|


  E  E  E  E  E  E  E  E      E   E   E   E   E   E   E   E   
--------------------------|----------------------------------|
--------------------------|----------------------------------|
--------------------------|----------------------------------|
--8--8--8--8--8--8--8--8--|--10--10--10--10--10--10--10--10--|
--8--8--8--8--8--8--8--8--|--10--10--10--10--10--10--10--10--|
--8--8--8--8--8--8--8--8--|--10--10--10--10--10--10--10--10--|


  E  E  E  E  E  E  E  E     E  E  E  E  E  E  E  E   
--------------------------|--------------------------|
--------------------------|--------------------------|
--------------------------|--------------------------|
--0--0--0--0--0--0--0--0--|--0--0--0--0--0--0--0--0--|
--0--0--0--0--0--0--0--0--|--0--0--0--0--0--0--0--0--|
--0--0--0--0--0--0--0--0--|--0--0--0--0--0--0--0--0--|


  E  E  E  E  E  E  E  E      E   E   E   E   E   E   E   E   
--------------------------|----------------------------------|
--------------------------|----------------------------------|
--------------------------|----------------------------------|
--8--8--8--8--8--8--8--8--|--10--10--10--10--10--10--10--10--|
--8--8--8--8--8--8--8--8--|--10--10--10--10--10--10--10--10--|
--8--8--8--8--8--8--8--8--|--10--10--10--10--10--10--10--10--|


  PM PM PM PM    PM PM PM    PM   
  E  E  E  E  E  E  E  E     E    
--------------------------|-----||
--------------------------|-----||
--------------------------|-----||
--------------------------|-----||
--0--0--0--0-----0--0--0--|--0--||
--0--0--0--0-----0--0--0--|--0--||



comments
We did not receive enough feedback on this tab! Please rate:
print report bad tab
1 2 3 4 5
1 comment total.
0 reply
♪Dustin♪ wrote on October 27 2010, 09:12 pm

other than the intro this tab really doesnt make sense

I want to post or [tab]
guest
You may want to rate the tab now too:
select rating
Please do not post tabs as comments. Select "correction" instead!