Oops, an error
Loading. Please wait.

Rebellion In Nightmareland Tab

438 views 1 this week
no commentswrite comment
1 2 3 4 5
please rate
Autoscroll
+/-
esc
set tempo
stop
Contributor
NEW! There's an official Ultimate Guitar app which is ideal
for learning songs when you're away from computer. Get the app
WARNING: You are trying to view
                                    content from Ultimate-Guitar.com
                                    in an unauthorized application,
                                    which is prohibited.

                                    Please use an official Ultimate
                                    Guitar Tabs application for iPhone,
                                    iPad or Android to access legitimate
                                    chords, guitar, bass, and drum tabs
                                    from Ultimate-Guitar.com database.

                                    Type "ultimate guitar tabs" in Apple
                                    App Store's or Android Market's
                                    search to find the application.
Sonic Syndicate - Rebellion in Nightmareland

Tuning is drop C


~xXv//| INTRO |\\vXx~ (and  verse)

|-------------------------------------------------------|
|-------------------------------------------------------|
|-------------------------------------------------------|
|-------------------------------------------------------|
|-----------------------------------------1---1---3h5-5-|
|-0000-000-000--0-0000-000-000--0-000-0-0---0---0-------|
  .... ... ...  . .... ... ...  . ... . .   .   .
|----------------------------------------------------------|
|----------------------------------------------------------|
|----------------------------------------------------------|
|-----------------------------------------3---3---2h3---3--|
|----------------------------------------------------------|
|-0000-000-000--0-0000-000-000--0-000-0-0------------------|
  .... ... ...  . .... ... ...  . ... . .

~xXv//| PRE-CHORUS |\\vXx~

|----------------------------------------------------|
|----------------------------------------------------|
|----------------------------------------------------|
|----------------------------------------------------|
|---------------------------------8~------5~------7~-|
|-0-7h8-0-5h7-0-3h5-0-0-0-0-0-0-0-8~------5~------7~-|

|----------------------------------------------------|
|----------------------------------------------------|
|----------------------------------------------------|
|----------------------------------------------------|
|---------------------------------8~------10~-----7~-|
|-0-7h8-0-5h7-0-3h5-0-0-0-0-0-0-0-8~------10~-----7~-|

"Even if you play the same game..."
|-----------------------------------------------------------------|
|-----------------------------------------------------------------|
|-----------------------------------------------------------------|
|-----------------------------------------------------------------|
|-0-7-8-0-5-7-0-3-5-0-0-0-0-0-0-0-8-8-8-8-8-8-8-8-5-5-5-5-7-7-7-7-|
|-0-7-8-0-5-7-0-3-5-0-0-0-0-0-0-0-8-8-8-8-8-8-8-8-5-5-5-5-7-7-7-7-|
  . . . . . . . . . . . . . . . .

|-------------------------------------------------------------|
|-------------------------------------------------------------|
|-------------------------------------------------------------|
|-------------------------------------------------------------|
|---------------------------------8-8-8-8-8-8-8-8-10-10-10-10-|
|-0-7h8-0-5h7-0-3h5-0-0-0-0-0-0-0-8-8-8-8-8-8-8-8-10-10-10-10-|

~xXv//| CHORUS |\\vXx~

|-----------------------------------------------------------------|
|-----------------------------------------------------------------|
|-----------------------------------------------------------------|
|-----------------------------------------------------------------|
|-8-8-8-8-8-8-8-8-10-10-10-10-10-10-10-10-12-12-12-12-12-12-12-12-|
|-8-8-8-8-8-8-8-8-10-10-10-10-10-10-10-10-12-12-12-12-12-12-12-12-|

|-------------------------|
|-------------------------|
|-------------------------|
|-------------------------|
|-12-12-12-12-12-12-12-12-|
|-12-12-12-12-12-12-12-12-|



|-----------------------------------------------------------------|
|-----------------------------------------------------------------|
|-----------------------------------------------------------------|
|-----------------------------------------------------------------|
|-8-8-8-8-8-8-8-8-10-10-10-10-10-10-10-10-12-12-12-12-12-12-12-12-|
|-8-8-8-8-8-8-8-8-10-10-10-10-10-10-10-10-12-12-12-12-12-12-12-12-|

|-----------------|
|-----------------|
|-----------------|
|-----------------|
|-0-0~--0~--0~--0-|
|-0-0~--0~--0~--0-|



|-----------------------------------------------------------------|
|-----------------------------------------------------------------|
|-----------------------------------------------------------------|
|-----------------------------------------------------------------|
|-8-8-8-8-8-8-8-8-10-10-10-10-10-10-10-10-12-12-12-12-12-12-12-12-|
|-8-8-8-8-8-8-8-8-10-10-10-10-10-10-10-10-12-12-12-12-12-12-12-12-|

|-------------------------|
|-------------------------|
|-------------------------|
|-------------------------|
|-12-12-12-12-12-12-12-12-|
|-12-12-12-12-12-12-12-12-|



|-----------------------------------------------------------------|
|-----------------------------------------------------------------|
|-----------------------------------------------------------------|
|-----------------------------------------------------------------|
|-8-8-8-8-8-8-8-8-10-10-10-10-10-10-10-10-12-12-12-12-12-12-12-12-|
|-8-8-8-8-8-8-8-8-10-10-10-10-10-10-10-10-12-12-12-12-12-12-12-12-|


~xXv//| VERSE |\\vXx~

|-------------------------------------------------------|
|-------------------------------------------------------|
|-------------------------------------------------------|
|-------------------------------------------------------|
|-----------------------------------------1---1---3h5-5-|
|-0000-000-000--0-0000-000-000--0-000-0-0---0---0-------|
  .... ... ...  . .... ... ...  . ... . .   .   .
|----------------------------------------------------------|
|----------------------------------------------------------|
|----------------------------------------------------------|
|-----------------------------------------3---3---2h3---3--|
|----------------------------------------------------------|
|-0000-000-000--0-0000-000-000--0-000-0-0------------------|
  .... ... ...  . .... ... ...  . ... . .
|------------|
|----------6-|
|-7-7-5h7----|
|------------|
|------------|
|------------|

~xXv//| CHORUS |\\vXx~

|-----------------------------------------------------------------|
|-----------------------------------------------------------------|
|-----------------------------------------------------------------|
|-----------------------------------------------------------------|
|-8-8-8-8-8-8-8-8-10-10-10-10-10-10-10-10-12-12-12-12-12-12-12-12-|
|-8-8-8-8-8-8-8-8-10-10-10-10-10-10-10-10-12-12-12-12-12-12-12-12-|

|-------------------------|
|-------------------------|
|-------------------------|
|-------------------------|
|-12-12-12-12-12-12-12-12-|
|-12-12-12-12-12-12-12-12-|



|-----------------------------------------------------------------|
|-----------------------------------------------------------------|
|-----------------------------------------------------------------|
|-----------------------------------------------------------------|
|-8-8-8-8-8-8-8-8-10-10-10-10-10-10-10-10-12-12-12-12-12-12-12-12-|
|-8-8-8-8-8-8-8-8-10-10-10-10-10-10-10-10-12-12-12-12-12-12-12-12-|

|-----------------|
|-----------------|
|-----------------|
|-----------------|
|-0-0~--0~--0~--0-|
|-0-0~--0~--0~--0-|



|-----------------------------------------------------------------|
|-----------------------------------------------------------------|
|-----------------------------------------------------------------|
|-----------------------------------------------------------------|
|-8-8-8-8-8-8-8-8-10-10-10-10-10-10-10-10-12-12-12-12-12-12-12-12-|
|-8-8-8-8-8-8-8-8-10-10-10-10-10-10-10-10-12-12-12-12-12-12-12-12-|

|-------------------------|
|-------------------------|
|-------------------------|
|-------------------------|
|-12-12-12-12-12-12-12-12-|
|-12-12-12-12-12-12-12-12-|



|-----------------------------------------------------------------|
|-----------------------------------------------------------------|
|-----------------------------------------------------------------|
|-----------------------------------------------------------------|
|-8-8-8-8-8-8-8-8-10-10-10-10-10-10-10-10-12-12-12-12-12-12-12-12-|
|-8-8-8-8-8-8-8-8-10-10-10-10-10-10-10-10-12-12-12-12-12-12-12-12-|

|-------------------------|
|-------------------------|
|-------------------------|
|-------------------------|
|-12-12-12-12-12-12-12-12-|
|-12-12-12-12-12-12-12-12-|


~xXv//| BRIDGE |\\vXx~

|-------------------------------------------------------------------------|
|-------------------------------------------------------------------------|
|-10-10-10-10-10-10-10-10-12-12-12-12-9-9-9-9-9-9-9-9-9-9-9-9-10-10-10-10-|
|-------------------------------------------------------------------------|
|-8-8-8-8-8-8-8-8-8-8-8-8-10-10-10-10-7-7-7-7-7-7-7-7-7-7-7-7-8--8--8--8--|
|-------------------------------------------------------------------------|

|----------------------------------------------------------|
|----------------------------------------------------------|
|----------------------------------------------------------|
|-7-7-7-7-7-7-7-7-7-7-7-7-5-5-5-5-7-7-7-7-7-7-7-7-/14---12-|  X2
|----------------------------------------------------------|
|-5-5-5-5-5-5-5-5-5-5-5-5-3-3-3-3-5-5-5-5-5-5-5-5-/12---10-|

End on:
|---------|
|---------|
|---------|
|-10~-----|
|---------|
|--8~-----|

~xXv//| PRE-CHORUS |\\vXx~
(second version)

|-----------------|-------------------------------------------------|
|-----------------|-------------------------------------------------|
|---[6 times]-----|-------------------------------------------------|
|-----------------|-------------------------------------------------|
|-----------------|-8~---5~---7~------------------------------------|
|-0-000-0-000-000-|-8~---5~---7~---0-000-0-000-000--0-000-0-000-000-|
  . ... . ... ...                  . ... . ... ...  . ... . ... ...

|-----------------|
|-----------------|
|-----------------|
|-----------------|
|-8~---10~---7~---|
|-8~---10~---7~---|

|------------------------------------------------------------------|
|------------------------------------------------------------------|
|------------------------------------------------------------------|
|------------------------------------------------------------------|
|----------------------------------8-8-8-8-8-8-8-8-5-5-5-5-7-7-7-7-|
|-0-000-0-000-000--0-000-0-000-000-8-8-8-8-8-8-8-8-5-5-5-5-7-7-7-7-|
  . ... . ... ...  . ... . ... ...

|-----------------|-----------------------------------|
|-----------------|-----------------------------------|
|---[4 times]-----|-----------------------------------|
|-----------------|-----------------------------------|
|-----------------|-8-8-8-8-8-8-8-8-10-10-10-10-10\---|
|-0-000-0-000-000-|-8-8-8-8-8-8-8-8-10-10-10-10-10\---|
  . ... . ... ...   . . . . . . . .


~xXv//| CHORUS |\\vXx~

|-----------------------------------------------------------------|
|-----------------------------------------------------------------|
|-----------------------------------------------------------------|
|-----------------------------------------------------------------|
|-8-8-8-8-8-8-8-8-10-10-10-10-10-10-10-10-12-12-12-12-12-12-12-12-|
|-8-8-8-8-8-8-8-8-10-10-10-10-10-10-10-10-12-12-12-12-12-12-12-12-|

|-------------------------|
|-------------------------|
|-------------------------|
|-------------------------|
|-12-12-12-12-12-12-12-12-|
|-12-12-12-12-12-12-12-12-|



|-----------------------------------------------------------------|
|-----------------------------------------------------------------|
|-----------------------------------------------------------------|
|-----------------------------------------------------------------|
|-8-8-8-8-8-8-8-8-10-10-10-10-10-10-10-10-12-12-12-12-12-12-12-12-|
|-8-8-8-8-8-8-8-8-10-10-10-10-10-10-10-10-12-12-12-12-12-12-12-12-|

|-----------------|
|-----------------|
|-----------------|
|-----------------|
|-0-0~--0~--0~--0-|
|-0-0~--0~--0~--0-|



|-----------------------------------------------------------------|
|-----------------------------------------------------------------|
|-----------------------------------------------------------------|
|-----------------------------------------------------------------|
|-8-8-8-8-8-8-8-8-10-10-10-10-10-10-10-10-12-12-12-12-12-12-12-12-|
|-8-8-8-8-8-8-8-8-10-10-10-10-10-10-10-10-12-12-12-12-12-12-12-12-|

|-------------------------|
|-------------------------|
|-------------------------|
|-------------------------|
|-12-12-12-12-12-12-12-12-|
|-12-12-12-12-12-12-12-12-|



|-----------------------------------------------------------------|
|-----------------------------------------------------------------|
|-----------------------------------------------------------------|
|-----------------------------------------------------------------|
|-8-8-8-8-8-8-8-8-10-10-10-10-10-10-10-10-12-12-12-12-12-12-12-12-|
|-8-8-8-8-8-8-8-8-10-10-10-10-10-10-10-10-12-12-12-12-12-12-12-12-|

|-------------------------|
|-------------------------|
|-------------------------|
|-------------------------|
|-12-12-12-12-12-12-12-12-|
|-12-12-12-12-12-12-12-12-|


~xXv//| OUTRO |\\vXx~

The tab looks kinda confusing but it's simple to play
(These octaves are also played in the chorus)

|-----------------------------------------------------------------------|
|-----------------------------------------------------------------------|
|-10-10-10-10-9/10-10-10-10/12-12-12-10/12-12-12-12/14-14-14-12/14-14-14|
|-----------------------------------------------------------------------|
|--8--8--8--8-7/-8--8--8--8/10-10-10--8/10-10-10-10/12-12-12-10/12-12-12|
|-----------------------------------------------------------------------|

|-------------------------|
|-------------------------|
|-14/15-15-15-15/17-17-17-|
|-------------------------|  X4
|-12/13-13-13-13/15-15-15-|
|-------------------------|

|----------------------------------------------------.....
|----------------------------------------------------.........
|----------------------------------------------------...[Fade Out].
|-10~-----/12--9~-----/10--7~-----5--/7~-----/14--12-...........
|--8~-----/10--7~-----/-8--5~-----3--/5~-----/12--10-.......
|----------------------------------------------------....


Thanks for using my tab, please rate!
I also have other SS tabs up
comments
We did not receive enough feedback on this tab! Please rate:
print report bad tab
1 2 3 4 5
I want to post or [tab]
guest
You may want to rate the tab now too:
select rating
Please do not post tabs as comments. Select "correction" instead!