Oops, an error
Loading. Please wait.

Soulstone Splinter Tab

ver1
ver1

Whole song

Interactive

More versions @911Tabs.com
848 views 3 this week
2 commentsread comments
1 2 3 4 5
accurate
x 1
Autoscroll
+/-
esc
set tempo
stop
Contributor
NEW! There's an official Ultimate Guitar app which is ideal
for learning songs when you're away from computer. Get the app
WARNING: You are trying to view
                                    content from Ultimate-Guitar.com
                                    in an unauthorized application,
                                    which is prohibited.

                                    Please use an official Ultimate
                                    Guitar Tabs application for iPhone,
                                    iPad or Android to access legitimate
                                    chords, guitar, bass, and drum tabs
                                    from Ultimate-Guitar.com database.

                                    Type "ultimate guitar tabs" in Apple
                                    App Store's or Android Market's
                                    search to find the application.
Sonic Syndicate - Soulstone splinter
Tuning: Drop D

  
Key:

. = palm mute
~ = let ring
b = bend
br = bend and release
/ = slide


NOTE: THIS SONG IS DROP D 
I just accidently made the 6th string E but I don't want to change them all.


| INTRO | 

e|--------------------------------------------------|
B|--------------------------------------------------|
G|--------------------------------------------------|
D|--0~---------0--0--0-0-------3~------5~-----2~----|
A|--0~---------0--0--0-0-------3~------5~-----2~----|
E|--0~---------0--0--0-0-------3~------5~-----2~----|

e|----------------------------------|---------------------|
B|----------------------------------|---------------------|
G|----------------------------------|---------------------|
D|--------------------------------x2|--3~------5~-----2~--|                                     
A|--0-----0-----0~--0---------------|--3~------5~-----2~--|
E|--0-0-0-0-0-0-0~--0-0-0-000-000---|--3~------5~-----2~--|       
      . .   . .       . . ... ...
e|----------------------------------|---------------------|
B|----------------------------------|---------------------|
G|----------------------------------|---------------------|
D|--------------------------------x2|--3~------5~-----2~--|                                     
A|--0-----0-----0~--0---------------|--3~------5~-----2~--|
E|--0-0-0-0-0-0-0~--0-0-0-000-000---|--3~------5~-----2~--|                                 
      . .   . .       . . ... ...




Figure 2:

  Guitar 1:                                   First Time:
e|----------------------------------------|----------------------|
B|----------------------------------------|----------------------|
G|----------------------------------------|----------------------|
D|-----0---5h7-5--5h7-8--7-5/3------7-5h7-|------7-----5-----3h5-|
A|-0-0-0----------------------------------|----------------------|
E|-0-0-0------------------------0-0-------|-0-0---0-0---0-0------|
   . .                          . .         . .   . .   . .

   Second Time:
e|-------------------|
B|-------------------|
G|-------------------|
D|-----7p5-3--5--3-2-|
A|-------------------|
E|-0-0---------------|
   . .

  Guitar 2:                        First:
e|-----------------------------|-------------------------------|
B|-----------------------------|-------------------------------|
G|-----------------------------|-------------------------------|
D|-----0-----------------------|-------------------------------|
A|-0-0-0---5h8-7-7h8-10-8-7----|-----8-7h8-----8-----7-----5h7-|
E|-0-0-0--------------------10-|-8-8-------8-8---8-8---8-8-----|
   . .                           . .       . .   . .   . .

   Second:
e|---------------------------|
B|---------------------------|
G|---------------------------|
D|---------------------------|
A|-----8-7h8-----8-7-5/7-3/5-|
E|-8-8-------8-8-------------|


| VERSE |

e|-------------------------------------------------------|
B|-------------------------------------------------------|
G|-------------------------------------------------------|
D|-------------------------------------------------------|
A|-000-000-000---000-000-000---333-333-333---222-222-222-|
E|-000-000-000---000-000-000---333-333-333---222-222-222-|
   ... ... ...   ... ... ...   ... ... ...   ... ... ...

  I raise my fist, to the sky...
e|---------------------------------------------------------------------|
B|---------------------------------------------------------------------|
G|---------------------------------------------------------------------|
D|---------------------------------------------------------------------|
A|---------------------------------------------------------------------|
E|-000-000-000-000-000-000-000-000-333-333-333-333-333-222-222-222-222-|
   ... ... ... ... ... ... ... ... ... ... ... ... ... ... ... ... ...


| Pre-Chorus |

              Father is she with you...
e|---------------------------------------------|
B|---------------------------------------------|
G|---------------------------------------------|
D|-3~----5~----0~------------------------------|
A|-3~----5~----0~--------------0-0-0-0---------|
E|-3~----5~----0~--0-0-000-000-0-0-0-0-000-000-|
                   . . ... ... . . . . ... ...

e|-----------------------------|
B|-----------------------------|
G|-----------------------------|
D|-3~-----5~-----2~-----2--2-2-|
A|-3~-----5~-----2~-----2--2-2-|
E|-3~-----5~-----2~-----2--2-2-|

| Chorus |


e|---------------------------------------------------------------|
B|------------------------8-10-----------------------------------|
G|--10p9p7----7-10-9--7h9------/10-9-10p9p7---------7h9h10h9p7h9-|
D|---------10--------------------------------10--10--------------|
A|---------------------------------------------------------------|
E|---------------------------------------------------------------|

e|-----------------------------10-8-10p8-------------------------|
B|------------------------8-10-------------11-10-10-11p10-8-10---|
G|--10p9p7----7-10-9--7h9----------------------------------------|
D|---------10----------------------------------------------------|x2
A|---------------------------------------------------------------|
E|---------------------------------------------------------------|

Rhythm 
(pretty basic)

e|------------------------|
B|------------------------|
G|------------------------|
D|-12~---10~---8~---10~---|
A|-12~---10~---8~---10~---|
E|-12~---10~---8~---10~---|


Figure 2:


  Guitar 1:                                   First Time:
e|----------------------------------------|----------------------|
B|----------------------------------------|----------------------|
G|----------------------------------------|----------------------|
D|-----0---5h7-5--5h7-8--7-5/3------7-5h7-|------7-----5-----3h5-|
A|-0-0-0----------------------------------|----------------------|
E|-0-0-0------------------------0-0-------|-0-0---0-0---0-0------|
   . .                          . .         . .   . .   . .

   Second Time:
e|-------------------|
B|-------------------|
G|-------------------|
D|-----7p5-3--5--3-2-|
A|-------------------|
E|-0-0---------------|
   . .

  Guitar 2:                        First:
e|-----------------------------|-------------------------------|
B|-----------------------------|-------------------------------|
G|-----------------------------|-------------------------------|
D|-----0-----------------------|-------------------------------|
A|-0-0-0---5h8-7-7h8-10-8-7----|-----8-7h8-----8-----7-----5h7-|
E|-0-0-0--------------------10-|-8-8-------8-8---8-8---8-8-----|
   . .                           . .       . .   . .   . .

   Second:
e|---------------------------|
B|---------------------------|
G|---------------------------|
D|---------------------------|
A|-----8-7h8-----8-7-5/7-3/5-|
E|-8-8-------8-8-------------|

| VERSE |

e|-------------------------------------------------------|
B|-------------------------------------------------------|
G|-------------------------------------------------------|
D|-------------------------------------------------------|
A|-000-000-000---000-000-000---333-333-333---222-222-222-|
E|-000-000-000---000-000-000---333-333-333---222-222-222-|
   ... ... ...   ... ... ...   ... ... ...   ... ... ...

  I raise my fist, to the sky...
e|---------------------------------------------------------------------|
B|---------------------------------------------------------------------|
G|---------------------------------------------------------------------|
D|---------------------------------------------------------------------|
A|---------------------------------------------------------------------|
E|-000-000-000-000-000-000-000-000-333-333-333-333-333-222-222-222-222-|
   ... ... ... ... ... ... ... ... ... ... ... ... ... ... ... ... ...


| Pre-Chorus |

              Father is she with you...
e|---------------------------------------------|
B|---------------------------------------------|
G|---------------------------------------------|
D|-3~----5~----0~------------------------------|
A|-3~----5~----0~--------------0-0-0-0---------|
E|-3~----5~----0~--0-0-000-000-0-0-0-0-000-000-|
                   . . ... ... . . . . ... ...

e|-----------------------------|
B|-----------------------------|
G|-----------------------------|
D|-3~-----5~-----2~-----2--2-2-|
A|-3~-----5~-----2~-----2--2-2-|
E|-3~-----5~-----2~-----2--2-2-|


| Chorus |


e|---------------------------------------------------------------|
B|------------------------8-10-----------------------------------|
G|--10p9p7----7-10-9--7h9------/10-9-10p9p7---------7h9h10h9p7h9-|
D|---------10--------------------------------10--10--------------|
A|---------------------------------------------------------------|
E|---------------------------------------------------------------|

e|-----------------------------10-8-10p8-------------------------|
B|------------------------8-10-------------11-10-10-11p10-8-10---|
G|--10p9p7----7-10-9--7h9----------------------------------------|
D|---------10----------------------------------------------------|x2
A|---------------------------------------------------------------|
E|---------------------------------------------------------------|


Rhythm

e|------------------------|
B|------------------------|
G|------------------------|
D|-12~---10~---8~---10~---|
A|-12~---10~---8~---10~---|
E|-12~---10~---8~---10~---|


| SOLO |

e|----------------------------------------------------|
B|----------------------------------------------------|
G|----------------------------------------------------|
D|-/7-10-------/7-10----------/7-10-------------------|
A|-------10-8--------10-8-5h8-------10-8-5h8-5---3tr5-|
E|----------------------------------------------------|

e|------------------------------------------------------------------|
B|---------------10-10--10--10-10---------------10-10--10--10-10-10-|
G|-/7-7--7--7-7---------10--10-10--10-10-7-7-10-10-10--10--10-10-10-|
D|---------------------------------10-10-7-7-10---------------------|
A|------------------------------------------------------------------|
E|------------------------------------------------------------------|

e|-----------------------------------------------------------------|
B|-/15-15-15p13----13b-13b-13br----13b-13b-13br----13b-13b-13br----|
G|--------------14--------------14--------------14--------------14-|
D|-----------------------------------------------------------------|
A|-----------------------------------------------------------------|
E|-----------------------------------------------------------------|

e|-----------------------------------------------------------|
B|-18p16-----------------------------------------------------|
G|-------17-17p15p13-15p13----13-----------------------------|[Something like
D|-------------------------15----15-13-15p13----13-----------|that]
A|-------------------------------------------15----15-14-13~-| /derp
E|-----------------------------------------------------------|

e|------------------------8---11~-|
B|---------8-9bp8----10-----------|
G|-/7~--10--------10--------------|
D|--------------------------------|
A|--------------------------------|
E|--------------------------------|

e|--------------------------| 
B|--------------------------|
G|--------------------------|
D|-12~---10~---8~---2--3--5-|
A|-12~---10~---8~---2--3--5-|
E|-12~---10~---8~---2--3--5-|

The rhythm for the whole solo is just this:
e|------------------------|
B|------------------------|
G|------------------------|
D|-12~---10~---8~---10~---|
A|-12~---10~---8~---10~---|
E|-12~---10~---8~---10~---|



| BRIDGE |

e|----------------------------------------------------------------|
B|----------------------------------------------------------------|
G|----------------------------------------------------------------|
D|--------------------------------------------------5-----3-------|
A|-0-------0-------6-----5-----3h5--0-------0-------3-----1-----7-|
E|-0-0-0-0-0-0-0-0-6-0-0-5-0-0-3h5--0-0-0-0-0-0-0-0---0-0---0-0-7-|
     . . .   . . .   . .   . .        . . .   . . .   . .   . .
e|----------------------------------------------------------------|
B|----------------------------------------------------------------|
G|----------------------------------------------------------------|
D|----------------------------------------------------------------|
A|-0-------0-------6-----5-----3h5--3-------3-------2-----3-----2-|
E|-0-0-0-0-0-0-0-0-6-0-0-5-0-0-3h5--3-3-3-3-3-3-3-3-2-2-2-3-3-3-2-|
     . . .   . . .   . .   . .        . . .   . . .   . .   . .
____________________________________________________________________________
e|----------------------------------------------------------------|
B|----------------------------------------------------------------|
G|----------------------------------------------------------------|
D|--------------------------------------------------5-----3-------|
A|-000-----000-----6-----5-----3h5--000-----000-----3-----1-----7-|
E|-000-0-0-000-0-0-6-0-0-5-0-0-3h5--000-0-0-000-0-0---0-0---0-0-7-|
       . .     . .   . .   . .          . .     . .   . .   . .
e|----------------------------------------------------------------|
B|----------------------------------------------------------------|
G|----------------------------------------------------------------|
D|----------------------------------------------------------------|
A|-000-----000-----6-----5-----3h5--333-----333-----2-----3-----2-|
E|-000-0-0-000-0-0-6-0-0-5-0-0-3h5--333-3-3-333-3-3-2-2-2-3-3-3-2-|
       . .     . .   . .   . .          . .     . .   . .   . .      

| Pre-Chorus |

              Father is she with you...
e|---------------------------------------------|
B|---------------------------------------------|
G|---------------------------------------------|
D|-3~----5~----0~------------------------------|
A|-3~----5~----0~--------------0-0-0-0---------|
E|-3~----5~----0~--0-0-000-000-0-0-0-0-000-000-|
                   . . ... ... . . . . ... ...

e|-----------------------------|
B|-----------------------------|
G|-----------------------------|
D|-3~-----5~-----2~-----2--2-2-|
A|-3~-----5~-----2~-----2--2-2-|
E|-3~-----5~-----2~-----2--2-2-|


| Chorus |


e|---------------------------------------------------------------|
B|------------------------8-10-----------------------------------|
G|--10p9p7----7-10-9--7h9------/10-9-10p9p7---------7h9h10h9p7h9-|
D|---------10--------------------------------10--10--------------|
A|---------------------------------------------------------------|
E|---------------------------------------------------------------|

e|-----------------------------10-8-10p8-------------------------|
B|------------------------8-10-------------11-10-10-11p10-8-10---|
G|--10p9p7----7-10-9--7h9----------------------------------------|
D|---------10----------------------------------------------------|x4
A|---------------------------------------------------------------|
E|---------------------------------------------------------------|

B|------------------------|
G|-10p9p7----7-10-9~---9\-|
D|--------10--------------|
A|------------------------|
E|------------------------|

Rhythm
(The 3rd and 4th times it's just a different strum pattern)

e|------------------------|
B|------------------------|
G|------------------------|
D|-12~---10~---8~---10~---|
A|-12~---10~---8~---10~---|
E|-12~---10~---8~---10~---|

That's it, please rate!
comments
We did not receive enough feedback on this tab! Please rate:
print report bad tab
1 2 3 4 5
2 comments total.
0 reply
♪Dustin♪ wrote on October 22 2010, 04:24 pm

idk how to edit the tab but i wanted to change the | BRIDGE? | part so that it starts on the D string (sounds better) not that anyone has looked at this tab anyway >.>

0 reply
♪Dustin♪ wrote on March 5 2011, 08:11 pm

ya that's old lol

I want to post or [tab]
guest
You may want to rate the tab now too:
select rating
Please do not post tabs as comments. Select "correction" instead!