Oops, an error
Loading. Please wait.

Soulstone Splinter Tab

ver2
ver2

Whole song

Interactive

More versions @911Tabs.com
49 views 1 this week
no commentswrite comment
1 2 3 4 5
please rate
Autoscroll
+/-
esc
set tempo
stop
Difficulty
novice
Hey! There's an official Ultimate Guitar app which is ideal
for learning songs when you're away from computer. Get the app
WARNING: You are trying to view
                                    content from Ultimate-Guitar.com
                                    in an unauthorized application,
                                    which is prohibited.

                                    Please use an official Ultimate
                                    Guitar Tabs application for iPhone,
                                    iPad or Android to access legitimate
                                    chords, guitar, bass, and drum tabs
                                    from Ultimate-Guitar.com database.

                                    Type "ultimate guitar tabs" in Apple
                                    App Store's or Android Market's
                                    search to find the application.
Sonic Syndicate - Soulstone splinter
Tuning: Drop

| INTRO |

e|--------------------------------------------------|
B|--------------------------------------------------|
G|--------------------------------------------------|
D|--0~---------0--0--0-0-------3~------5~-----2~----|
A|--0~---------0--0--0-0-------3~------5~-----2~----|
E|--0~---------0--0--0-0-------1~------3~-----0~----|

e|------------------------------------------------------------|
B|------------------------------------------------------------|
G|-----------------------------------------3-------5------2---|
D|-----------------------------------------3~------5~-----2~--|
A|--0-----0-----0~--0-----0-----0--------0-1~------3~-----0~--|
E|--0-0-0-0-0-0-0~--0-0-0-0-00-00-0-0000-0--------------------|
      . .   . .       . . . .. ...  ....
e|--------------------------------------------------------|
B|--------------------------------------------------------|
G|--------------------------------------------------------|
D|-------------------------------------------3----5~--2~--|
A|--0-----0-----0~--0-----0-----0--------0---3~---5~--2~--|
E|--0-0-0-0-0-0-0~--0-0-0-0-00-00-0-0000-0|--1~---3~--0~--|
      . .   . .       . . ... ...

key first part
e|-----7-00-8-00-10-00-8-00-7-8-------7-00-8-00-10-00-8-00-7-5|
B|------------------------------------------------------------|
G|------------------------------------------------------------|
D|------------------------------------------------------------|
A|------------------------------------------------------------|
E|------------------------------------------------------------|
         ..   ..    ..   ..           ..   ..    ..   ..
key second part
e|-3-0-0-5-0-0-7-0-0-5-0-0-3-5----5-0-0-7-0-0-8-0-0-7-0-0-5-7-|
B|------------------------------------------------------------|
G|------------------------------------------------------------|
D|------------------------------------------------------------|
A|------------------------------------------------------------|
E|------------------------------------------------------------|
Figure 2:

  Guitar 1:                                   First Time:
e|-------------------------------------|----------------------|
B|-------------------------------------|----------------------|
G|-------------------------------------|----------------------|
D|--0-0-0---5h7-5--5h7-8--7-------5----|-7p5h7---7--5-----3h5-|
A|-------------------------------------|----------------------|
E|-------------------------------------|----------------------|

 Second Time:
e|--------------------|
B|--------------------|
G|--------------------|
D|-----7p5-3--5--3-2h3|
A|--------------------|
E|-0-0----------------|
   . .

  Guitar 2:                        First:
e|-----------------------------|-------------------------------|
B|-----------------------------|-------------------------------|
G|-----------------------------|-------------------------------|
D|---0-0-0---------------------|-------------------------------|
A|---------5h8-7-7h8-10-8-7----|-----8-7h8-----8-----7-----5h7-|
E|-----------------------------|-------------------------------|

   Second:
e|---------------------------|
B|---------------------------|
G|---------------------------|
D|---------------------------|
A|-----8-7-5h7---5p3h5-------|
E|---------------------------|


| VERSE |

e|--------------------|
B|--------------------|
G|--------------------|
D|-000-000-333---222--| (x3)
A|-000-000-333---222--|
E|-000-000-111---000--|


  I raise my fist, to the sky...       this (x2)
e|--------------------------------------------------------------|
B|--------------------------------------------------------------|
G|--------------------------------------------------------------|
D|00-00-00-00-00-00-00-00---33--33--33-33--22—-22--22--22-------|
A|00-00-00-00-00-00-00-00---33--33--33-33--22--22--22--22-------|
E|00-00-00-00-00-00-00-00---11—-11--11-11—-00--00--00--00-------|

| Pre-Chorus |

              Father is she with you...
e|---------------------------------------------------|
B|---------------------------------------------------|
G|---------------------------------------------------|
D|-3-3-3-333---5-5-5-555-----------------------------|
A|-3-3-3-333---5-5-5-555-------------0-0-0-0---------|
E|-1-1-1-111---3-3-3-333-0-0-000-000-0-0-0-0-000-000-|
         ...         ... . . ... ... . . . . ... ...

e|----------------------------------------------|
B|----------------------------------------------|
G|----------------------------------------------|
D|-3-3-3-333---5-5-5-555--7-7-7-777--888----10--|
A|-3-3-3-333---5-5-5-555--7-7-7-777--888----10--|
E|-1-1-1-111---3-3-3-333--5-5-5-555--666-----8--|
         ...         ...        ...  ...
| Chorus | this (x2)


e|---------------------------------------------------------------|
B|------------------------8-10-----------------------------------|
G|--10p9p7----7-10-9--7h9------/10-9-10p9p7---------7h9h10h9p7h9-|
D|---------10--------------------------------10--10--------------|
A|---------------------------------------------------------------|
E|---------------------------------------------------------------|

e|-----------------------------10-8-10p8-------------------------|
B|------------------------8-10-------------11-10-10-11p10-8-10---|
G|--10p9p7----7-10-9--7h9----------------------------------------|
D|---------10----------------------------------------------------|
A|---------------------------------------------------------------|
E|---------------------------------------------------------------|

 Guitar 1:                                   First Time:
e|-------------------------------------|----------------------|
B|-------------------------------------|----------------------|
G|-------------------------------------|----------------------|
D|--0-0-0---5h7-5--5h7-8--7-------5----|-7p5h7---7--5-----3h5-|
A|-------------------------------------|----------------------|
E|-------------------------------------|----------------------|

 Second Time:
e|--------------------|
B|--------------------|
G|--------------------|
D|-----7p5-3--5--3-2h3|
A|--------------------|
E|-0-0----------------|
   . .

 Guitar 2:                        First:
e|-----------------------------|-------------------------------|
B|-----------------------------|-------------------------------|
G|-----------------------------|-------------------------------|
D|---0-0-0---------------------|-------------------------------|
A|---------5h8-7-7h8-10-8-7----|-----8-7h8-----8-----7-----5h7-|
E|-----------------------------|-------------------------------|


Second:
e|---------------------------|
B|---------------------------|
G|---------------------------|
D|---------------------------|
A|-----8-7-5h7---5p3h5-------|
E|---------------------------|

| VERSE |

e|--------------------|
B|--------------------|
G|--------------------|
D|-000-000-333---222--| (x2)
A|-000-000-333---222--|
E|-000-000-111---000--|


  I raise my fist, to the sky...       this (x2)
e|--------------------------------------------------------------|
B|--------------------------------------------------------------|
G|--------------------------------------------------------------|
D|00-00-00-00-00-00-00-00---33--33--33-33--22—-22--22--22-------|
A|00-00-00-00-00-00-00-00---33--33--33-33--22--22--22--22-------|
E|00-00-00-00-00-00-00-00---11—-11--11-11—-00--00--00--00-------|

| Chorus | this (x2)

e|---------------------------------------------------------------|
B|------------------------8-10-----------------------------------|
G|--10p9p7----7-10-9--7h9------/10-9-10p9p7---------7h9h10h9p7h9-|
D|---------10--------------------------------10--10--------------|
A|---------------------------------------------------------------|
E|---------------------------------------------------------------|

e|-----------------------------10-8-10p8-------------------------|
B|------------------------8-10-------------11-10-10-11p10-8-10---|
G|--10p9p7----7-10-9--7h9----------------------------------------|
D|---------10----------------------------------------------------|
A|---------------------------------------------------------------|
E|---------------------------------------------------------------|

| SOLO |

e|-----------------------------------------------------|
B|-----------------------------------------------------|
G|-----------------------------------------------------|
D|-/7-10-------/7-10------0----/7-10-------------------|
A|-------10-8--------10-8------------8p5h8p5---3p5h3p5-|
E|-----------------------------------------------------|

e|-----------------------------------------|
B|------10--10-----------------------------|
G|---7----------10--7--10------------------|
D|-----------------------------------------|
A|-----------------------------------------|
E|-----------------------------------------|

e|-----------------------------------------------------------------|
B|--15-15--13---------15---13---------15----13-------15----13------|
G|--------------14--------------14--------------14--------------14-|
D|-----------------------------------------------------------------|
A|-----------------------------------------------------------------|
E|-----------------------------------------------------------------|

e|----------------------------------------------------------------|
B|-18p16----16----------------------------------------------------|
G|-------17----17p14----14----------------------------------------|
D|-------------------17----17p15h17p15----15----------------------|
A|-------------------------------------17----17p15h17p15-------15-|
E|-------------------------------------------------------17p15----|



e|---------10----------8---11~---|
B|-----------------10------------|
G|-/7~--10----10-7---------------|
D|-------------------------------|
A|-------------------------------|
E|-------------------------------|


e|------------------------------------------------|
B|--h18p15--h18p15--h18p15--h18p15--h18p15--h18p15|
G|------------------------------------------------|
D|------------------------------------------------|
A|------------------------------------------------|
E|------------------------------------------------|

e|------------------------------------------------|
B|--h18p13--h18p13--h18p13--h18p13--h18p13--h18p13|
G|------------------------------------------------|
D|------------------------------------------------|
A|------------------------------------------------|
E|------------------------------------------------|

e|------------------------------------------------|
B|--h18p11--h18p11--h18p11--h18p11--h18p11--h18p11|
G|------------------------------------------------|
D|------------------------------------------------|
A|------------------------------------------------|
E|------------------------------------------------|

The rhythm for the whole solo is just this:
e|--------------------------|
B|--------------------------|
G|---2-----3----5-----------|
D|---2-----3----5-----------|
A|---0-----1----3-----------|
E|---0-----1----3-----------|

| BRIDGE | this (x2)
e|-----------------------------------------------------------------|
B|-----------------------------------------------------------------|
G|-----------------------------------------------------------------|
D|--------------------------------------------------10----8------7-|
A|-0-------0-------8-----7-----5h7--0-------0-------10----8------7-|
E|-0-0-0-0-0-0-0-0-6-0-0-5-0-0-3h5--0-0-0-0-0-0-0-0-8-0-0-6--0-0-5-|
     . . .   . . .   . .   . .        . . .   . . .   . .   . .
e|----------------------------------------------------------------|
B|----------------------------------------------------------------|
G|----------------------------------------------------------------|
D|----------------------------------------------------------------|
A|-0-------0-------6-----5-----3h5--3-------3-------2-----3-----2-|
E|-0-0-0-0-0-0-0-0-6-0-0-5-0-0-3h5--3-3-3-3-3-3-3-3-2-2-2-3-3-3-2-|
     . . .   . . .   . .   . .        . . .   . . .   . .   . .

| Pre-Chorus |
e|---------------------------------------------------|
B|---------------------------------------------------|
G|---------------------------------------------------|
D|-3-3-3-333---5-5-5-555-----------------------------|
A|-3-3-3-333---5-5-5-555-------------0-0-0-0---------|
E|-1-1-1-111---3-3-3-333-0-0-000-000-0-0-0-0-000-000-|
         ...         ... . . ... ... . . . . ... ...

e|----------------------------------------------|
B|----------------------------------------------|
G|----------------------------------------------|
D|-3-3-3-333---5-5-5-555--7-7-7-777--888----10--|
A|-3-3-3-333---5-5-5-555--7-7-7-777--888----10--|
E|-1-1-1-111---3-3-3-333--5-5-5-555--666-----8--|

| Chorus | this (x3)


e|---------------------------------------------------------------|
B|------------------------8-10-----------------------------------|
G|--10p9p7----7-10-9--7h9------/10-9-10p9p7---------7h9h10h9p7h9-|
D|---------10--------------------------------10--10--------------|
A|---------------------------------------------------------------|
E|---------------------------------------------------------------|

e|-----------------------------10-8-10p8-------------------------|
B|------------------------8-10-------------11-10-10-11p10-8-10---|
G|--10p9p7----7-10-9--7h9----------------------------------------|
D|---------10----------------------------------------------------|
A|---------------------------------------------------------------|
E|---------------------------------------------------------------|
  |Final Chorus|
e|------------------------------|
B|------------------------------|
G|-10p9p7----7-10-9~---9\-------|
D|--------10--------------------|
A|------------------------------|
E|------------------------------|

Rhythm
(The 3rd and 4th times it's just a different strum pattern)

e|--------|
B|--------|
G|---0----|
D|---0----|
A|---0----|
E|---0----|
comments
We did not receive enough feedback on this tab! Please rate:
print report bad tab
1 2 3 4 5
I want to post or [tab]
guest
You may want to rate the tab now too:
select rating
Please do not post tabs as comments. Select "correction" instead!