Oops, an error
Loading. Please wait.

Bull In The Heather Tab

ver1
ver1

Whole song

Interactive

More versions @911Tabs.com
4,521 views 1 this week
no commentswrite comment
1 2 3 4 5
worth learning
x 2
Autoscroll
+/-
esc
set tempo
stop
Contributor
Hey! There's an official Ultimate Guitar app which is ideal
for learning songs when you're away from computer. Get the app
WARNING: You are trying to view
                                    content from Ultimate-Guitar.com
                                    in an unauthorized application,
                                    which is prohibited.

                                    Please use an official Ultimate
                                    Guitar Tabs application for iPhone,
                                    iPad or Android to access legitimate
                                    chords, guitar, bass, and drum tabs
                                    from Ultimate-Guitar.com database.

                                    Type "ultimate guitar tabs" in Apple
                                    App Store's or Android Market's
                                    search to find the application.
                              Bull In The Heather                               


                                 Sonic Youth




                           (1)                            
                           NH   NH   NH   NH   NH         
     W                     E    E    E    E    Q    Q     
E||-------------------|----------------------------------|
B||-------------------|--<>7--<>7--<>7--<>7--<>7---------|
G||-------------------|-----------------------------x----|
D||-------------------|----------------------------------|
A||-------------------|----------------------------------|
E||-------------------|----------------------------------|


                                       (2)                            
    NH   NH   NH   NH   NH             NH   NH   NH   NH   NH         
    E    E    E    E    Q    Q         E    E    E    E    Q    Q     
-----------------------------x----|----------------------------------|
----------------------------------|--<>7--<>7--<>7--<>7--<>7---------|
--<>5--<>5--<>5--<>5--<>5---------|-----------------------------x----|
----------------------------------|----------------------------------|
----------------------------------|----------------------------------|
----------------------------------|----------------------------------|


                                       (3)                            
    NH   NH   NH   NH   NH             NH   NH   NH   NH   NH         
    E    E    E    E    Q    Q         E    E    E    E    Q    Q     
-----------------------------x----|----------------------------------|
----------------------------------|--<>7--<>7--<>7--<>7--<>7---------|
--<>5--<>5--<>5--<>5--<>5---------|-----------------------------x----|
----------------------------------|----------------------------------|
----------------------------------|----------------------------------|
----------------------------------|----------------------------------|


                                       (4)                            
    NH   NH   NH   NH   NH             NH   NH   NH   NH   NH         
    E    E    E    E    Q    Q         E    E    E    E    Q    Q     
-----------------------------x----|----------------------------------|
----------------------------------|--<>7--<>7--<>7--<>7--<>7---------|
--<>5--<>5--<>5--<>5--<>5---------|-----------------------------x----|
----------------------------------|----------------------------------|
----------------------------------|----------------------------------|
----------------------------------|----------------------------------|


                                     let ring              
                                     G5                    
    NH   NH   NH   NH   NH           ^                     
    E    E    E    E    Q    Q       H        E  E  E  E   
----------------------------------|-----------------------|
-----------------------------x----|-----------------------|
--<>5--<>5--<>5--<>5--<>5---------|-----------------------|
----------------------------------|--5-----------------L--|
----------------------------------|--5-----------------L--|
----------------------------------|--3--------3--3--3--3--|


  keep sturming low G, strum others at random                       
  E                                           E  E  E  E  E  E  E   
-------------------------------------------------------------------|
-------------------------------------------------------------------|
-------------------------------------------------------------------|
----------------------------------------------------------------L--|
----------------------------------------------------------------L--|
--3-------------------------------------------3--3--3--3--3--3--3--|


  E  E  E  E  E  E  E  E     E  E  E  E  E  E  E  E   
--------------------------|--------------------------|
--------------------------|--------------------------|
--------------------------|--------------------------|
-----------------------L--|-----------------------L--|
-----------------------L--|-----------------------L--|
--3--3--3--3--3--3--3--3--|--3--3--3--3--3--3--3--3--|


  E  E  E  E  E  E  E  E     E  E  E  E  E  E  E  E   
--------------------------|--------------------------|
--------------------------|--------------------------|
--------------------------|--------------------------|
-----------------------L--|-----------------------L--|
-----------------------L--|-----------------------L--|
--3--3--3--3--3--3--3--3--|--3--3--3--3--3--3--3--3--|


  E  E  E  E  E  E  E  E     E  E  E  E  E  E  E  E   
--------------------------|--------------------------|
--------------------------|--------------------------|
--------------------------|--------------------------|
-----------------------L--|-----------------------L--|
-----------------------L--|-----------------------L--|
--3--3--3--3--3--3--3--3--|--3--3--3--3--3--3--3--3--|


  he plays low G as a bourdon but you cant in std                             
  H.                                               Q        W                 
--------------------------------------------------------|--------------------|
--------------------------------------------------------|--------------------|
--------------------------------------------------------|--------------------|
--9-----------------------------------------------12----|--11----------------|
--------------------------------------------------------|--------------------|
--------------------------------------------------------|--------------------|


   W                    W                    W                 
--------------------|--------------------|--------------------|
--------------------|--------------------|--------------------|
--------------------|--11----------------|--11----------------|
--11----------------|--------------------|--------------------|
--------------------|--------------------|--------------------|
--------------------|--------------------|--------------------|


  H.            Q        E   E   E   E   H            W                 
---------------------|----------------------------|--------------------|
---------------------|----------------------------|--------------------|
---------------------|----------------------------|--------------------|
--9------------12----|--11--12--11--12--11--------|--11----------------|
---------------------|----------------------------|--------------------|
---------------------|----------------------------|--------------------|


                                            (2)                 
   W                    W                   H.            Q     
--------------------|--------------------|---------------------|
--------------------|--------------------|---------------------|
--11----------------|--11----------------|---------------------|
--------------------|--------------------|--9------------12----|
--------------------|--------------------|---------------------|
--------------------|--------------------|---------------------|


   W                    W                    W                 
--------------------|--------------------|--------------------|
--------------------|--------------------|--------------------|
--------------------|--------------------|--11----------------|
--11----------------|--11----------------|--------------------|
--------------------|--------------------|--------------------|
--------------------|--------------------|--------------------|


   W                   H.            Q        E   E   E   E   H         
--------------------|---------------------|----------------------------|
--------------------|---------------------|----------------------------|
--11----------------|---------------------|----------------------------|
--------------------|--9------------12----|--11--12--11--12--11--------|
--------------------|---------------------|----------------------------|
--------------------|---------------------|----------------------------|


   W                    W                    W                 
--------------------|--------------------|--------------------|
--------------------|--------------------|--------------------|
--------------------|--12----------------|--12----------------|
--11----------------|--16----------------|--16----------------|
--------------------|--------------------|--------------------|
--------------------|--------------------|--------------------|


     Q       Q       Q       Q          Q       Q       Q       Q     
----------------------------------|----------------------------------|
----------------------------------|----------------------------------|
----------------------------------|----------------------------------|
------------------<>13----<>12----|------------------<>13----<>12----|
----------<>12---------------L----|----------<>12---------------L----|
--<>15-----------------------L----|--<>15-----------------------L----|


  E  E  E  E  E  E  E  E     E  E  E  E  E  E  E  E   
--------------------------|--------------------------|
--------------------------|--------------------------|
--x--x--x--x--x--x--x--x--|--x--x--x--x--x--x--x--x--|
--x--x--x--x--x--x--x--x--|--x--x--x--x--x--x--x--x--|
--x--x--x--x--x--x--x--x--|--x--x--x--x--x--x--x--x--|
--x--x--x--x--x--x--x--x--|--x--x--x--x--x--x--x--x--|


     Q       Q       Q       Q          Q       Q       Q       Q     
----------------------------------|----------------------------------|
----------------------------------|----------------------------------|
----------------------------------|----------------------------------|
------------------<>13----<>12----|------------------<>13----<>12----|
----------<>12---------------L----|----------<>12---------------L----|
--<>15-----------------------L----|--<>15-----------------------L----|


  with various noises....                                                  
  E                       E  E  E  E  E  E  E     E  E  E  E  E  E  E  E   
-----------------------------------------------|--------------------------|
-----------------------------------------------|--------------------------|
-----------------------------------------------|--------------------------|
-----------------------------------------------|--------------------------|
--x-----------------------x--x--x--x--x--x--x--|--x--x--x--x--x--x--x--x--|
--3-----------------------3--3--3--3--3--3--3--|--3--3--3--3--3--3--3--3--|


  E  E  E  E  E  E  E  E     E  E  E  E  E  E  Q     
--------------------------|-------------------------|
--------------------------|-------------------------|
--------------------------|-------------------------|
--5--5--5--5--5--5--5--5--|--5--5--5--5--5--5--5----|
--x--x--x--x--x--x--x--x--|--x--x--x--x--x--x--x----|
--3--3--3--3--3--3--3--3--|--3--3--3--3--3--3--3----|


    (1)                                                               
    NH   NH   NH   NH   NH             NH   NH   NH   NH   NH         
    E    E    E    E    Q    Q         E    E    E    E    Q    Q     
----------------------------------|-----------------------------x----|
--<>7--<>7--<>7--<>7--<>7---------|----------------------------------|
-----------------------------x----|--<>5--<>5--<>5--<>5--<>5---------|
----------------------------------|----------------------------------|
----------------------------------|----------------------------------|
----------------------------------|----------------------------------|


    (2)                                                               
    NH   NH   NH   NH   NH             NH   NH   NH   NH   NH         
    E    E    E    E    Q    Q         E    E    E    E    Q    Q     
----------------------------------|-----------------------------x----|
--<>7--<>7--<>7--<>7--<>7---------|----------------------------------|
-----------------------------x----|--<>5--<>5--<>5--<>5--<>5---------|
----------------------------------|----------------------------------|
----------------------------------|----------------------------------|
----------------------------------|----------------------------------|


    (3)                                                               
    NH   NH   NH   NH   NH             NH   NH   NH   NH   NH         
    E    E    E    E    Q    Q         E    E    E    E    Q    Q     
----------------------------------|-----------------------------x----|
--<>7--<>7--<>7--<>7--<>7---------|----------------------------------|
-----------------------------x----|--<>5--<>5--<>5--<>5--<>5---------|
----------------------------------|----------------------------------|
----------------------------------|----------------------------------|
----------------------------------|----------------------------------|


    (4)                                                               
    NH   NH   NH   NH   NH             NH   NH   NH   NH   NH         
    E    E    E    E    Q    Q         E    E    E    E    Q    Q     
----------------------------------|----------------------------------|
--<>7--<>7--<>7--<>7--<>7---------|-----------------------------x----|
-----------------------------x----|--<>5--<>5--<>5--<>5--<>5---------|
----------------------------------|----------------------------------|
----------------------------------|----------------------------------|
----------------------------------|----------------------------------|


  ^                                                                           
  H        E  E  E  E     E  E  E  E  E  E  E  E     E  E  E  E  E  E  E  E   
-----------------------|--------------------------|--------------------------|
-----------------------|--------------------------|--------------------------|
-----------------------|--------------------------|--------------------------|
--5-----------------L--|-----------------------L--|-----------------------L--|
--5-----------------L--|-----------------------L--|-----------------------L--|
--3--------3--3--3--3--|--3--3--3--3--3--3--3--3--|--3--3--3--3--3--3--3--3--|


                             (1)                    same as verse 1.... 
  E  E  E  E  E  E  E  E     H.            Q        W                   
--------------------------|---------------------|----------------------|
--------------------------|---------------------|----------------------|
--------------------------|---------------------|----------------------|
-----------------------L--|--9------------12----|--11------------------|
-----------------------L--|---------------------|----------------------|
--3--3--3--3--3--3--3--3--|---------------------|----------------------|


   W                    W                    W                 
--------------------|--------------------|--------------------|
--------------------|--------------------|--------------------|
--------------------|--11----------------|--11----------------|
--11----------------|--------------------|--------------------|
--------------------|--------------------|--------------------|
--------------------|--------------------|--------------------|


  H.            Q        E   E   E   E   H            W                 
---------------------|----------------------------|--------------------|
---------------------|----------------------------|--------------------|
---------------------|----------------------------|--------------------|
--9------------12----|--11--12--11--12--11--------|--11----------------|
---------------------|----------------------------|--------------------|
---------------------|----------------------------|--------------------|


                                            (2)                 
   W                    W                   H.            Q     
--------------------|--------------------|---------------------|
--------------------|--------------------|---------------------|
--11----------------|--11----------------|---------------------|
--------------------|--------------------|--9------------12----|
--------------------|--------------------|---------------------|
--------------------|--------------------|---------------------|


   W                    W                    W                 
--------------------|--------------------|--------------------|
--------------------|--------------------|--------------------|
--------------------|--------------------|--11----------------|
--11----------------|--11----------------|--------------------|
--------------------|--------------------|--------------------|
--------------------|--------------------|--------------------|


   W                   H.            Q        E   E   E   E   H         
--------------------|---------------------|----------------------------|
--------------------|---------------------|----------------------------|
--11----------------|---------------------|----------------------------|
--------------------|--9------------12----|--11--12--11--12--11--------|
--------------------|---------------------|----------------------------|
--------------------|---------------------|----------------------------|


   W                    W                    W                 
--------------------|--------------------|--------------------|
--------------------|--------------------|--------------------|
--------------------|--12----------------|--12----------------|
--11----------------|--16----------------|--16----------------|
--------------------|--------------------|--------------------|
--------------------|--------------------|--------------------|


     Q       Q       Q       Q          Q       Q       Q       Q     
----------------------------------|----------------------------------|
----------------------------------|----------------------------------|
----------------------------------|----------------------------------|
------------------<>13----<>12----|------------------<>13----<>12----|
----------<>12---------------L----|----------<>12---------------L----|
--<>15-----------------------L----|--<>15-----------------------L----|


  E  E  E  E  E  E  E  E     E  E  E  E  E  E  E  E   
--------------------------|--------------------------|
--------------------------|--------------------------|
--x--x--x--x--x--x--x--x--|--x--x--x--x--x--x--x--x--|
--x--x--x--x--x--x--x--x--|--x--x--x--x--x--x--x--x--|
--x--x--x--x--x--x--x--x--|--x--x--x--x--x--x--x--x--|
--x--x--x--x--x--x--x--x--|--x--x--x--x--x--x--x--x--|


     Q       Q       Q       Q          Q       Q       Q       Q     
----------------------------------|----------------------------------|
----------------------------------|----------------------------------|
----------------------------------|----------------------------------|
------------------<>13----<>12----|------------------<>13----<>12----|
----------<>12---------------L----|----------<>12---------------L----|
--<>15-----------------------L----|--<>15-----------------------L----|


  with various noises....                                                  
  E                       E  E  E  E  E  E  E     E  E  E  E  E  E  E  E   
-----------------------------------------------|--------------------------|
-----------------------------------------------|--------------------------|
-----------------------------------------------|--------------------------|
-----------------------------------------------|--------------------------|
--x-----------------------x--x--x--x--x--x--x--|--x--x--x--x--x--x--x--x--|
--3-----------------------3--3--3--3--3--3--3--|--3--3--3--3--3--3--3--3--|


  E  E  E  E  E  E  E  E     E  E  E  E  E  E  Q     
--------------------------|-------------------------|
--------------------------|-------------------------|
--------------------------|-------------------------|
--5--5--5--5--5--5--5--5--|--5--5--5--5--5--5--5----|
--x--x--x--x--x--x--x--x--|--x--x--x--x--x--x--x----|
--3--3--3--3--3--3--3--3--|--3--3--3--3--3--3--3----|


    (1)                                                               
    NH   NH   NH   NH   NH             NH   NH   NH   NH   NH         
    E    E    E    E    Q    Q         E    E    E    E    Q    Q     
----------------------------------|-----------------------------x----|
--<>7--<>7--<>7--<>7--<>7---------|----------------------------------|
-----------------------------x----|--<>5--<>5--<>5--<>5--<>5---------|
----------------------------------|----------------------------------|
----------------------------------|----------------------------------|
----------------------------------|----------------------------------|


    (2)                                                               
    NH   NH   NH   NH   NH             NH   NH   NH   NH   NH         
    E    E    E    E    Q    Q         E    E    E    E    Q    Q     
----------------------------------|-----------------------------x----|
--<>7--<>7--<>7--<>7--<>7---------|----------------------------------|
-----------------------------x----|--<>5--<>5--<>5--<>5--<>5---------|
----------------------------------|----------------------------------|
----------------------------------|----------------------------------|
----------------------------------|----------------------------------|


    (3)                                                               
    NH   NH   NH   NH   NH             NH   NH   NH   NH   NH         
    E    E    E    E    Q    Q         E    E    E    E    Q    Q     
----------------------------------|-----------------------------x----|
--<>7--<>7--<>7--<>7--<>7---------|----------------------------------|
-----------------------------x----|--<>5--<>5--<>5--<>5--<>5---------|
----------------------------------|----------------------------------|
----------------------------------|----------------------------------|
----------------------------------|----------------------------------|


    (4)                            
    NH   NH   NH   NH   NH         
    E    E    E    E    Q    Q     
----------------------------------|
--<>7--<>7--<>7--<>7--<>7---------|
-----------------------------x----|
----------------------------------|
----------------------------------|
----------------------------------|


                                whammy & crazy vib                     
    NH   NH   NH   NH   NH      /2\                                    
    E    E    E    E    E  E    Q                   W                  
-------------------------------------------------|-------------------||
-------------------------------------------------|-------------------||
--<>5--<>5--<>5--<>5--<>5-----<>5----------------|--L----------------||
-------------------------------------------------|-------------------||
-------------------------------------------------|-------------------||
-------------------------------------------------|-------------------||


comments
We did not receive enough feedback on this tab! Please rate:
print report bad tab
1 2 3 4 5
I want to post or [tab]
guest
You may want to rate the tab now too:
select rating
Please do not post tabs as comments. Select "correction" instead!