Oops, an error
Loading. Please wait.

Chapel Hill Tab

ver2
ver2

Whole song

Interactive

More versions @911Tabs.com
1,007 views 1 this week
3 commentsread comments
1 2 3 4 5
excellent!
x 1
Autoscroll
+/-
esc
set tempo
stop
Contributor
Hey! There's an official Ultimate Guitar app which is ideal
for learning songs when you're away from computer. Get the app
WARNING: You are trying to view
                                    content from Ultimate-Guitar.com
                                    in an unauthorized application,
                                    which is prohibited.

                                    Please use an official Ultimate
                                    Guitar Tabs application for iPhone,
                                    iPad or Android to access legitimate
                                    chords, guitar, bass, and drum tabs
                                    from Ultimate-Guitar.com database.

                                    Type "ultimate guitar tabs" in Apple
                                    App Store's or Android Market's
                                    search to find the application.
Artist: Sonic Youth
Song: Chapel Hill
Album: Dirty
Tuning: EGDGBE (standard with drop G on A)

Tabbed By: Indie Nation
     
E||--------------------|-------------------|--------------------|
B||--------------------|-------------------|--------------------|
G||--------4s--2--0----|-----5s----4--2----|--------4s--2--0----|
D||-----0--------------|-------------------|-----0--------------|
G||--0-----------------|--2----------------|--0-----------------|
E||--------------------|-------------------|--------------------|

     
-------------------|--------------------|-------------------|
-------------------|--------------------|-------------------|
-----5s----4--2----|--------4s--2--0----|-----5s----4--2----|
-------------------|-----0--------------|-------------------|
--2----------------|--0-----------------|--2----------------|
-------------------|--------------------|-------------------|

   
--------------------|-------------------|-------------------|
--------------------|-------------------|-------------------|
--------4s--2--0----|-----5s----4--2----|--4s--5----7----9--|
-----0--------------|-------------------|-------------------|
--0-----------------|--2----------------|--4s--5----7----9--|
--------------------|-------------------|-------------------|

   
-------------------|-------------------|------------------|-------------------|
-------------------|-------------------|------------------|-------------------|
-(9)-11---11---12s-|--14---11---11s-12-|-(12)-------------|-------------------|
-------------------|-------------------|------9---9----7--|-(7)---------------|
-(9)-11---11---12s-|--14---11---11s-12-|-(12)-------------|-----10---9--9--9--|
-------------------|-------------------|------------------|-------------------|

   
---------------------|---------------------|-------------------|
---------------------|---------------------|-------------------|
--9--9--7s--9----11--|-(11)-11----11---12--|-(12)-11-------11--|
---------------------|---------------------|-------------------|
--9--9--7s--9----11--|-(11)-11----11---12--|-(12)-11-------11--|
---------------------|---------------------|-------------------|

   
---------------------|-----------------------|------------------------|
---------------------|-----------------------|------------------------|
--11s--12------14----|--14b------14--14--14--|-------4----x--x--x--5--|
---------------------|-----------------------|--4----4----x--x--x--5--|
--11s--12------14----|--14b------14--14--14--|--4----4----x--x--x--5--|
---------------------|-----------------------|------------------------|

     
------------------------|------------------------|------------------------|
------------------------|------------------------|------------------------|
-(5)-5--5--5--7----5----|-------4----x--x--x--5--|-(5)-5--5--5--7----5----|
-(5)-5--5--5--7----5----|--4----4----x--x--x--5--|-(5)-5--5--5--7----5----|
-(5)-5--5--5--7----5----|--4----4----x--x--x--5--|-(5)-5--5--5--7----5----|
------------------------|------------------------|------------------------|

   
------------------------|------------------------|------------------------|
------------------------|------------------------|------------------------|
-------4----x--x--x--5--|-(5)-5--5--5--7----5----|-------4----x--x--x--5--|
--4----4----x--x--x--5--|-(5)-5--5--5--7----5----|--4----4----x--x--x--5--|
--4----4----x--x--x--5--|-(5)-5--5--5--7----5----|--4----4----x--x--x--5--|
------------------------|------------------------|------------------------|

     
------------------------|------------------------|------------------------|
------------------------|------------------------|------------------------|
-(5)-5--5--5--7----5----|-------4----x--x--x--5--|-(5)-5--5--5--7----5----|
-(5)-5--5--5--7----5----|--4----4----x--x--x--5--|-(5)-5--5--5--7----5----|
-(5)-5--5--5--7----5----|--4----4----x--x--x--5--|-(5)-5--5--5--7----5----|
------------------------|------------------------|------------------------|

   
------------------------|------------------------|------------------------|
------------------------|------------------------|------------------------|
-------4----x--x--x--5--|-(5)-5--5--5--7----5----|-------4----x--x--x--5--|
--4----4----x--x--x--5--|-(5)-5--5--5--7----5----|--4----4----x--x--x--5--|
--4----4----x--x--x--5--|-(5)-5--5--5--7----5----|--4----4----x--x--x--5--|
------------------------|------------------------|------------------------|

     
------------------------|------------------------|------------------------|
------------------------|------------------------|------------------------|
-(5)-5--5--5--7----5----|-------4----x--x--x--5--|-(5)-5--5--5--7----5----|
-(5)-5--5--5--7----5----|--4----4----x--x--x--5--|-(5)-5--5--5--7----5----|
-(5)-5--5--5--7----5----|--4----4----x--x--x--5--|-(5)-5--5--5--7----5----|
------------------------|------------------------|------------------------|

   
-------------------|---------------------------|-------------------------|
-------------------|---------------------------|-------------------------|
--0----------------|--------2--------3---------|--2--------2----5--5-----|
--0----------------|-----2--------3------------|-----2--4-------5--5-----|
--0----------------|--2--------3--------3S--2--|----------------5--5-----|
-------------------|---------------------------|-------------------------|

                 
----------------------|----------------------------|-------------------|
----------------------|----------------------------|-------------------|
--3--------0----0-----|-----0--2S--3--3--3--3-3-3--|--2----------------|
--3--------0-------0--|--2-----2S--3--3--3--3-3-3--|--2----------------|
--3--------0----------|--------2S--3--3--3--3-3-3--|--2----------------|
----------------------|----------------------------|-------------------|

   
-----------------------|-------------------|------------------------|
-----------------------|-------------------|------------------------|
--5--5-----3-----------|-(3)---------------|-------4----x--x--x--5--|
--5--5-----3-----------|-(3)---------------|--4----4----x--x--x--5--|
--5--5-----3-----------|-(3)---------------|--4----4----x--x--x--5--|
-----------------------|-------------------|------------------------|

     
------------------------|------------------------|------------------------|
------------------------|------------------------|------------------------|
-----5--5--5--7----5----|-------4----x--x--x--5--|-----5--5--5--7----5----|
-----5--5--5--7----5----|--4----4----x--x--x--5--|-----5--5--5--7----5----|
-----5--5--5--7----5----|--4----4----x--x--x--5--|-----5--5--5--7----5----|
------------------------|------------------------|------------------------|

   
------------------------|------------------------|------------------------|
------------------------|------------------------|------------------------|
-------4----x--x--x--5--|-----5--5--5--7----5----|-------4----x--x--x--5--|
--4----4----x--x--x--5--|-----5--5--5--7----5----|--4----4----x--x--x--5--|
--4----4----x--x--x--5--|-----5--5--5--7----5----|--4----4----x--x--x--5--|
------------------------|------------------------|------------------------|

     
------------------------|------------------------|------------------------|
------------------------|------------------------|------------------------|
-----5--5--5--7----5----|-------4----x--x--x--5--|-----5--5--5--7----5----|
-----5--5--5--7----5----|--4----4----x--x--x--5--|-----5--5--5--7----5----|
-----5--5--5--7----5----|--4----4----x--x--x--5--|-----5--5--5--7----5----|
------------------------|------------------------|------------------------|

   
------------------------|------------------------|------------------------|
------------------------|------------------------|------------------------|
-------4----x--x--x--5--|-----5--5--5--7----5----|-------4----x--x--x--5--|
--4----4----x--x--x--5--|-----5--5--5--7----5----|--4----4----x--x--x--5--|
--4----4----x--x--x--5--|-----5--5--5--7----5----|--4----4----x--x--x--5--|
------------------------|------------------------|------------------------|

     
------------------------|------------------------|------------------------|
------------------------|------------------------|------------------------|
-----5--5--5--7----5----|-------4----x--x--x--5--|-----5--5--5--7----5----|
-----5--5--5--7----5----|--4----4----x--x--x--5--|-----5--5--5--7----5----|
-----5--5--5--7----5----|--4----4----x--x--x--5--|-----5--5--5--7----5----|
------------------------|------------------------|------------------------|

   
-------------------|---------------------------|-------------------------|
-------------------|---------------------------|-------------------------|
--0----------------|--------2--------3---------|--2--------2----5--5-----|
--0----------------|-----2--------3------------|-----2--4-------5--5-----|
--0----------------|--2--------3--------3S--2--|----------------5--5-----|
-------------------|---------------------------|-------------------------|

                 
----------------------|----------------------------|-------------------|
----------------------|----------------------------|-------------------|
--3--------0----0-----|-----0--2S--3--3--3--3-3-3--|--2----------------|
--3--------0-------0--|--2-----2S--3--3--3--3-3-3--|--2----------------|
--3--------0----------|--------2S--3--3--3--3-3-3--|--2----------------|
----------------------|----------------------------|-------------------|

   
-----------------------|-------------------|-------------------------|
-----------------------|-------------------|-------------------------|
--5--5-----3-----------|-(3)---------------|--------0--------0-------|
--5--5-----3-----------|-(3)---------------|-----0-----0--2-------0--|
--5--5-----3-----------|-(3)---------------|--0----------------------|
-----------------------|-------------------|-------------------------|

   
-------------------------|-------------------------|-------------------------|
-------------------------|-------------------------|-------------------------|
--------0--------0-------|--------0--------0-------|--------0--------0-------|
-----0-----0--2-------0--|-----0-----0--2-------0--|-----0-----0--2-------0--|
--0----------------------|--0----------------------|--0----------------------|
-------------------------|-------------------------|-------------------------|

     
-------------------|------------------|-------------------|------------------|
-------------------|------------------|-------------------|------------------|
--------4--2--0----|-----5----4--2----|--------4--2--0----|-----5----4--2----|
-----0-------------|------------------|-----0-------------|------------------|
--0----------------|--2---------------|--0----------------|--2---------------|
-------------------|------------------|-------------------|------------------|

     
-------------------|------------------|-------------------|------------------|
-------------------|------------------|-------------------|------------------|
--------4--2--0----|-----5----4--2----|--------4--2--0----|-----5----4--2----|
-----0-------------|------------------|-----0-------------|------------------|
--0----------------|--2---------------|--0----------------|--2---------------|
-------------------|------------------|-------------------|------------------|

  
----------------------|---------------------------|----------------------|
----------------------|---------------------------|----------------------|
--4----4--------------|---------------------------|--4----4--------------|
--4----4--------------|---------------------------|--4----4--------------|
--4----4---12--11--10-|-----10-10-10-10--11--12---|--4----4---12--11--10-|
----------------------|---------------------------|----------------------|

   
---------------------------|----------------------|---------------------------|
---------------------------|----------------------|---------------------------|
---------------------------|--4----4--------------|---------------------------|
---------------------------|--4----4--------------|---------------------------|
-----10-10-10-10--11--12---|--4----4---12--11--10-|-----10-10-10-10--11--12---|
---------------------------|----------------------|---------------------------|

   
----------------------|---------------------------|--------------------|
----------------------|---------------------------|--------------------|
--4----4--------------|---------------------------|--4----4------------|
--4----4--------------|---------------------------|--4----4----12--11--|
--4----4---12--11--10-|-----10-10-10-10--11--12---|--4----4----12--11--|
----------------------|---------------------------|--------------------|

   
--------------------------------|--------------------|
--------------------------------|--------------------|
--------------------------------|--4----4------------|
--10----10-10-10-10-10-10-------|--4----4----12--11--|
--10----10-10-10-10-10-10-------|--4----4----12--11--|
--------------------------------|--------------------|

   
--------------------------------|--------------------|
--------------------------------|--------------------|
--------------------------------|--4----4------------|
--10----10-10-10-10-10-10-------|--4----4----12--11--|
--10----10-10-10-10-10-10-------|--4----4----12--11--|
--------------------------------|--------------------|

   
--------------------------------|--------------------|
--------------------------------|--------------------|
--------------------------------|--4----4------------|
--10----10-10-10-10-10-10-------|--4----4----12--11--|
--10----10-10-10-10-10-10-------|--4----4----12--11--|
--------------------------------|--------------------|

   
--------------------------------|---------------------------|
--------------------------------|---------------------------|
--------------------------------|--2s4---4---4---2-4--7--6--|
--10----10-10-10-10-10-10-------|---------------------------|
--10----10-10-10-10-10-10-------|--2s4---4---4---2-4--7--6--|
--------------------------------|---------------------------|

   
--------------------------------|---------------------------|
--------------------------------|---------------------------|
--5--5-5-5-7-5-3--3-3-3-3-3-3-3-|--2s4---4---4---2-4--7--6--|
--------------------------------|---------------------------|
--5--5-5-5-7-5-3--3-3-3-3-3-3-3-|--2s4---4---4---2-4--7--6--|
--------------------------------|---------------------------|

   
--------------------------------|---------------------------|
--------------------------------|---------------------------|
--5--5-5-5-7-5-3--3-3-3-3-3-3-3-|--2s4---4---4---2-4--7--6--|
--------------------------------|---------------------------|
--5--5-5-5-7-5-3--3-3-3-3-3-3-3-|--2s4---4---4---2-4--7--6--|
--------------------------------|---------------------------|

   
--------------------------------|---------------------------|
--------------------------------|---------------------------|
--5--5-5-5-7-5-3--3-3-3-3-3-3-3-|--2s4---4---4---2-4--7--6--|
--------------------------------|---------------------------|
--5--5-5-5-7-5-3--3-3-3-3-3-3-3-|--2s4---4---4---2-4--7--6--|
--------------------------------|---------------------------|

   
--------------------------------|-------------------------------|
--------------------------------|-------------------------------|
--5--5-5-5-7-5-3--3-3-3-3-3-3-3-|--2s4---2s4---2s4---3-4--7--6--|
--------------------------------|--2s4---2s4---2s4---3-4--7--6--|
--5--5-5-5-7-5-3--3-3-3-3-3-3-3-|--2s4---2s4---2s4---3-4--7--6--|
--------------------------------|-------------------------------|

   
--------------------------------|-------------------------------|
--------------------------------|-------------------------------|
--5--5-5-5-7-5-3--3-3-3-3-3-3-3-|--2s4---2s4---2s4---3-4--7--6--|
--5--5-5-5-7-5-3--3-3-3-3-3-3-3-|--2s4---2s4---2s4---3-4--7--6--|
--5--5-5-5-7-5-3--3-3-3-3-3-3-3-|--2s4---2s4---2s4---3-4--7--6--|
--------------------------------|-------------------------------|

   
--------------------------------|-------------------------------|
--------------------------------|-------------------------------|
--5--5-5-5-7-5-3--3-3-3-3-3-3-3-|--2s4---2s4---2s4---3-4--7--6--|
--5--5-5-5-7-5-3--3-3-3-3-3-3-3-|--2s4---2s4---2s4---3-4--7--6--|
--5--5-5-5-7-5-3--3-3-3-3-3-3-3-|--2s4---2s4---2s4---3-4--7--6--|
--------------------------------|-------------------------------|

   
--------------------------------|-------------------------------|
--------------------------------|-------------------------------|
--5--5-5-5-7-5-3--3-3-3-3-3-3-3-|--2s4---2s4---2s4---3-4--7--6--|
--5--5-5-5-7-5-3--3-3-3-3-3-3-3-|--2s4---2s4---2s4---3-4--7--6--|
--5--5-5-5-7-5-3--3-3-3-3-3-3-3-|--2s4---2s4---2s4---3-4--7--6--|
--------------------------------|-------------------------------|

   
--------------------------------|-------------------------------|
--------------------------------|-------------------------------|
--5--5-5-5-7-5-3--3-3-3-3-3-3-3-|--2s4---2s4---2s4---3-4--7--6--|
--5--5-5-5-7-5-3--3-3-3-3-3-3-3-|--2s4---2s4---2s4---3-4--7--6--|
--5--5-5-5-7-5-3--3-3-3-3-3-3-3-|--2s4---2s4---2s4---3-4--7--6--|
--------------------------------|-------------------------------|

   
--------------------------------|-------------------------------|
--------------------------------|-------------------------------|
--5--5-5-5-7-5-3--3-3-3-3-3-3-3-|--2s4---2s4---2s4---3-4--7--6--|
--5--5-5-5-7-5-3--3-3-3-3-3-3-3-|--2s4---2s4---2s4---3-4--7--6--|
--5--5-5-5-7-5-3--3-3-3-3-3-3-3-|--2s4---2s4---2s4---3-4--7--6--|
--------------------------------|-------------------------------|

   
--------------------------------|-------------------------------|
--------------------------------|-------------------------------|
--5--5-5-5-7-5-3--3-3-3-3-3-3-3-|--2s4---2s4---2s4---3-4--7--6--|
--5--5-5-5-7-5-3--3-3-3-3-3-3-3-|--2s4---2s4---2s4---3-4--7--6--|
--5--5-5-5-7-5-3--3-3-3-3-3-3-3-|--2s4---2s4---2s4---3-4--7--6--|
--------------------------------|-------------------------------|

  
--------------------------------|----------------------------------|
--------------------------------|----------------------------------|
--5--5-5-5-7-5-3--3-3-3-3-3-3-3-|--3-3-3-3-3-3-3-3-3-3-3-3-3-3-3-3-|
--5--5-5-5-7-5-3--3-3-3-3-3-3-3-|--3-3-3-3-3-3-3-3-3-3-3-3-3-3-3-3-|
--5--5-5-5-7-5-3--3-3-3-3-3-3-3-|--3-3-3-3-3-3-3-3-3-3-3-3-3-3-3-3-|
--------------------------------|----------------------------------|

   
----------------------------------|--------------------------|
----------------------------------|--------------------------|
--3-3-3-3-3-3-3-3-3-3-3-3-3-3-3-3-|--------------------------|
--3-3-3-3-3-3-3-3-3-3-3-3-3-3-3-3-|--------------------------|
--3-3-3-3-3-3-3-3-3-3-3-3-3-3-3-3-|-----3-----3-----3-----3--|
----------------------------------|--0-----0-----0-----0-----|

   
--------------------------|--------------------------|
--------------------------|--------------------------|
--------------------------|--------------------------|
--------------------------|--------------------------|
-----3-----3-----3-----3--|-----3-----3-----3-----3--|
--0-----0-----0-----0-----|--0-----0-----0-----0-----|

     
--------------------------|------------------------|------------------------|
--------------------------|------------------------|------------------------|
--------------------------|-------4----x--x--x--5--|-----5--5--5--7----5----|
--------------------------|--4----4----x--x--x--5--|-----5--5--5--7----5----|
-----3-----3-----3-----3--|--4----4----x--x--x--5--|-----5--5--5--7----5----|
--0-----0-----0-----0-----|------------------------|------------------------|

   
------------------------|------------------------|------------------------|
------------------------|------------------------|------------------------|
-------4----x--x--x--5--|-----5--5--5--7----5----|-------4----x--x--x--5--|
--4----4----x--x--x--5--|-----5--5--5--7----5----|--4----4----x--x--x--5--|
--4----4----x--x--x--5--|-----5--5--5--7----5----|--4----4----x--x--x--5--|
------------------------|------------------------|------------------------|

     
------------------------|------------------------|------------------------|
------------------------|------------------------|------------------------|
-----5--5--5--7----5----|-------4----x--x--x--5--|-----5--5--5--7----5----|
-----5--5--5--7----5----|--4----4----x--x--x--5--|-----5--5--5--7----5----|
-----5--5--5--7----5----|--4----4----x--x--x--5--|-----5--5--5--7----5----|
------------------------|------------------------|------------------------|

   
------------------------|------------------------|------------------------|
------------------------|------------------------|------------------------|
-------4----x--x--x--5--|-----5--5--5--7----5----|-------4----x--x--x--5--|
--4----4----x--x--x--5--|-----5--5--5--7----5----|--4----4----x--x--x--5--|
--4----4----x--x--x--5--|-----5--5--5--7----5----|--4----4----x--x--x--5--|
------------------------|------------------------|------------------------|

     
------------------------|------------------------|------------------------|
------------------------|------------------------|------------------------|
-----5--5--5--7----5----|-------4----x--x--x--5--|-----5--5--5--7----5----|
-----5--5--5--7----5----|--4----4----x--x--x--5--|-----5--5--5--7----5----|
-----5--5--5--7----5----|--4----4----x--x--x--5--|-----5--5--5--7----5----|
------------------------|------------------------|------------------------|

   
------------------------|------------------------|------------------------|
------------------------|------------------------|------------------------|
-------4----x--x--x--5--|-----5--5--5--7----5----|-------4----x--x--x--5--|
--4----4----x--x--x--5--|-----5--5--5--7----5----|--4----4----x--x--x--5--|
--4----4----x--x--x--5--|-----5--5--5--7----5----|--4----4----x--x--x--5--|
------------------------|------------------------|------------------------|

     
------------------------|------------------------|------------------------|
------------------------|------------------------|------------------------|
-----5--5--5--7----5----|-------4----x--x--x--5--|-----5--5--5--7----5----|
-----5--5--5--7----5----|--4----4----x--x--x--5--|-----5--5--5--7----5----|
-----5--5--5--7----5----|--4----4----x--x--x--5--|-----5--5--5--7----5----|
------------------------|------------------------|------------------------|

   
------------------------|------------------------|------------------------|
------------------------|------------------------|------------------------|
-------4----x--x--x--5--|-----5--5--5--7----5----|-------4----x--x--x--5--|
--4----4----x--x--x--5--|-----5--5--5--7----5----|--4----4----x--x--x--5--|
--4----4----x--x--x--5--|-----5--5--5--7----5----|--4----4----x--x--x--5--|
------------------------|------------------------|------------------------|
 
------------------------|-------------------|---------------------------|
------------------------|-------------------|---------------------------|
-----5--5--5--7----5----|--0----------------|--------2--------3---------|
-----5--5--5--7----5----|--0----------------|-----2--------3------------|
-----5--5--5--7----5----|--0----------------|--2--------3--------3S--2--|
------------------------|-------------------|---------------------------|

   
-------------------------|----------------------|----------------------------|
-------------------------|----------------------|----------------------------|
--2--------2----5--5-----|--3--------0----0-----|-----0--2S--3--3--3--3-3-3--|
-----2--4-------5--5-----|--3--------0-------0--|--2-----2S--3--3--3--3-3-3--|
----------------5--5-----|--3--------0----------|--------2S--3--3--3--3-3-3--|
-------------------------|----------------------|----------------------------|

    
-------------------|-----------------------||
-------------------|-----------------------||
--2----------------|--5--5-----3-----------||
--2----------------|--5--5-----3-----------||
--2----------------|--5--5-----3-----------||
-------------------|-----------------------||
comments
We did not receive enough feedback on this tab! Please rate:
print report bad tab
1 2 3 4 5
3 comments total.
0 reply
castun1138 wrote on May 30 2012, 05:46 am

nice job! i always figure out a way to play SY songs in close to standard e tuning, so thanks, you did an awesome job!

0 reply
castun1138 wrote on May 30 2012, 05:48 am

:m:

0 reply
indie_nation wrote on May 30 2012, 06:10 am

Thanks, I try and do the same where possible

I want to post or [tab]
guest
You may want to rate the tab now too:
select rating
Please do not post tabs as comments. Select "correction" instead!