Oops, an error
Loading. Please wait.

Dirty Boots Tab

ver3
ver3

Intro

Whole song

Interactive

More versions @911Tabs.com
6,215 views 57 this week
no commentswrite comment
1 2 3 4 5
excellent!
x 1
Autoscroll
+/-
esc
set tempo
stop
Contributor
Difficulty
intermediate
Hey! There's an official Ultimate Guitar app which is ideal
for learning songs when you're away from computer. Get the app
WARNING: You are trying to view
                                    content from Ultimate-Guitar.com
                                    in an unauthorized application,
                                    which is prohibited.

                                    Please use an official Ultimate
                                    Guitar Tabs application for iPhone,
                                    iPad or Android to access legitimate
                                    chords, guitar, bass, and drum tabs
                                    from Ultimate-Guitar.com database.

                                    Type "ultimate guitar tabs" in Apple
                                    App Store's or Android Market's
                                    search to find the application.
Guitar 1=EGDGED   (Thurston, right)
Guitar 2=EEBBEF#  (Lee, left)


The other version didn't sound smooth in the intro so here's another version.

INTRO
   Gtr 1
D |--------------------------------|--------------------------------|
E |--------------------------------|--------------------------------|
G |--------------------------------|--------------------------------|
D |--------------------------------|--------------------------------|
G |--------------------------------|--------------------------------|
E |--------------------------------|--------------------------------|
  |
  |Gtr 2 (Fade in)
F#|<12>----------------------------|(<12>)--------------------------|
E |<12>----------------------------|(<12>)--------------------------|
B |<12>----------------------------|(<12>)--------------------------|
B |<12>----------------------------|(<12>)--------------------------|
E |<12>----------------------------|(<12>)--------------------------|
E |<12>----------------------------|(<12>)--------------------------|


   Gtr 1
D |--------5---------------7-------|--------2---------------4-------|
E |----3-------3-------5-------5---|----0-------0-------2-------2---|
G |0---------------0---------------|0---------------0---------------|
D |--------------------------------|--------------------------------|
G |--------------------------------|--------------------------------|
E |--------------------------------|--------------------------------|
  |
  |Gtr 2
F#|(<12>)--------------------------|(<12>)--------------------------|
E |(<12>)--------------------------|(<12>)--------------------------|
B |(<12>)--------------------------|(<12>)--------------------------|
B |(<12>)--------------------------|(<12>)--------------------------|
E |(<12>)--------------------------|(<12>)--------------------------|
E |(<12>)--------------------------|(<12>)--------------------------|


   Gtr 1
D |--------5---------------7-------|--------2---------------4-------|
E |----3-------3-------5-------5---|----0-------0-------2-------2---|
G |0---------------0---------------|0---------------0---------------|
D |--------------------------------|--------------------------------|
G |--------------------------------|--------------------------------|
E |--------------------------------|--------------------------------|
  |
  |Gtr 2
F#|(<12>)--------------------------|(<12>)--------------------------|
E |(<12>)--------------------------|(<12>)--------------------------|
B |(<12>)--------------------------|(<12>)--------------------------|
B |(<12>)--------------------------|(<12>)--------------------------|
E |(<12>)--------------------------|(<12>)--------------------------|
E |(<12>)--------------------------|(<12>)--------------------------|


   Gtr 1
D |--------5---------------7-------|--------2---------------4-------|
E |----3-------3-------5-------5---|----0-------0-------2-------2---|
G |0---------------0---------------|0---------------0---------------|
D |--------------------------------|--------------------------------|
G |--------------------------------|--------------------------------|
E |--------------------------------|--------------------------------|
  |
  |Gtr 2
F#|(<12>)--------------------------|(<12>)--------------------------|
E |(<12>)--------------------------|(<12>)--------------------------|
B |(<12>)--------------------------|(<12>)--------------------------|
B |(<12>)--------------------------|(<12>)--------------------------|
E |(<12>)--------------------------|(<12>)--------------------------|
E |(<12>)--------------------------|(<12>)--------------------------|


   Gtr 1
D |--------5---------------7-------|--------2---------------4---0---|
E |----3-------3-------5-------5---|----0-------0-------2-----------|
G |0---------------0---------------|0---------------0---------------|
D |--------------------------------|--------------------------------|
G |--------------------------------|--------------------------------|
E |--------------------------------|--------------------------------|
  |
  |Gtr 2
F#|(<12>)--------------------------|(<12>)--------------------------|
E |(<12>)--------------------------|(<12>)--------------------------|
B |(<12>)--------------------------|(<12>)--------------------------|
B |(<12>)--------------------------|(<12>)--------------------------|
E |(<12>)--------------------------|(<12>)--------------------------|
E |(<12>)--------------------------|(<12>)--------------------------|


   Gtr 1
D |--------------------------------|--------------------------------|
E |--------------------------------|--------------------------------|
G |--------------------------------|--------------------------------|
D |----------------9---------------|--------------------------------|
G |7/--9-----------9---------------|7----------/14------14--12------|
E |0---0---0---0---0---0---0---0---|0---0---0---0---0---0---0---0---|
  |
  |Gtr 2
F#|--------------------------------|--------------------------------|
E |--------------------------------|--------------------------------|
B |--------------------------------|--------------------------------|
B |--------------------------------|--------------------------------|
E |--------------------------------|--------------------------------|
E |--------------------------------|--------------------------------|


   Gtr 1
D |--------------------------------|--------------------------------|
E |--------------------------------|--------------------------------|
G |--------------------------------|--------------------------------|
D |----------------9---------------|--------------------------------|
G |7/--9-----------9---------------|7----------/14------14--12------|
E |0---0---0---0---0---0---0---0---|0---0---0---0---0---0---0---0---|
  |
  |Gtr 2
F#|--------------------------------|--------------------------------|
E |--------------------------------|--------------------------------|
B |10/-12--------------------------|------------10------10--10--10--|
B |10/-12--------------------------|------------10------10--10--10--|
E |10/-12--------------------------|------------10------10--10--10--|
E |0-------------------------------|--------------------------------|


   Gtr 1
D |--------------------------------|--------------------------------|
E |--------------------------------|--------------------------------|
G |--------------------------------|--------------------------------|
D |----------------9---------------|--------------------------------|
G |7/--9-----------9---------------|7----------/14------14--12------|
E |0---0---0---0---0---0---0---0---|0---0---0---0---0---0---0---0---|
  |
  |Gtr 2
F#|--------------------------------|--------------------------------|
E |--------------------------------|--------------------------------|
B |10/-12--------------------------|--------10--10------10--10--10--|
B |10/-12--------------------------|--------10--10------10--10--10--|
E |10/-12--------------------------|--------10--10------10--10--10--|
E |0-------------------------------|--------------------------------|


   Gtr 1
D |--------------------------------|--------------------------------|
E |--------------------------------|--------------------------------|
G |--------------------------------|--------------------------------|
D |----------------9---------------|--------------------------------|
G |7/--9-----------9---------------|7----------/14------14--12------|
E |0---0---0---0---0---0---0---0---|0---0---0---0---0---0---0---0---|
  |
  |Gtr 2
F#|--------------------------------|--------------------------------|
E |--------------------------------|--------------------------------|
B |10/-12--------------------------|(12)----------------------------|
B |10/-12--------------------------|(12)----------------------------|
E |10/-12--------------------------|(12)----------------------------|
E |0-------------------------------|(0)-----------------------------|





1ST VERSE: repeat x8
   Gtr 1
D |--------------------------------|--------------------------------|
E |--------------------------------|--------------------------------|
G |4---4---4---4/--7---7---7---7\--|2---2---2---2/--5---5---5---5---|
D |x---x---4---4/--x---x---7---7\--|x---x---2---2/--x---x---5---5---|
G |4---4---4---4/--7---7---7---7\--|2---2---2---2/--5---5---5---5---|
E |--------------------------------|--------------------------------|
  |
  |Gtr 2
F#|--------------------------------|--------------------------------|
E |7-------7---7/--10------10--10--|5---5---5/--8-------8---8---8---|
B |7-------7---7/--10------10--10--|5---5---5/--8-------8---8---8---|
B |--------------------------------|--------------------------------|
E |--------------------------------|--------------------------------|
E |--------------------------------|--------------------------------|





BRIDGE RIFF: repeat x2
   Gtr 1
D |--------------------------------|--------------------------------|
E |--------------------------------|--------------------------------|
G |9-------9---9---9---9---9---9---|9\--7---7---7-------7---7\------|
D |9-------9---9---9---9---9---9---|9\--7---7---7-------7---7\------|
G |9-------9---9---9---9---9---9---|9\--7---7---7-------7---7\------|
E |0-------0---0---0---0---0---0---|0-------------------------------|
  |
  |Gtr 2
F#|--------------------------------|--------------------------------|
E |--------------------12------12--|12------------------------------|
B |0---------------0---12------12--|12--10--10--10^^----10--10--10--|
B |0---------------0---0-------0---|0---10--10--10^^----10--10--10--|
E |0---------------0---0-------0---|0---10--10--10^^----10--10--10--|
E |0---------------0---0-------0---|0---10--10--10^^----10--10--10--|


   Gtr 1
D |--------------------------------|--------------------------------|
E |--------------------------------|--------------------------------|
G |2-----------2---2---2---2---2---|2---0-------0---0---0---0---0---|
D |2-----------2---2---2---2---2---|2---0-------0---0---0---0---0---|
G |2-----------2---2---2---2---2---|2---0-------0---0---0---0---0---|
E |--------------------------------|--------------------------------|
  |
  |Gtr 2
F#|--------------------------------|--------------------------------|
E |--------------------------------|----------------3---2~~~~~~~----|
B |5-------------------5---5---5---|5\--3-----------3---2~~~~~~~----|
B |5-------------------5---5---5---|5\--3-----------0---0-----------|
E |5-------------------5---5---5---|5\--3---------------------------|
E |5-------------------5---5---5---|5\--3---------------------------|


   Gtr 1
D |--------------------------------|--------------------------------|
E |--------------------------------|--------------------------------|
G |9-------9---9---9---9---9---9---|9\--7---7---7-------7---7\------|
D |9-------9---9---9---9---9---9---|9\--7---7---7-------7---7\------|
G |9-------9---9---9---9---9---9---|9\--7---7---7-------7---7\------|
E |0-------0---0---0---0---0---0---|0-------------------------------|
  |
  |Gtr 2
F#|--------------------------------|--------------------------------|
E |--------------------12------12--|12------------------------------|
B |0---------------0---12------12--|12--10--10--10^^----10--10--10--|
B |0---------------0---0-------0---|0---10--10--10^^----10--10--10--|
E |0---------------0---0-------0---|0---10--10--10^^----10--10--10--|
E |0---------------0---0-------0---|0---10--10--10^^----10--10--10--|


   Gtr 1
D |--------------------------------|--------------------------------|
E |--------------------------------|--------------------------------|
G |2-------2---2---2---2/--4-------|0-----------0---0---0---0---0---|
D |2-------2---2---2---2/--4-------|0-----------0---0---0---0---0---|
G |2-------2---2---2---2/--4-------|0-----------0---0---0---0---0---|
E |--------------------------------|--------------------------------|
  |
  |Gtr 2
F#|--------------------------------|--------------------------------|
E |--------------------------------|--------------------------------|
B |5-----------5---5---5/--7-------|3---------------3---3---3---3---|
B |5-----------5---5---5/--7-------|3---------------3---3---3---3---|
E |5-----------5---5---5/--7-------|3---------------3---3---3---3---|
E |5-----------5---5---5/--7-------|3---------------3---3---3---3---|





TURNAROUND
   Gtr 1
D |--------------------------------|--------------------------------|
E |--------------------------------|--------------------------------|
G |--------------------------------|--------------------------------|
D |--------------------------------|--------------------------------|
G |--------------------------------|------------------------12\-----|
E |0---0---0---0---0---0---0---0---|0---0---0---0---0---0-----------|
  |
  |Gtr 2
F#|--------------------------------|--------------------------------|
E |--------------------------------|--------------------------------|
B |0-------------------------------|(0)-----------------------------|
B |0-------------------------------|(0)-----------------------------|
E |0-------------------------------|(0)-----------------------------|
E |0-------------------------------|(0)-----------------------------|





2ND VERSE: repeat x8
   Gtr 1
D |4---4---4---4/--7---7---7---7\--|2---2---2---2/--5---5---5---5---|
E |x---x---x---x---x---x---x---x---|x---x---x---x---x---x---x---x---|
G |4---4---4---4/--7---7---7---7\--|2---2---2---2/--5---5---5---5---|
D |x---x---x---x---x---x---x---x---|x---x---x---x---x---x---x---x---|
G |4---4---4---4/--7---7---7---7\--|2---2---2---2/--5---5---5---5---|
E |--------------------------------|--------------------------------|
  |
  |Gtr 2
F#|--------------------------------|--------------------------------|
E |7-------7---7/--10------10--10--|5---5---5/--8-------8---8---8---|
B |7-------7---7/--10------10--10--|5---5---5/--8-------8---8---8---|
B |--------------------------------|--------------------------------|
E |--------------------------------|--------------------------------|
E |--------------------------------|--------------------------------|


BRIDGE RIFF: repeat x2

PRE-CHORUS SECTION
   Gtr 1
D |--------------------------------|--------------------------------|
E |--------------------------------|--------------------------------|
G |--------------------------------|--------------------------------|
D |9-------------------------------|----------------9---9---9---9---|
G |9-------------------------------|----------------9---9---9---9---|
E |0---0---0---0---0---0---0---0---|0---0---0---0---0---0---0---0---|
  |
  |Gtr 2
F#|--------------------------------|--------------------------------|
E |----------------------------12b`|14``````````````````````````````|
B |0-------------------------------|--------------------------------|
B |0-------------------------------|--------------------------------|
E |0-------------------------------|--------------------------------|
E |0-------------------------------|--------------------------------|


   Gtr 1
D |--------------------------------|--------------------------------|
E |--------------------------------|----------------12--11--10------|
G |--------------------------------|--------9---9---------------9---|
D |9---------------------------9---|----9---9---9-------------------|
G |9---------------------------9---|----9---9---9-------------------|
E |0---0---0---0---0---0---0---0---|----0---0---0-------------------|
  |
  |Gtr 2
F#|----------------------------15b`|17``````````````````````````````|
E |```````````````````r12----------|--------------------------------|
B |--------------------------------|--------------------------------|
B |--------------------------------|--------------------------------|
E |--------------------------------|--------------------------------|
E |--------------------------------|--------------------------------|


   Gtr 1
D |--------------------------------|--------------------------------|
E |----10--10--10--10--10--10--10--|10/-15--15--15--15--15--15--15--|
G |9---9---9---9---9---9---9---0---|0---0---0---0---0---0---0---0---|
D |--------9---9---9---9---9-------|--------------------------------|
G |--------------------9---9-------|--------------------------------|
E |--------------------------------|--------------------------------|
  |
  |Gtr 2
F#|```````````````````r15----------|18^^^^^^^^^^^^^^^^^^^^^^^^^^----|
E |--------------------------------|17^^^^^^^^^^^^^^^^^^^^^^^^^^----|
B |--------------------------------|18^^^^^^^^^^^^^^^^^^^^^^^^^^----|
B |--------------------------------|--------------------------------|
E |--------------------------------|--------------------------------|
E |--------------------------------|--------------------------------|


   Gtr 1
D |--------------------------------|--------------------------------|
E |15/-17--17--17--17--17--17--17--|17/-19--19--19--19--19--19--19--|
G |0---0---0---0---0---0---0---0---|0---0---0---0---0---0---0---0---|
D |--------------------------------|--------------------------------|
G |--------------------------------|--------------------------------|
E |--------------------------------|--------------------------------|
  |
  |Gtr 2
F#|20^^^^^^^^^^^^^^^^^^^^^^^^^^----|22^^^^^^^^^^^^^^^^^^^^^^^^^^----|
E |19^^^^^^^^^^^^^^^^^^^^^^^^^^----|21^^^^^^^^^^^^^^^^^^^^^^^^^^----|
B |20^^^^^^^^^^^^^^^^^^^^^^^^^^----|22^^^^^^^^^^^^^^^^^^^^^^^^^^----|
B |--------------------------------|--------------------------------|
E |--------------------------------|--------------------------------|
E |--------------------------------|--------------------------------|


   Gtr 1
D |21------21------21------21--21^^|----21^^21^^21^^21^^21^^21\-----|
E |19--19--19--19--19--19--19--19^^|----19^^19^^19^^19^^19^^19\-----|
G |0---0---0---0---0---0---0---0---|----0---0---0---0---0---0-------|
D |--------------------------------|--------------------------------|
G |--------------------------------|--------------------------------|
E |--------------------------------|--------------------------------|
  |
  |Gtr 2
F#|17^^17^^17^^17^^17^^17^^17^^17^^|17^^17^^17^^17^^17^^17^^17^^^^--|
E |16^^16^^16^^16^^16^^16^^16^^16^^|16^^16^^16^^16^^16^^16^^16^^^^--|
B |17^^17^^17^^17^^17^^17^^17^^17^^|17^^17^^17^^17^^17^^17^^17^^^^--|
B |--------------------------------|--------------------------------|
E |--------------------------------|--------------------------------|
E |--------------------------------|--------------------------------|





CHORUS: repeat x4
   Gtr 1
D |--------------------------------|--------------------------------|
E |--------------------------------|--------------------------------|
G |7/--9---x---x---9\------x---x---|x---x---x---14------14--12--12--|
D |7/--9---x---x---9\------x---x---|x---x---x---14------14--12--12--|
G |7/--9---x---x---9\------x---x---|x---x---x---14------14--12--12--|
E |0---0---0---0---0-------0---0---|0---0---0---0-------0---0---0---|
  |
  |Gtr 2
F#|--------------------------------|--------------------------------|
E |--------------------------------|--------------------------------|
B |10/-12--12--12--12\-----x---x---|x---x---x---5-------5---3-------|
B |10/-12--12--12--12\-----x---x---|x---x---x---5-------5---3-------|
E |0---0---0---0---0-------x---x---|x---x---x---5-------5---3-------|
E |0---0---0---0---0-------x---x---|x---x---x---5-------5---3-------|





GUITAR SOLO
   Gtr 1
D |0-h-2---2---2---2---------------|----------------9---9/--11~~----|
E |0---0---0---0---0----------/10--|----10~~----7---7---7/--9~~~----|
G |--------------------------------|--------------------------------|
D |--------------------------------|--------------------------------|
G |--------------------------------|--------------------------------|
E |--------------------------------|--------------------------------|
  |
  |Gtr 2
F#|--------------------------------|------------------------17^^----|
E |------------15b`17````--15b`17``|```````r15--16------16----------|
B |12------------------------------|--------------------------------|
B |12------------------------------|--------------------------------|
E |0-------------------------------|--------------------------------|
E |0-------------------------------|--------------------------------|


   Gtr 1
D |12/-14--14--14--14--------------|----------------14--14--12------|
E |10/-12--12--12--12--------------|--------------------------------|
G |--------------------------------|--------14--16------------------|
D |------------------------x-x-x-x-|12h-14--------------------------|
G |------------------------x-x-x-x-|--------------------------------|
E |--------------------------------|--------------------------------|
  |
  |Gtr 2
F#|20^^^^^^^^^^----20\---------12--|----12--12--12--12^^^^^^^^^^----|
E |19^^^^^^^^^^----19\---------11--|----11--11--11--11^^^^^^^^^^----|
B |--------------------------------|--------------------------------|
B |--------------------------------|--------------------------------|
E |--------------------------------|--------------------------------|
E |--------------------------------|--------------------------------|


   Gtr 1
D |11/-12--12--12--12--12--12--12--|12--12--12--12--12\-11--11\-----|
E |9-/-10--10--10--10--9---9---9---|9---10--10--10--10\-9---9-\-----|
G |--------------------------------|--------------------------------|
D |--------------------------------|--------------------------------|
G |--------------------------------|--------------------------------|
E |--------------------------------|--------------------------------|
  |
  |Gtr 2
F#|18^^^^^^^^^^----19^^^^^^----20^^|^^^^----21^^----22^^^^^^^^^^----|
E |17^^^^^^^^^^----18^^^^^^----19^^|^^^^----20^^----21^^^^^^^^^^----|
B |--------------------------------|--------------------------------|
B |--------------------------------|--------------------------------|
E |--------------------------------|--------------------------------|
E |--------------------------------|--------------------------------|


   Gtr 1
D |7/--9---9---9---9^^^^^^^^^^^^^^^|^^^^^^^^^^^^^^^^^^^^^^^^--------|
E |5/--7---7---7---7^^^^^^^^^^^^^^^|^^^^^^^^^^^^^^^^^^^^^^^^--------|
G |--------------------------------|--------------------------------|
D |--------------------------------|--------------------------------|
G |--------------------------------|--------------------------------|
E |--------------------------------|--------------------------------|
  |
  |Gtr 2
F#|22^^^^^^^^^^----22^^^^^^^^^^----|22^^22^^22^^22^^22^^^^^^^^^^----|
E |21^^^^^^^^^^----21^^^^^^^^^^----|21^^21^^21^^21^^21^^^^^^^^^^----|
B |--------------------------------|--------------------------------|
B |--------------------------------|--------------------------------|
E |--------------------------------|--------------------------------|
E |--------------------------------|--------------------------------|


   Gtr 1
D |--------------------------------|--------------------------------|
E |--------------------------------|--------------------------------|
G |9^^^^^^^^^^^^^^^^^^^^^^^^^^^^^^^|^^^^^^^^^^^^^^^^^^^^^^^^^^^^----|
D |9^^^^^^^^^^^^^^^^^^^^^^^^^^^^^^^|^^^^^^^^^^^^^^^^^^^^^^^^^^^^----|
G |9^^^^^^^^^^^^^^^^^^^^^^^^^^^^^^^|^^^^^^^^^^^^^^^^^^^^^^^^^^^^----|
E |0^^^^^^^^^^^^^^^^^^^^^^^^^^^^^^^|^^^^^^^^^^^^^^^^^^^^^^^^^^^^----|
  |
  |Gtr 2
F#|16^^^^^^^^^^^^^^^^^^^^^^^^^^^^^^|^^^^^^^^^^^^^^^^^^^^^^^^^^^^----|
E |15^^^^^^^^^^^^^^^^^^^^^^^^^^^^^^|^^^^^^^^^^^^^^^^^^^^^^^^^^^^----|
B |--------------------------------|--------------------------------|
B |--------------------------------|--------------------------------|
E |--------------------------------|--------------------------------|
E |--------------------------------|--------------------------------|


   Gtr 1
D |--------------------------------|--------------------------------|
E |--------------------------------|--------------------------------|
G |9^^^^^^^^^^^^^^^^^^^^^^^^^^^^^^^|^^^^^^^^^^^^^^^^^^^^^^^^^^^^----|
D |9^^^^^^^^^^^^^^^^^^^^^^^^^^^^^^^|^^^^^^^^^^^^^^^^^^^^^^^^^^^^----|
G |9^^^^^^^^^^^^^^^^^^^^^^^^^^^^^^^|^^^^^^^^^^^^^^^^^^^^^^^^^^^^----|
E |0^^^^^^^^^^^^^^^^^^^^^^^^^^^^^^^|^^^^^^^^^^^^^^^^^^^^^^^^^^^^----|
  |
  |Gtr 2
F#|16^^^^^^^^^^^^^^^^^^^^^^^^^^^^^^|^^^^^^^^^^^^^^^^^^^^^^^^^^^^----|
E |15^^^^^^^^^^^^^^^^^^^^^^^^^^^^^^|^^^^^^^^^^^^^^^^^^^^^^^^^^^^----|
B |--------------------------------|--------------------------------|
B |--------------------------------|--------------------------------|
E |--------------------------------|--------------------------------|
E |--------------------------------|--------------------------------|





BREAK SECTION
   Gtr 1
D |--------------------------------|--------------------------------|
E |7^^^^^^^^^^^^^^^^^^^^^^^^^^^^^^^|^^^^^^^^^^^^^^^^^^^^^^^^^^^^----|
G |--------------------------------|--------------------------------|
D |--------------------------------|--------------------------------|
G |--------------------------------|--------------------------------|
E |--------------------------------|--------------------------------|
  |
  |Gtr 2
F#|--------------------------------|--------------------------------|
E |--------------------------------|--------------------------------|
B |12--------------------------15--|--------------------------------|
B |12----------------------12--15--|----------------------------15--|
E |12------------------12--12--15--|--------------------15--15--15--|
E |0-------------------0---0---15--|--------------------15--15--15--|


   Gtr 1
D |21^^^^^^^^^^^^^^^^^^^^^^^^^^^^^^|^^^^^^^^^^^^^^^^^^^^----21------|
E |19^^^^^^^^^^^^^^^^^^^^^^^^^^^^^^|^^^^^^^^^^^^^^^^^^^^----19------|
G |--------------------------------|--------------------------------|
D |--------------------------------|--------------------------------|
G |--------------------------------|--------------------------------|
E |--------------------------------|--------------------------------|
  |
  |Gtr 2
F#|--------------------------------|--------------------------------|
E |--------------------------------|--------------------------------|
B |12--------------------------15--|--------------------------------|
B |12----------------------12--15--|--------------------------------|
E |12------------------12--12--15--|--------------------------------|
E |0-------------------0---0---15--|--------------------------------|


   Gtr 1
D |14------\--/----\--/----\--/----|\--/----\--/----\--/----\--/----|whammy
E |12-------\/------\/------\/-----|-\/------\/------\/------\/-----|
G |--------------------------------|--------------------------------|
D |--------------------------------|--------------------------------|
G |--------------------------------|--------------------------------|
E |--------------------------------|--------------------------------|
  |
  |Gtr 2
F#|--------------------------------|--------------------------------|
E |--------------------------------|--------------------------------|
B |12--------------------------15--|--------------------------------|
B |12----------------------12--15--|----------------------------15--|
E |12------------------12--12--15--|--------------------15--15--15--|
E |0-------------------0---0---15--|--------------------15--15--15--|


   Gtr 1
D |(14)----\--/----\--/----\--/----|\--/----\--/----\--/----\--/----|whammy
E |(12)-----\/------\/------\/-----|-\/------\/------\/------\/-----|
G |--------------------------------|--------------------------------|
D |--------------------------------|--------------------------------|
G |--------------------------------|--------------------------------|
E |--------------------------------|--------------------------------|
  |
  |Gtr 2
F#|--------------------------------|--------------------------------|
E |--------------------------------|--------------------------------|
B |12--------------------------15--|--------------------------------|
B |12----------------------12--15--|--------------------------------|
E |12------------------12--12--15--|--------------------------------|
E |0-------------------0---0---15--|--------------------------------|


   Gtr 1
D |(14)----\--/----\--/----\--/----|\--/----\--/----\--/----\--/----|whammy
E |(12)-----\/------\/------\/-----|-\/------\/------\/------\/-----|
G |--------------------------------|--------------------------------|
D |--------------------------------|--------------------------------|
G |--------------------------------|--------------------------------|
E |--------------------------------|--------------------------------|
  |
  |Gtr 2
F#|--------------------------------|--------------------------------|
E |9/--10--10--10--10\-9---9---9---|9/--10--10--10--10\-9---9---9---|
B |9/--10--10--10--10\-9---9---9---|9/--10--10--10--10\-9---9---9---|
B |--------------------------------|--------------------------------|
E |--------------------------------|--------------------------------|
E |--------------------------------|--------------------------------|


   Gtr 1
D |--------------------------------|--------------------------------|
E |--------------------------------|--------------------------------|
G |9-------\------/----------------|--------------------------------|
D |9--------\----/-----------------|--------------------------------|
G |9---------\--/------------------|--------------------------------|
E |0----------\/-------------------|--------------------------------|
  |
  |Gtr 2
F#|--------------------------------|--------------------------------|
E |9/--10--10--10--10\-9---9---9---|9/--10--10--10--10\-9---9---9---|
B |9/--10--10--10--10\-9---9---9---|9/--10--10--10--10\-9---9---9---|
B |--------------------------------|--------------------------------|
E |--------------------------------|--------------------------------|
E |--------------------------------|--------------------------------|


   Gtr 1
D |--------------------------------|--------------------------------|
E |--------------------------------|--------------------------------|
G |9-------------------------------|(9)-----------------------------|
D |9-------------------------------|(9)-----------------------------|
G |9-------------------------------|(9)-----------------------------|
E |0-------------------------------|(0)-----------------------------|
  |
  |Gtr 2
F#|--------------------------------|--------------------------------|
E |--------------------------------|--------------------------------|
B |12--------------------------15--|--------------------------------|
B |12----------------------12--15--|----------------------------15--|
E |12------------------12--12--15--|--------------------15--15--15--|
E |0-------------------0---0---15--|--------------------15--15--15--|


   Gtr 1
D |--------------------------------|--------------------------------|
E |--------------------------------|--------------------------------|
G |9-------------------------------|(9)-----------------------------|
D |9-------------------------------|(9)-----------------------------|
G |9-------------------------------|(9)-----------------------------|
E |0-------------------------------|(0)-----------------------------|
  |
  |Gtr 2
F#|--------------------------------|--------------------------------|
E |--------------------------------|--------------------------------|
B |12--------------------------15--|--------------------------------|
B |12----------------------12--15--|--------------------------------|
E |12------------------12--12--15--|--------------------------------|
E |0-------------------0---0---15--|--------------------------------|


   Gtr 1
D |11/-12--12--12--12\-11--11--11--|11/-12--12--12--12\-11--11--11--|
E |9-/-10--10--10--10\-9---9---9---|9-/-10--10--10--10\-9---9---9---|
G |--------------------------------|--------------------------------|
D |--------------------------------|--------------------------------|
G |--------------------------------|--------------------------------|
E |--------------------------------|--------------------------------|
  |
  |Gtr 2
F#|--------------------------------|--------------------------------|
E |9/--10--10--10--10\-9---9---9---|9/--10--10--10--10/-12--12--12--|
B |9/--10--10--10--10\-9---9---9---|9/--10--10--10--10/-12--12--12--|
B |--------------------------------|--------------------------------|
E |--------------------------------|--------------------------------|
E |--------------------------------|--------------------------------|


   Gtr 1
D |11/-12--12--12--12\-11--11--11--|11/-12--12--12--12\-11--11\-----|
E |9-/-10--10--10--10\-9---9---9---|9-/-10--10--10--10\-9---9-\-----|
G |--------------------------------|--------------------------------|
D |--------------------------------|--------------------------------|
G |--------------------------------|--------------------------------|
E |--------------------------------|--------------------------------|
  |
  |Gtr 2
F#|--------------------------------|--------------------------------|
E |12/-14--14--14--14\-12--12--12--|12\-10--10--10--10\-9---9\------|
B |12/-14--14--14--14\-12--12--12--|12\-10--10--10--10\-9---9\------|
B |--------------------------------|--------------------------------|
E |--------------------------------|--------------------------------|
E |--------------------------------|--------------------------------|





BUILD-UP SECTION
   Gtr 1
D |--------2-----------2---2---2---|----5-------5---5---5---5---5-5/|
E |----0---------------0---0---0---|3-------3---3---3---3---3---3-3/|
G |0-------------------0---0---0---|0-------0-------0---0---0---0-0-|
D |--------------------------------|--------------------------------|
G |--------------------------------|--------------------------------|
E |--------------------------------|--------------------------------|
  |
  |Gtr 2
F#|--------------------------------|--------------------------------|
E |0-------------------------------|0-------------------------------|
B |0-------------------------------|0-------------------------------|
B |0-------------------------------|0-------------------------------|
E |0-------------------------------|0-------------------------------|
E |--------------------------------|--------------------------------|


   Gtr 1
D |7---7---7---7---7---7---7---7-7/|9---9---9---9---9---9---9-------|
E |5---5---5---5---5---5---5---5-5/|7---7---7---7---7---7---7---7---|
G |0---0---0---0---0---0---0---0-0-|0---0---0---0---0---0---0---0---|
D |--------------------------------|--------------------------------|
G |--------------------------------|--------------------------------|
E |--------------------------------|--------------------------------|
  |
  |Gtr 2
F#|--------------------------------|--------------------------------|
E |5-------------------------------|7-------------------------------|
B |5-------------------------------|7-------------------------------|
B |5-------------------------------|7-------------------------------|
E |5-------------------------------|7-------------------------------|
E |--------------------------------|--------------------------------|


   Gtr 1
D |9---9---9-9-9\--7---7---7-7-7/--|9---9---9-9-9\--7---7---7-7-7/--|
E |7---7---7-7-7\--5---5---5-5-5/--|7---7---7-7-7\--5---5---5-5-5/--|
G |0---0---0-0-0---0---0---0-0-0---|0---0---0-0-0---0---0---0-0-0---|
D |--------------------------------|--------------------------------|
G |--------------------------------|--------------------------------|
E |--------------------------------|--------------------------------|
  |
  |Gtr 2
F#|--------------------------------|--------------------------------|
E |7-------------------------------|7-------------------------------|
B |7-------------------------------|7-------------------------------|
B |7-------------------------------|7-------------------------------|
E |7-------------------------------|7-------------------------------|
E |--------------------------------|--------------------------------|


   Gtr 1
D |12--12--121212\-11--11--111111/-|12--12--121212--12--12--12------|
E |10--10--101010\-9---9---9-9-9-/-|10--10--101010--10--10--10------|
G |0---0---0-0-0---0---0---0-0-0---|0---0---0-0-0---0---0---0---0---|
D |--------------------------------|--------------------------------|
G |--------------------------------|--------------------------------|
E |--------------------------------|--------------------------------|
  |
  |Gtr 2
F#|--------------------------------|--------------------------------|
E |5-------------------------------|5-------------------------------|
B |5-------------------------------|5-------------------------------|
B |5-------------------------------|5-------------------------------|
E |5-------------------------------|5-------------------------------|
E |--------------------------------|--------------------------------|


   Gtr 1
D |--------2-----------2---2---2---|----5-------5---5---5---5---5-5/|
E |0-------------------0---0---0---|3---3---3---3---3---3---3---3-3/|
G |--------------------0---0---0---|0-------0-------0---0---0---0-0-|
D |--------------------------------|--------------------------------|
G |--------------------------------|--------------------------------|
E |--------------------------------|--------------------------------|
  |
  |Gtr 2
F#|--------------------------------|--------------------------------|
E |0-------0-------0-------0-------|0-------0-------0---0---0---0---|
B |0-------0-------0-------0-------|0-------0-------0---0---0---0---|
B |0-------0-------0-------0-------|0-------0-------0---0---0---0---|
E |0-------0-------0-------0-------|0-------0-------0---0---0---0---|
E |--------------------------------|--------------------------------|


   Gtr 1
D |7---7---7---7---7---7---7---7---|9---9---9---9---9---9---9---9---|
E |5---5---5---5---5---5---5---5---|7---7---7---7---7---7---7---7---|
G |0---0---0---0---0---0---0---0---|0---0---0---0---0---0---0---0---|
D |--------------------------------|--------------------------------|
G |--------------------------------|--------------------------------|
E |--------------------------------|--------------------------------|
  |
  |Gtr 2
F#|--------------------------------|--------------------------------|
E |5---5---5---5---5---5---5---5---|7---7---7---7---7---7---7---7---|
B |5---5---5---5---5---5---5---5---|7---7---7---7---7---7---7---7---|
B |5---5---5---5---5---5---5---5---|7---7---7---7---7---7---7---7---|
E |5---5---5---5---5---5---5---5---|7---7---7---7---7---7---7---7---|
E |--------------------------------|--------------------------------|


   Gtr 1
D |9---9---9---9---9---9---9---9---|9---9---9---9---9---9---9---9---|
E |7---7---7---7---7---7---7---7---|7---7---7---7---7---7---7---7---|
G |0---0---0---0---0---0---0---0---|0---0---0---0---0---0---0---0---|
D |--------------------------------|--------------------------------|
G |--------------------------------|--------------------------------|
E |--------------------------------|--------------------------------|
  |
  |Gtr 2
F#|--------------------------------|--------------------------------|
E |10--10--10--10--10--10--10--10--|12--12--12--12--12--12--12--12--|
B |10--10--10--10--10--10--10--10--|12--12--12--12--12--12--12--12--|
B |10--10--10--10--10--10--10--10--|12--12--12--12--12--12--12--12--|
E |10--10--10--10--10--10--10--10--|12--12--12--12--12--12--12--12--|
E |--------------------------------|--------------------------------|


   Gtr 1
D |--------5---------------7-------|--------2---------------4-------|
E |----3-------3-------5-------5---|----0-------0-------2-------2---|
G |0---------------0---------------|0---------------0---------------|
D |--------------------------------|--------------------------------|
G |--------------------------------|--------------------------------|
E |--------------------------------|--------------------------------|
  |
  |Gtr 2
F#|--------------------------------|--------------------------------|
E |15--15--15--15--15--15--15--15--|15--15--15--15--15--15--15--15--|
B |15--15--15--15--15--15--15--15--|15--15--15--15--15--15--15--15--|
B |15--15--15--15--15--15--15--15--|15--15--15--15--15--15--15--15--|
E |15--15--15--15--15--15--15--15--|15--15--15--15--15--15--15--15--|
E |--------------------------------|--------------------------------|


   Gtr 1
D |--------5---------------7-------|--------2---------------4-------|
E |----3-------3-------5-------5---|----0-------0-------2-------2---|
G |0---------------0---------------|0---------------0---------------|
D |--------------------------------|--------------------------------|
G |--------------------------------|--------------------------------|
E |--------------------------------|--------------------------------|
  |
  |Gtr 2
F#|--------------------------------|--------------------------------|
E |15--15--15--15--15--15--15--15--|15--15--15--15--15--15--15--15--|
B |15--15--15--15--15--15--15--15--|15--15--15--15--15--15--15--15--|
B |15--15--15--15--15--15--15--15--|15--15--15--15--15--15--15--15--|
E |15--15--15--15--15--15--15--15--|15--15--15--15--15--15--15--15--|
E |--------------------------------|--------------------------------|


   Gtr 1
D |--------17--------------19------|--------14--------------16------|
E |----15------15------17------17--|----12------12------14------14--|
G |0---------------0---------------|0---------------0---------------|
D |--------------------------------|--------------------------------|
G |--------------------------------|--------------------------------|
E |--------------------------------|--------------------------------|
  |
  |Gtr 2
F#|--------------------------------|--------------------------------|
E |15--15--15--15--15--15--15--15--|15--15--15--15--15--15--15--15--|
B |15--15--15--15--15--15--15--15--|15--15--15--15--15--15--15--15--|
B |15--15--15--15--15--15--15--15--|15--15--15--15--15--15--15--15--|
E |15--15--15--15--15--15--15--15--|15--15--15--15--15--15--15--15--|
E |--------------------------------|--------------------------------|


   Gtr 1
D |--------17--------------19------|--------14--------------16------|
E |----15------15------17------17--|----12------12------14------14--|
G |0---------------0---------------|0---------------0---------------|
D |--------------------------------|--------------------------------|
G |--------------------------------|--------------------------------|
E |--------------------------------|--------------------------------|
  |
  |Gtr 2
F#|--------------------------------|--------------------------------|
E |15--15--15--15--15--15--15--15--|15--15--15--15--15--15--15--15--|
B |15--15--15--15--15--15--15--15--|15--15--15--15--15--15--15--15--|
B |15--15--15--15--15--15--15--15--|15--15--15--15--15--15--15--15--|
E |15--15--15--15--15--15--15--15--|15--15--15--15--15--15--15--15--|
E |--------------------------------|--------------------------------|


   Gtr 1
D |17--17--17--17--19--19--19--19--|14141414141414141616161616161616|
E |15--15--15--15--17--17--17--17--|12121212121212121414141414141414|
G |0---0---0---0---0---0---0---0---|0-0-0-0-0-0-0-0-0-0-0-0-0-0-0-0-|
D |--------------------------------|--------------------------------|
G |--------------------------------|--------------------------------|
E |--------------------------------|--------------------------------|
  |
  |Gtr 2
F#|--------------------------------|--------------------------------|
E |15--15--15--15--15--15--15--15--|15--15--15--15--15--15--15--15--|
B |15--15--15--15--15--15--15--15--|15--15--15--15--15--15--15--15--|
B |15--15--15--15--15--15--15--15--|15--15--15--15--15--15--15--15--|
E |15--15--15--15--15--15--15--15--|15--15--15--15--15--15--15--15--|
E |--------------------------------|--------------------------------|


   Gtr 1
D |17171717171717171919191919191919|14141414141414141616161616161616|
E |15151515151515151717171717171717|12121212121212121414141414141414|
G |0-0-0-0-0-0-0-0-0-0-0-0-0-0-0-0-|0-0-0-0-0-0-0-0-0-0-0-0-0-0-0-0-|
D |--------------------------------|--------------------------------|
G |--------------------------------|--------------------------------|
E |--------------------------------|--------------------------------|
  |
  |Gtr 2
F#|--------------------------------|--------------------------------|
E |15--15--15--15--15--15--15--15--|15--15--15--15--15--15--15--15--|
B |15--15--15--15--15--15--15--15--|15--15--15--15--15--15--15--15--|
B |15--15--15--15--15--15--15--15--|15--15--15--15--15--15--15--15--|
E |15--15--15--15--15--15--15--15--|15--15--15--15--15--15--15--15--|
E |--------------------------------|--------------------------------|


   Gtr 1
D |17171717171717171919191919191919|14141414141414141616161616161616|
E |15151515151515151717171717171717|12121212121212121414141414141414|
G |0-0-0-0-0-0-0-0-0-0-0-0-0-0-0-0-|0-0-0-0-0-0-0-0-0-0-0-0-0-0-0-0-|
D |--------------------------------|--------------------------------|
G |--------------------------------|--------------------------------|
E |--------------------------------|--------------------------------|
  |
  |Gtr 2
F#|--------------------------------|--------------------------------|
E |15--15--15--15--15--15--15--15--|15--15--15--15--15--15--15--15--|
B |15--15--15--15--15--15--15--15--|15--15--15--15--15--15--15--15--|
B |15--15--15--15--15--15--15--15--|15--15--15--15--15--15--15--15--|
E |15--15--15--15--15--15--15--15--|15--15--15--15--15--15--15--15--|
E |--------------------------------|--------------------------------|





OUTRO
   Gtr 1
D |9-------9-----------9---9---9---|----9-----------9---9---9-------|
E |7---7---7---7---7---7---7---7---|7---7---7---7---7---7---7---7---|
G |0---0---0---0---0---0---0---0---|0---0---0---0---0---0---0---0---|
D |0-------------------------------|--------------------------------|
G |0-------------------------------|--------------------------------|
E |--------------------------------|--------------------------------|
  |
  |Gtr 2
F#|----------------17--------------|----------------17--------------|
E |----15--17----------17------17--|----15--17----------17------17--|
B |15----------15----------15------|15----------15----------15------|
B |--------------------------------|--------------------------------|
E |--------------------------------|--------------------------------|
E |--------------------------------|--------------------------------|


   Gtr 1
D |12------------------------------|----12--------------------------|
E |10--10--10--10--10--10--10--10--|10--10--10--10--10--10--10--10--|
G |0---0---0---0---0---0---0---0---|0---0---0---0---0---0---0---0---|
D |--------------------------------|--------------------------------|
G |--------------------------------|--------------------------------|
E |--------------------------------|--------------------------------|
  |
  |Gtr 2
F#|----------------17--------------|----------------17--------------|
E |----15--17----------17------17--|----15--17----------17------17--|
B |15----------15----------15------|15----------15----------15------|
B |--------------------------------|--------------------------------|
E |--------------------------------|--------------------------------|
E |--------------------------------|--------------------------------|


   Gtr 1
D |----------------12--------------|------------------------12------|
E |10--10--10--10--10--10--10--10--|10--10--10--10--10--10--10--10--|
G |0---0---0---0---0---0---0---0---|0---0---0---0---0---0---0---0---|
D |--------------------------------|--------------------------------|
G |--------------------------------|--------------------------------|
E |--------------------------------|--------------------------------|
  |
  |Gtr 2
F#|----------------17--------------|----------------17--------------|
E |----15--17----------17------17--|----15--17----------17------17--|
B |15----------15----------15------|15----------15----------15------|
B |--------------------------------|--------------------------------|
E |--------------------------------|--------------------------------|
E |--------------------------------|--------------------------------|


   Gtr 1
D |----------------12--------------|--------12----------------------|
E |10--10--10--10--10--10--10--10--|10--10--10--10--10--10--10--10--|
G |0---0---0---0---0---0---0---0---|0---0---0---0---0---0---0---0---|
D |--------------------------------|--------------------------------|
G |--------------------------------|--------------------------------|
E |--------------------------------|--------------------------------|
  |
  |Gtr 2
F#|----------------17--------------|----------------17--------------|
E |----15--17----------17------17--|----15--17----------17------17--|
B |15----------15----------15------|15----------15----------15------|
B |--------------------------------|--------------------------------|
E |--------------------------------|--------------------------------|
E |--------------------------------|--------------------------------|


   Gtr 1
D |14------------------------------|------------14--14------14------|
E |12--12--12--12--12--12--12--12--|12--12--12--12--12--12--12--12--|
G |0---0---0---0---0---0---0---0---|0---0---0---0---0---0---0---0---|
D |--------------------------------|--------------------------------|
G |--------------------------------|--------------------------------|
E |--------------------------------|--------------------------------|
  |
  |Gtr 2
F#|----------------17--------------|----------------17--------------|
E |----15--17----------17------17--|----15--17----------17------17--|
B |15----------15----------15------|15----------15----------15------|
B |--------------------------------|--------------------------------|
E |--------------------------------|--------------------------------|
E |--------------------------------|--------------------------------|


   Gtr 1
D |14\-12--------------------------|----------------12--------------|
E |12\-10--10--10--10--10--10--10--|10--10--10--10--10--10--10--10--|
G |0---0---0---0---0---0---0---0---|0---0---0---0---0---0---0---0---|
D |--------------------------------|--------------------------------|
G |--------------------------------|--------------------------------|
E |--------------------------------|--------------------------------|
  |
  |Gtr 2
F#|----------------17--------------|----------------17--------------|
E |----15--17----------17------17--|----15--17----------17------17--|
B |15----------15----------15------|15----------15----------15------|
B |--------------------------------|--------------------------------|
E |--------------------------------|--------------------------------|
E |--------------------------------|--------------------------------|


   Gtr 1
D |9-----------9-------------------|----9-----------9---------------|
E |7---7---7---7---7---7---7---7---|7---7---7---7---7---7---7---7---|
G |0---0---0---0---0---0---0---0---|0---0---0---0---0---0---0---0---|
D |--------------------------------|--------------------------------|
G |--------------------------------|--------------------------------|
E |--------------------------------|--------------------------------|
  |
  |Gtr 2
F#|----------------17--------------|----------------17--------------|
E |----15--17----------17------17--|----15--17----------17------17--|
B |15----------15----------15------|15----------15----------15------|
B |--------------------------------|--------------------------------|
E |--------------------------------|--------------------------------|
E |--------------------------------|--------------------------------|


   Gtr 1
D |7---------------------------7---|----7-----------7---------------|
E |5---5---5---5---5---5---5---5---|5---5---5---5---5-------5-------|
G |0---0---0---0---0---0---0---0---|0---0---0---0-------0-------0---|
D |--------------------------------|--------------------------------|
G |--------------------------------|--------------------------------|
E |--------------------------------|--------------------------------|
  |
  |Gtr 2
F#|----------------17--------------|----------------17--------------|
E |----15--17----------17------17--|----15--17----------17------17--|
B |15----------15----------15------|15----------15----------15------|
B |--------------------------------|--------------------------------|
E |--------------------------------|--------------------------------|
E |--------------------------------|--------------------------------|


   Gtr 1
D |-----5--------------------------|(5)-----------------------------|
E |----3---------------------------|(3)-----------------------------|
G |---0----------------------------|(0)-----------------------------|
D |--0-----------------------------|(0)-----------------------------|
G |-0------------------------------|(0)-----------------------------|
E |3-------------------------------|(3)-----------------------------|
  |
  |Gtr 2
F#|--------------------------------|--------------------------------|
E |15------------------------------|(15)----------------------------|
B |15------------------------------|(15)----------------------------|
B |--------------------------------|--------------------------------|
E |--------------------------------|--------------------------------|
E |--------------------------------|--------------------------------|





comments
We did not receive enough feedback on this tab! Please rate:
print report bad tab
1 2 3 4 5
I want to post or [tab]
guest
You may want to rate the tab now too:
select rating
Please do not post tabs as comments. Select "correction" instead!