Oops, an error
Loading. Please wait.

Dude Ranch Nurse Tab

955 views 1 this week
no commentswrite comment
1 2 3 4 5
please rate
Autoscroll
+/-
esc
set tempo
stop
Contributor
Difficulty
intermediate
WARNING: You are trying to view
                                    content from Ultimate-Guitar.com
                                    in an unauthorized application,
                                    which is prohibited.

                                    Please use an official Ultimate
                                    Guitar Tabs application for iPhone,
                                    iPad or Android to access legitimate
                                    chords, guitar, bass, and drum tabs
                                    from Ultimate-Guitar.com database.

                                    Type "ultimate guitar tabs" in Apple
                                    App Store's or Android Market's
                                    search to find the application.
DUDE RANCH NURSE

Guitar 1=GGDDD#D# (Thurston)
Guitar 2=GGDDD#D# (Kim)
Guitar 3=CGDCGD   (Lee)


INTRO (harmonics)
   Gtr 1
D#|<5>---------------------|(<5>)-------|
D#|<5>---------------------|(<5>)-------|
D |<5>---------------------|(<5>)-------|
D |<5>---------------------|(<5>)-------|
G |------------------------|------------|
G |------------------------|------------|
  |
  |Gtr 2
D#|------------------------|------------|
D#|------------------------|------------|
D |------------------------|------------|
D |7-----------------------|(7)---------|
G |7-----------------------|(7)---------|
G |7-----------------------|(7)---------|
  |
  |Gtr 3
D |------------------------|------------|
G |------------------------|------------|
C |------------------------|------------|
D |7-----------------------|(7)---------|
G |7-----------------------|(7)---------|
C |7-----------------------|(7)---------|





1ST VERSE
   Gtr 1
D#|------------------------|------------|------------------------|--------------------0000|
D#|------------------------|------------|------------------------|--------------------0000|
D |4-----4--x--888---8--x--|11-11-11-11-|15----15----15x15-15----|15x15-15----15x15-15----|
D |4-----4--x--888---8--x--|11-11-11-11-|15----15----15x15-15----|15x15-15----15x15-15----|
G |4-----4--x--888---8--x--|11-11-11-11-|15----15----15x15-15----|15x15-15----15x15-15----|
G |4-----4--x--888---8--x--|11-11-11-11-|15----15----15x15-15----|15x15-15----15x15-15----|
  |
  |Gtr 2
D#|------------------------|------------|------------------------|--------------------0000|
D#|------------------------|------------|------------------------|--------------------0000|
D |------------------------|------------|------------------------|------------------------|
D |4-----4-----x--8--8--x--|11-11-11-x--|3-----3-----3--3--3-----|3--3--3-----3--3--3-----|
G |4-----4-----x--8--8--x--|11-11-11-x--|3-----3-----3--3--3-----|3--3--3-----3--3--3-----|
G |4-----4-----x--8--8--x--|11-11-11-x--|3-----3-----3--3--3-----|3--3--3-----3--3--3-----|
  |
  |Gtr 3
D |------------------------|------------|------------------------|------------------------|
G |------------------------|------------|------10~~~~~~~~--10h11p|10~~~~~~~~~~~~~~--10\---|
C |------6~~~~-------10~~~-|------13~~~-|------------------------|------------------------|
D |------4~~~~-------8~~~~-|------11~~~-|------------------------|------------------------|
G |------------------------|------------|------------------------|------------------------|
C |------------------------|------------|------------------------|------------------------|



   Gtr 1
D#|------------------------|------------|------------------------|--------------------0000|
D#|------------------------|------------|------------------------|--------------------0000|
D |4-----4--x--888---8--x--|11-11-11-11-|15----15----15x15-15----|15x15-15----15x15-15----|
D |4-----4--x--888---8--x--|11-11-11-11-|15----15----15x15-15----|15x15-15----15x15-15----|
G |4-----4--x--888---8--x--|11-11-11-11-|15----15----15x15-15----|15x15-15----15x15-15----|
G |4-----4--x--888---8--x--|11-11-11-11-|15----15----15x15-15----|15x15-15----15x15-15----|
  |
  |Gtr 2
D#|------------------------|------------|------------------------|--------------------0000|
D#|------------------------|------------|------------------------|--------------------0000|
D |------------------------|------------|------------------------|------------------------|
D |4-----4-----x--8--8--x--|11-11-11-x--|3-----3-----3--3--3-----|3--3--3-----3--3--3-----|
G |4-----4-----x--8--8--x--|11-11-11-x--|3-----3-----3--3--3-----|3--3--3-----3--3--3-----|
G |4-----4-----x--8--8--x--|11-11-11-x--|3-----3-----3--3--3-----|3--3--3-----3--3--3-----|
  |
  |Gtr 3
D |------------------------|------------|------------------------|------------------------|
G |------------------------|------------|------10~~--10h11p10-11/|13----13/15~~~~~--15\---|
C |------6~~~~-------10~~~-|------13~~~-|------------------------|------------------------|
D |------4~~~~-------8~~~~-|------11~~~-|------------------------|------------------------|
G |------------------------|------------|------------------------|------------------------|
C |------------------------|------------|------------------------|------------------------|



   Gtr 1
D#|------------------------|------------|------------------------|--------------------0000|
D#|------------------------|------------|------------------------|--------------------0000|
D |4-----4--x--888---8--x--|11-11-11-11-|15----15----15x15-15----|15x15-15----15x15-15----|
D |4-----4--x--888---8--x--|11-11-11-11-|15----15----15x15-15----|15x15-15----15x15-15----|
G |4-----4--x--888---8--x--|11-11-11-11-|15----15----15x15-15----|15x15-15----15x15-15----|
G |4-----4--x--888---8--x--|11-11-11-11-|15----15----15x15-15----|15x15-15----15x15-15----|
  |
  |Gtr 2
D#|------------------------|------------|------------------------|--------------------0000|
D#|------------------------|------------|------------------------|--------------------0000|
D |------------------------|------------|------------------------|------------------------|
D |4-----4-----x--8--8--x--|11-11-11-x--|3-----3-----3--3--3-----|3--3--3-----3--3--3-----|
G |4-----4-----x--8--8--x--|11-11-11-x--|3-----3-----3--3--3-----|3--3--3-----3--3--3-----|
G |4-----4-----x--8--8--x--|11-11-11-x--|3-----3-----3--3--3-----|3--3--3-----3--3--3-----|
  |
  |Gtr 3
D |------------------------|------------|------------------------|------------------------|
G |------------------------|------------|------10~~~~~~~~--10h11p|10~~~~~~~~~~~~~~--10\---|
C |------6~~~~-------10~~~-|------13~~~-|------------------------|------------------------|
D |------4~~~~-------8~~~~-|------11~~~-|------------------------|------------------------|
G |------------------------|------------|------------------------|------------------------|
C |------------------------|------------|------------------------|------------------------|



   Gtr 1
D#|------------------------|------------|------------------------|--------------------0000|
D#|------------------------|------------|------------------------|--------------------0000|
D |4-----4--x--888---8--x--|11-11-11-11-|15----15----15x15-15----|15x15-15----15x15-15----|
D |4-----4--x--888---8--x--|11-11-11-11-|15----15----15x15-15----|15x15-15----15x15-15----|
G |4-----4--x--888---8--x--|11-11-11-11-|15----15----15x15-15----|15x15-15----15x15-15----|
G |4-----4--x--888---8--x--|11-11-11-11-|15----15----15x15-15----|15x15-15----15x15-15----|
  |
  |Gtr 2
D#|------------------------|------------|------------------------|--------------------0000|
D#|------------------------|------------|------------------------|--------------------0000|
D |------------------------|------------|------------------------|------------------------|
D |4-----4-----x--8--8--x--|11-11-11-x--|3-----3-----3--3--3-----|3--3--3-----3--3--3-----|
G |4-----4-----x--8--8--x--|11-11-11-x--|3-----3-----3--3--3-----|3--3--3-----3--3--3-----|
G |4-----4-----x--8--8--x--|11-11-11-x--|3-----3-----3--3--3-----|3--3--3-----3--3--3-----|
  |
  |Gtr 3
D |------------------------|------------|------------------------|------------------------|
G |------------------------|------------|------10~~--10h11p10-11/|15~~~~~~~~--15-15-15\---|
C |------6~~~~-------10~~~-|------13~~~-|------------------------|------------------------|
D |------4~~~~-------8~~~~-|------11~~~-|------------------------|------------------------|
G |------------------------|------------|------------------------|------------------------|
C |------------------------|------------|------------------------|------------------------|



   Gtr 1
D#|------------------------|------------|------------------------|--------------------0000|
D#|------------------------|------------|------------------------|--------------------0000|
D |4-----4--x--888---8--x--|11-11-11-11-|15----15----15x15-15----|15x15-15----15x15-15----|
D |4-----4--x--888---8--x--|11-11-11-11-|15----15----15x15-15----|15x15-15----15x15-15----|
G |4-----4--x--888---8--x--|11-11-11-11-|15----15----15x15-15----|15x15-15----15x15-15----|
G |4-----4--x--888---8--x--|11-11-11-11-|15----15----15x15-15----|15x15-15----15x15-15----|
  |
  |Gtr 2
D#|------------------------|------------|------------------------|--------------------0000|
D#|------------------------|------------|------------------------|--------------------0000|
D |------------------------|------------|------------------------|------------------------|
D |4-----4-----x--8--8--x--|11-11-11-x--|3-----3-----3--3--3-----|3--3--3-----3--3--3-----|
G |4-----4-----x--8--8--x--|11-11-11-x--|3-----3-----3--3--3-----|3--3--3-----3--3--3-----|
G |4-----4-----x--8--8--x--|11-11-11-x--|3-----3-----3--3--3-----|3--3--3-----3--3--3-----|
  |
  |Gtr 3
D |------------------------|------------|15----15---x15-x--15---x|15-x--15---x15-x--15----|
G |------------------------|------------|15----15---x15-x--15---x|15-x--15---x15-x--15----|
C |------------------------|------------|------------------------|------------------------|
D |------------------------|------------|------------------------|------------------------|
G |------------------------|------------|------------------------|------------------------|
C |------------------------|------------|------------------------|------------------------|



   Gtr 1
D#|------------------------|------------|------------------------|------------------------|
D#|------------------------|------------|------------------------|------------------------|
D |4-----4--x--888---8--x--|11-11-11-11-|15----15----15x15-15----|15x15-15----15x15-15----|
D |4-----4--x--888---8--x--|11-11-11-11-|15----15----15x15-15----|15x15-15----15x15-15----|
G |4-----4--x--888---8--x--|11-11-11-11-|15----15----15x15-15----|15x15-15----15x15-15----|
G |4-----4--x--888---8--x--|11-11-11-11-|15----15----15x15-15----|15x15-15----15x15-15----|
  |
  |Gtr 2
D#|------------------------|------------|------------------------|---------------------0--|
D#|------------------------|------------|------------------------|---------------------0--|
D |------------------------|------------|------------------------|------------------------|
D |4-----4-----x--8--8--x--|11-11-11-x--|3-----3-----3--3--3-----|3--3--3-----3--3--3-----|
G |4-----4-----x--8--8--x--|11-11-11-x--|3-----3-----3--3--3-----|3--3--3-----3--3--3-----|
G |4-----4-----x--8--8--x--|11-11-11-x--|3-----3-----3--3--3-----|3--3--3-----3--3--3-----|
  |
  |Gtr 3
D |------------------------|------------|15----15---x15-x--15---x|15-x--15---x15-x--15----|
G |------------------------|------------|15----15---x15-x--15---x|15-x--15---x15-x--15----|
C |------------------------|------------|------------------------|------------------------|
D |------------------------|------------|------------------------|------------------------|
G |------------------------|------------|------------------------|------------------------|
C |------------------------|------------|------------------------|------------------------|





1ST BREAK SECTION
   Gtr 1
D#|17-17-17--17171717171717|17-17-17--17171717171717|13-13-13--13131313131313|13-13-13--13131313131313|
D#|17-17-17--17171717171717|17-17-17--17171717171717|13-13-13--13131313131313|13-13-13--13131313131313|
D |------------------------|------------------------|------------------------|------------------------|
D |------------------------|------------------------|------------------------|------------------------|
G |------------------------|------------------------|------------------------|------------------------|
G |------------------------|------------------------|------------------------|------------------------|
  |
  |Gtr 2
D#|------------------------|------------------------|------------------------|------------------------|
D#|------------------------|------------------------|------------------------|------------------------|
D |14----14----14-14----14-|14----14----14-14----14-|12----12----12-12----12-|12----12----12-12----12-|
D |12----12----12-12----12-|12----12----12-12----12-|10----10----10-10----10-|10----10----10-10----10-|
G |------------------------|------------------------|------------------------|------------------------|
G |------------------------|------------------------|------------------------|------------------------|
  |
  |Gtr 3
D |0-----0-----0--0-----0--|---0--0-----0--0--0-----|0-----0-----0--0-----0--|---0--0-----0--0--0-----|
G |7-----7-----7--7-----7--|---7--7-----7--7--7-----|3-----3-----3--3-----3--|---3--3-----3--3--3-----|
C |7-----7-----7--7-----7--|---7--7-----7--7--7-----|3-----3-----3--3-----3--|---3--3-----3--3--3-----|
D |0-----0-----0--0-----0--|---0--0-----0--0--0-----|0-----0-----0--0-----0--|---0--0-----0--0--0-----|
G |------------------------|------------------------|------------------------|------------------------|
C |------------------------|------------------------|------------------------|------------------------|



   Gtr 1
D#|9--9--9---9-9-9-9-9-9-9-|9--9--9---9-9-9-9-9-9-9-|14-14-14--14141414141414|14-14-14--14141414141414|
D#|9--9--9---9-9-9-9-9-9-9-|9--9--9---9-9-9-9-9-9-9-|14-14-14--14141414141414|14-14-14--14141414141414|
D |------------------------|------------------------|------------------------|------------------------|
D |------------------------|------------------------|------------------------|------------------------|
G |------------------------|------------------------|------------------------|------------------------|
G |------------------------|------------------------|------------------------|------------------------|
  |
  |Gtr 2
D#|------------------------|------------------------|------------------------|------------------------|
D#|------------------------|------------------------|------------------------|------------------------|
D |14----14----14-14----14-|14----14----14-14----14-|10----10----10-10----10-|10----10----10-10----10-|
D |12----12----12-12----12-|12----12----12-12----12-|8-----8-----8--8-----8--|8-----8-----8--8-----8--|
G |------------------------|------------------------|------------------------|------------------------|
G |------------------------|------------------------|------------------------|------------------------|
  |
  |Gtr 3
D |0-----0-----0--0-----0--|---0--0-----0--0--0-----|0-----0-----0--0-----0--|---0--0-----0--0--0-----|
G |4-----4-----4--4-----4--|---4--4-----4--4--4-----|10----10----10-10----10-|---10-10----10-10-10----|
C |4-----4-----4--4-----4--|---4--4-----4--4--4-----|10----10----10-10----10-|---10-10----10-10-10----|
D |0-----0-----0--0-----0--|---0--0-----0--0--0-----|0-----0-----0--0-----0--|---0--0-----0--0--0-----|
G |------------------------|------------------------|------------------------|------------------------|
C |------------------------|------------------------|------------------------|------------------------|



   Gtr 1
D#|4--4--4---4-4-4-4-4-4-4-|4--4--4---4-4-4-4-4-4-4-|4--4--4---4-4-4-4-4-4-4-|4--4--4---4-4-4-4-4-4-4-|
D#|4--4--4---4-4-4-4-4-4-4-|4--4--4---4-4-4-4-4-4-4-|4--4--4---4-4-4-4-4-4-4-|4--4--4---4-4-4-4-4-4-4-|
D |------------------------|------------------------|0--0--0---0-0-0-0-0-0-0-|0--0--0---0-0-0-0-0-0-0-|
D |------------------------|------------------------|----------0-0-0-0-0-0-0-|0--0--0---0-0-0-0-0-0-0-|
G |------------------------|------------------------|------------------------|------------------------|
G |------------------------|------------------------|------------------------|------------------------|
  |
  |Gtr 2
D#|------------------------|------------------------|------------------------|------------0--0--0--0--|
D#|------------------------|------------------------|------------------------|0--0--0--0--0--0--0--0--|
D |0--0--0--0--0--0--0--0--|0--0--0--0--0--0--0--0--|0--0--0--0--0--0--0--0--|0--0--0--0--0--0--0--0--|
D |0--0--0--0--0--0--0--0--|0--0--0--0--0--0--0--0--|0--0--0--0--0--0--0--0--|0--0--0--0--0--0--0--0--|
G |0--0--0--0--0--0--0--0--|0--0--0--0--0--0--0--0--|0--0--0--0--0--0--0--0--|0--0--0--0--0--0--0--0--|
G |0--0--0--0--0--0--0--0--|0--0--0--0--0--0--0--0--|0--0--0--0--0--0--0--0--|0--0--0--0--0--0--0--0--|
  |
  |Gtr 3
D |------------------------|------------------------|------------------------|------------------------|
G |------------------------|------------------------|------------------------|------------------------|
C |---------9--------11----|---12-------11----------|------------------------|3~~3~~3~~3~~3~~3~~3~~3--|
D |------7--------9--------|10-------9--------------|---------0--0--0--0--0--|0--0--0--0--0--0--0--0--|
G |0-----------------------|------------------------|0--0--0--0--0--0--0--0--|0--0--0--0--0--0--0--0--|
C |------------------------|------------------------|------------------------|------------------------|





2ND VERSE
   Gtr 1
D#|------------------------|------------|------------------------|--------------------0000|
D#|------------------------|------------|------------------------|--------------------0000|
D |4-----4--x--888---8--x--|11-11-11-11-|15----15----15x15-15----|15x15-15----15x15-15----|
D |4-----4--x--888---8--x--|11-11-11-11-|15----15----15x15-15----|15x15-15----15x15-15----|
G |4-----4--x--888---8--x--|11-11-11-11-|15----15----15x15-15----|15x15-15----15x15-15----|
G |4-----4--x--888---8--x--|11-11-11-11-|15----15----15x15-15----|15x15-15----15x15-15----|
  |
  |Gtr 2
D#|------------------------|------------|------------------------|--------------------0000|
D#|------------------------|------------|------------------------|--------------------0000|
D |------------------------|------------|------------------------|------------------------|
D |4-----4-----x--8--8--x--|11-11-11-x--|3-----3-----3--3--3-----|3--3--3-----3--3--3-----|
G |4-----4-----x--8--8--x--|11-11-11-x--|3-----3-----3--3--3-----|3--3--3-----3--3--3-----|
G |4-----4-----x--8--8--x--|11-11-11-x--|3-----3-----3--3--3-----|3--3--3-----3--3--3-----|
  |
  |Gtr 3
D |------------------------|------------|15----15---x15-x--15---x|15-x--15---x15-x--15----|
G |------------------------|------------|15----15---x15-x--15---x|15-x--15---x15-x--15----|
C |------------------------|------------|------------------------|------------------------|
D |------------------------|------------|------------------------|------------------------|
G |------------------------|------------|------------------------|------------------------|
C |------------------------|------------|------------------------|------------------------|



   Gtr 1
D#|------------------------|------------|------------------------|--------------------0000|
D#|------------------------|------------|------------------------|--------------------0000|
D |4-----4--x--888---8--x--|11-11-11-11-|15----15----15x15-15----|15x15-15----15x15-15----|
D |4-----4--x--888---8--x--|11-11-11-11-|15----15----15x15-15----|15x15-15----15x15-15----|
G |4-----4--x--888---8--x--|11-11-11-11-|15----15----15x15-15----|15x15-15----15x15-15----|
G |4-----4--x--888---8--x--|11-11-11-11-|15----15----15x15-15----|15x15-15----15x15-15----|
  |
  |Gtr 2
D#|------------------------|------------|------------------------|--------------------0000|
D#|------------------------|------------|------------------------|--------------------0000|
D |------------------------|------------|------------------------|------------------------|
D |4-----4-----x--8--8--x--|11-11-11-x--|3-----3-----3--3--3-----|3--3--3-----3--3--3-----|
G |4-----4-----x--8--8--x--|11-11-11-x--|3-----3-----3--3--3-----|3--3--3-----3--3--3-----|
G |4-----4-----x--8--8--x--|11-11-11-x--|3-----3-----3--3--3-----|3--3--3-----3--3--3-----|
  |
  |Gtr 3
D |------------------------|------------|15----15---x15-x--15---x|15-x--15---x15-x--15----|
G |------------------------|------------|15----15---x15-x--15---x|15-x--15---x15-x--15----|
C |------------------------|------------|------------------------|------------------------|
D |------------------------|------------|------------------------|------------------------|
G |------------------------|------------|------------------------|------------------------|
C |------------------------|------------|------------------------|------------------------|



   Gtr 1
D#|------------------------|------------|------------------------|--------------------0000|
D#|------------------------|------------|------------------------|--------------------0000|
D |4-----4--x--888---8--x--|11-11-11-11-|15----15----15x15-15----|15x15-15----15x15-15----|
D |4-----4--x--888---8--x--|11-11-11-11-|15----15----15x15-15----|15x15-15----15x15-15----|
G |4-----4--x--888---8--x--|11-11-11-11-|15----15----15x15-15----|15x15-15----15x15-15----|
G |4-----4--x--888---8--x--|11-11-11-11-|15----15----15x15-15----|15x15-15----15x15-15----|
  |
  |Gtr 2
D#|------------------------|------------|------------------------|--------------------0000|
D#|------------------------|------------|------------------------|--------------------0000|
D |------------------------|------------|------------------------|------------------------|
D |4-----4-----x--8--8--x--|11-11-11-x--|3-----3-----3--3--3-----|3--3--3-----3--3--3-----|
G |4-----4-----x--8--8--x--|11-11-11-x--|3-----3-----3--3--3-----|3--3--3-----3--3--3-----|
G |4-----4-----x--8--8--x--|11-11-11-x--|3-----3-----3--3--3-----|3--3--3-----3--3--3-----|
  |
  |Gtr 3
D |------------------------|------------|15----15---x15-x--15---x|15-x--15---x15-x--15----|
G |------------------------|------------|15----15---x15-x--15---x|15-x--15---x15-x--15----|
C |------------------------|------------|------------------------|------------------------|
D |------------------------|------------|------------------------|------------------------|
G |------------------------|------------|------------------------|------------------------|
C |------------------------|------------|------------------------|------------------------|



   Gtr 1
D#|------------------------|------------|------------------------|------------------------|
D#|------------------------|------------|------------------------|------------------------|
D |4-----4--x--888---8--x--|11-11-11-11-|15----15----15x15-15----|15x15-15----15x15-15----|
D |4-----4--x--888---8--x--|11-11-11-11-|15----15----15x15-15----|15x15-15----15x15-15----|
G |4-----4--x--888---8--x--|11-11-11-11-|15----15----15x15-15----|15x15-15----15x15-15----|
G |4-----4--x--888---8--x--|11-11-11-11-|15----15----15x15-15----|15x15-15----15x15-15----|
  |
  |Gtr 2
D#|------------------------|------------|------------------------|------------------------|
D#|------------------------|------------|------------------------|------------------------|
D |------------------------|------------|------------------------|------------------------|
D |4-----4-----x--8--8--x--|11-11-11-x--|3-----3-----3--3--3-----|3--3--3-----3--3--3-----|
G |4-----4-----x--8--8--x--|11-11-11-x--|3-----3-----3--3--3-----|3--3--3-----3--3--3-----|
G |4-----4-----x--8--8--x--|11-11-11-x--|3-----3-----3--3--3-----|3--3--3-----3--3--3-----|
  |
  |Gtr 3
D |------------------------|------------|15----15---x15-x--15---x|15-x--15---x15-x--15----|
G |------------------------|------------|15----15---x15-x--15---x|15-x--15---x15-x--15----|
C |------------------------|------------|------------------------|------------------------|
D |------------------------|------------|------------------------|------------------------|
G |------------------------|------------|------------------------|------------------------|
C |------------------------|------------|------------------------|------------------------|





2ND BREAK SECTION
   Gtr 1
D#|17-17-17--17171717171717|17-17-17--17171717171717|17-17-17--17171717171717|17-17-17--17171717171717|
D#|17-17-17--17171717171717|17-17-17--17171717171717|17-17-17--17171717171717|17-17-17--17171717171717|
D |------------------------|------------------------|------------------------|------------------------|
D |------------------------|------------------------|------------------------|------------------------|
G |------------------------|------------------------|------------------------|------------------------|
G |------------------------|------------------------|------------------------|------------------------|
  |
  |Gtr 2
D#|------------------------|------------------------|------------------------|------------------------|
D#|------------------------|------------------------|------------------------|------------------------|
D |14----14----14-14----14-|14----14----14-14----14-|14----14----14-14----14-|14----14----14-14----14-|
D |12----12----12-12----12-|12----12----12-12----12-|12----12----12-12----12-|12----12----12-12----12-|
G |------------------------|------------------------|------------------------|------------------------|
G |------------------------|------------------------|------------------------|------------------------|
  |
  |Gtr 3
D |0--0--0--0--0--0--0--0--|0--0--0--0--0--0--0--0--|0--0--0--0--0--0--0--0--|0--0--0--0--0--0--0--0--|
G |7--7--7--7--7--7--7--7--|7--7--7--7--7--7--7--7/-|19-19-19-19-19-19-19-19-|19-19-19-19-19-19-19-19-|
C |7--7--7--7--7--7--7--7--|7--7--7--7--7--7--7--7/-|19-19-19-19-19-19-19-19-|19-19-19-19-19-19-19-19-|
D |0--0--0--0--0--0--0--0--|0--0--0--0--0--0--0--0--|0--0--0--0--0--0--0--0--|0--0--0--0--0--0--0--0--|
G |------------------------|------------------------|------------------------|------------------------|
C |------------------------|------------------------|------------------------|------------------------|



   Gtr 1
D#|13-13-13--13131313131313|13-13-13--13131313131313|13-13-13--13131313131313|13-13-13--13131313131313|
D#|13-13-13--13131313131313|13-13-13--13131313131313|13-13-13--13131313131313|13-13-13--13131313131313|
D |------------------------|------------------------|------------------------|------------------------|
D |------------------------|------------------------|------------------------|------------------------|
G |------------------------|------------------------|------------------------|------------------------|
G |------------------------|------------------------|------------------------|------------------------|
  |
  |Gtr 2
D#|------------------------|------------------------|------------------------|------------------------|
D#|------------------------|------------------------|------------------------|------------------------|
D |12----12----12-12----12-|12----12----12-12----12-|12----12----12-12----12-|12----12----12-12----12-|
D |10----10----10-10----10-|10----10----10-10----10-|10----10----10-10----10-|10----10----10-10----10-|
G |------------------------|------------------------|------------------------|------------------------|
G |------------------------|------------------------|------------------------|------------------------|
  |
  |Gtr 3
D |0--0--0--0--0--0--0--0--|0--0--0--0--0--0--0--0--|0--0--0--0--0--0--0--0--|0--0--0--0--0--0--0--0--|
G |13-13-13-13-13-13-13-13-|13-13-13-13-13-13-13-13-|13-13-13-13-13-13-13-13-|13-13-13-13-13-13-13-13-|
C |13-13-13-13-13-13-13-13-|13-13-13-13-13-13-13-13-|13-13-13-13-13-13-13-13-|13-13-13-13-13-13-13-13-|
D |0--0--0--0--0--0--0--0--|0--0--0--0--0--0--0--0--|0--0--0--0--0--0--0--0--|0--0--0--0--0--0--0--0--|
G |------------------------|------------------------|------------------------|------------------------|
C |------------------------|------------------------|------------------------|------------------------|



   Gtr 1
D#|9--9--9---9-9-9-9-9-9-9-|9--9--9---9-9-9-9-9-9-9-|9--9--9---9-9-9-9-9-9-9-|9--9--9---9-9-9-9-9-9-9-|
D#|9--9--9---9-9-9-9-9-9-9-|9--9--9---9-9-9-9-9-9-9-|9--9--9---9-9-9-9-9-9-9-|9--9--9---9-9-9-9-9-9-9-|
D |------------------------|------------------------|------------------------|------------------------|
D |------------------------|------------------------|------------------------|------------------------|
G |------------------------|------------------------|------------------------|------------------------|
G |------------------------|------------------------|------------------------|------------------------|
  |
  |Gtr 2
D#|------------------------|------0-----------------|------------------------|------------------------|
D#|------------------------|0-----0-----------------|------------------------|------------------------|
D |14----14----14-14----14-|14----14----14-14----14-|14----14----14-14----14-|14----14----14-14----14-|
D |12----12----12-12----12-|12----12----12-12----12-|12----12----12-12----12-|12----12----12-12----12-|
G |------------------------|------------------------|------------------------|------------------------|
G |------------------------|------------------------|------------------------|------------------------|
  |
  |Gtr 3
D |0--0--0--0--0--0--0--0--|0--0--0--0--0--0--0--0--|0--0--0--0--0--0--0--0--|0--0--0--0--0--0--0--0--|
G |14-14-14-14-14-14-14-14-|14-14-14-14-14-14-14-14-|14-14-14-14-14-14-14-14-|14-14-14-14-14-14-14-14-|
C |14-14-14-14-14-14-14-14-|14-14-14-14-14-14-14-14-|14-14-14-14-14-14-14-14-|14-14-14-14-14-14-14-14-|
D |0--0--0--0--0--0--0--0--|0--0--0--0--0--0--0--0--|0--0--0--0--0--0--0--0--|0--0--0--0--0--0--0--0--|
G |------------------------|------------------------|------------------------|------------------------|
C |------------------------|------------------------|------------------------|------------------------|



   Gtr 1
D#|14-14-14--14141414141414|14-14-14--14141414141414|14-14-14--14141414141414|14-14-14--14141414141414|
D#|14-14-14--14141414141414|14-14-14--14141414141414|14-14-14--14141414141414|14-14-14--14141414141414|
D |------------------------|------------------------|------------------------|------------------------|
D |------------------------|------------------------|------------------------|------------------------|
G |------------------------|------------------------|------------------------|------------------------|
G |------------------------|------------------------|------------------------|------------------------|
  |
  |Gtr 2
D#|------------------------|------------------------|------------------------|------------------------|
D#|------------------------|------------------------|------------------------|------------------------|
D |10----10----10-10----10-|10----10----10-10----10-|10----10----10-10----10-|10----10----10-10----10-|
D |8-----8-----8--8-----8--|8-----8-----8--8-----8--|8-----8-----8--8-----8--|8-----8-----8--8-----8--|
G |------------------------|------------------------|------------------------|------------------------|
G |------------------------|------------------------|------------------------|------------------------|
  |
  |Gtr 3
D |0--0--0--0--0--0--0--0--|0--0--0--0--0--0--0--0--|0--0--0--0--0--0--0--0--|0--0--0--0--0--0--0--0--|
G |10-10-10-10-10-10-10-10-|10-10-10-10-10-10-10-10-|10-10-10-10-10-10-10-10-|10-10-10-10-10-10-10-10-|
C |10-10-10-10-10-10-10-10-|10-10-10-10-10-10-10-10-|10-10-10-10-10-10-10-10-|10-10-10-10-10-10-10-10-|
D |0--0--0--0--0--0--0--0--|0--0--0--0--0--0--0--0--|0--0--0--0--0--0--0--0--|0--0--0--0--0--0--0--0--|
G |------------------------|------------------------|------------------------|------------------------|
C |------------------------|------------------------|------------------------|------------------------|



   Gtr 1
D#|4--4--4---4-4-4-4-4-4-4-|4--4--4---4-4-4-4-4-4-4-|4--4--4---4-4-4-4-4-4-4-|4--4--4---4-4-4-4-4-4-4-|
D#|4--4--4---4-4-4-4-4-4-4-|4--4--4---4-4-4-4-4-4-4-|4--4--4---4-4-4-4-4-4-4-|4--4--4---4-4-4-4-4-4-4-|
D |------------------------|------------------------|------------------------|------------------------|
D |------------------------|------------------------|------------------------|------------------------|
G |------------------------|------------------------|------------------------|------------------------|
G |------------------------|------------------------|------------------------|------------------------|
  |
  |Gtr 2
D#|------------------------|------------------------|------------------------|------------------------|
D#|------------------------|------------------------|------------------------|------------------------|
D |0--0--0--0--0--0--0--0--|0--0--0--0--0--0--0--0--|0--0--0--0--0--0--0--0--|0--0--0--0--0--0--0--0--|
D |0--0--0--0--0--0--0--0--|0--0--0--0--0--0--0--0--|0--0--0--0--0--0--0--0--|0--0--0--0--0--0--0--0--|
G |0--0--0--0--0--0--0--0--|0--0--0--0--0--0--0--0--|0--0--0--0--0--0--0--0--|0--0--0--0--0--0--0--0--|
G |0--0--0--0--0--0--0--0--|0--0--0--0--0--0--0--0--|0--0--0--0--0--0--0--0--|0--0--0--0--0--0--0--0--|
  |
  |Gtr 3
D |------------------------|------------------------|------------------------|------------------------|
G |------0--0-----0--0-----|0--0-----0--0-----------|------0--0-----0--0-----|0--0-----0--0-----------|
C |------9--9-----11-11----|12-12----11-11----------|------9--9-----11-11----|12-12----14-14----------|
D |------7--7-----9--9-----|10-10----9--9-----------|------7--7-----9--9-----|10-10----12-12----------|
G |0-----0--0-----0--0-----|0--0-----0--0-----------|------0--0-----0--0-----|0--0-----0--0-----------|
C |------------------------|------------------------|------------------------|------------------------|



   Gtr 1
D#|17-17-17--17171717171717|17-17-17--17171717171717|17-17-17--17171717171717|17-17-17--17171717171717|
D#|17-17-17--17171717171717|17-17-17--17171717171717|17-17-17--17171717171717|17-17-17--17171717171717|
D |------------------------|------------------------|------------------------|------------------------|
D |------------------------|------------------------|------------------------|------------------------|
G |------------------------|------------------------|------------------------|------------------------|
G |------------------------|------------------------|------------------------|------------------------|
  |
  |Gtr 2
D#|------------------------|------------------------|------------------------|0-----------------------|
D#|------------------------|------------------------|------------------------|0-----------------------|
D |14----14----14-14----14-|14----14----14-14----14-|14----14----14-14----14-|14----14----14-14----14-|
D |12----12----12-12----12-|12----12----12-12----12-|12----12----12-12----12-|12----12----12-12----12-|
G |------------------------|------------------------|------------------------|------------------------|
G |------------------------|------------------------|------------------------|------------------------|
  |
  |Gtr 3
D |0--0--0--0--0--0--0--0--|0--0--0--0--0--0--0--0--|0--0--0--0--0--0--0--0--|0--0--0--0--0--0--0--0--|
G |19-19-19-19-19-19-19-19-|19-19-19-19-19-19-19-19-|19-19-19-19-19-19-19-19-|19-19-19-19-19-19-19-19-|
C |19-19-19-19-19-19-19-19-|19-19-19-19-19-19-19-19-|19-19-19-19-19-19-19-19-|19-19-19-19-19-19-19-19-|
D |0--0--0--0--0--0--0--0--|0--0--0--0--0--0--0--0--|0--0--0--0--0--0--0--0--|0--0--0--0--0--0--0--0--|
G |------------------------|------------------------|------------------------|------------------------|
C |------------------------|------------------------|------------------------|------------------------|



   Gtr 1
D#|13-13-13--13131313131313|13-13-13--13131313131313|13-13-13--13131313131313|13-13-13--13131313131313|
D#|13-13-13--13131313131313|13-13-13--13131313131313|13-13-13--13131313131313|13-13-13--13131313131313|
D |------------------------|------------------------|------------------------|------------------------|
D |------------------------|------------------------|------------------------|------------------------|
G |------------------------|------------------------|------------------------|------------------------|
G |------------------------|------------------------|------------------------|------------------------|
  |
  |Gtr 2
D#|------------------------|------------------------|0-----------------------|---------------0--------|
D#|------------------------|---------------------0--|0-----------------------|---------------0--------|
D |12----12----12-12----12-|12----12----12-12----12-|12----12----12-12----12-|12----12----12-12----12-|
D |10----10----10-10----10-|10----10----10-10----10-|10----10----10-10----10-|10----10----10-10----10-|
G |------------------------|------------------------|------------------------|------------------------|
G |------------------------|------------------------|------------------------|------------------------|
  |
  |Gtr 3
D |0--0--0--0--0--0--0--0--|0--0--0--0--0--0--0--0--|0--0--0--0--0--0--0--0--|0--0--0--0--0--0--0--0--|
G |13-13-13-13-13-13-13-13-|13-13-13-13-13-13-13-13-|13-13-13-13-13-13-13-13-|13-13-13-13-13-13-13-13-|
C |13-13-13-13-13-13-13-13-|13-13-13-13-13-13-13-13-|13-13-13-13-13-13-13-13-|13-13-13-13-13-13-13-13-|
D |0--0--0--0--0--0--0--0--|0--0--0--0--0--0--0--0--|0--0--0--0--0--0--0--0--|0--0--0--0--0--0--0--0--|
G |------------------------|------------------------|------------------------|------------------------|
C |------------------------|------------------------|------------------------|------------------------|



   Gtr 1
D#|9--9--9---9-9-9-9-9-9-9-|9--9--9---9-9-9-9-9-9-9-|9--9--9---9-9-9-9-9-9-9-|9--9--9---9-9-9-9-9-9-9-|
D#|9--9--9---9-9-9-9-9-9-9-|9--9--9---9-9-9-9-9-9-9-|9--9--9---9-9-9-9-9-9-9-|9--9--9---9-9-9-9-9-9-9-|
D |------------------------|------------------------|------------------------|------------------------|
D |------------------------|------------------------|------------------------|------------------------|
G |------------------------|------------------------|------------------------|------------------------|
G |------------------------|------------------------|------------------------|------------------------|
  |
  |Gtr 2
D#|------0--------0--------|---------------0--------|---------------0--------|------0--------0--------|
D#|------0-----0--0--------|------0--------0--------|------0--------0--------|------0-----0--0--------|
D |14----14----14-14----14-|14----14----14-14----14-|14----14----14-14----14-|14----14----14-14----14-|
D |12----12----12-12----12-|12----12----12-12----12-|12----12----12-12----12-|12----12----12-12----12-|
G |------------------------|------------------------|------------------------|------------------------|
G |------------------------|------------------------|------------------------|------------------------|
  |
  |Gtr 3
D |0--0--0--0--0--0--0--0--|0--0--0--0--0--0--0--0--|0--0--0--0--0--0--0--0--|0--0--0--0--0--0--0--0--|
G |14-14-14-14-14-14-14-14-|14-14-14-14-14-14-14-14-|14-14-14-14-14-14-14-14-|14-14-14-14-14-14-14-14-|
C |14-14-14-14-14-14-14-14-|14-14-14-14-14-14-14-14-|14-14-14-14-14-14-14-14-|14-14-14-14-14-14-14-14-|
D |0--0--0--0--0--0--0--0--|0--0--0--0--0--0--0--0--|0--0--0--0--0--0--0--0--|0--0--0--0--0--0--0--0--|
G |------------------------|------------------------|------------------------|------------------------|
C |------------------------|------------------------|------------------------|------------------------|



   Gtr 1
D#|14-14-14--14141414141414|14-14-14--14141414141414|14-14-14--14141414141414|14-14-14--14141414141414|
D#|14-14-14--14141414141414|14-14-14--14141414141414|14-14-14--14141414141414|14-14-14--14141414141414|
D |------------------------|------------------------|------------------------|------------------------|
D |------------------------|------------------------|------------------------|------------------------|
G |------------------------|------------------------|------------------------|------------------------|
G |------------------------|------------------------|------------------------|------------------------|
  |
  |Gtr 2
D#|------------------------|------------------------|------------------------|------------------------|
D#|------------------------|------------------------|------------------------|------------------------|
D |10----10----10-10----10-|10----10----10-10----10-|10----10----10-10----10-|10----10----10-10----10-|
D |8-----8-----8--8-----8--|8-----8-----8--8-----8--|8-----8-----8--8-----8--|8-----8-----8--8-----8--|
G |------------------------|------------------------|------------------------|------------------------|
G |------------------------|------------------------|------------------------|------------------------|
  |
  |Gtr 3
D |0--0--0--0--0--0--0--0--|0--0--0--0--0--0--0--0--|0--0--0--0--0--0--0--0--|0--0--0--0--0--0--0--0--|
G |10-10-10-10-10-10-10-10-|10-10-10-10-10-10-10-10-|10-10-10-10-10-10-10-10-|10-10-10-10-10-10-10-10-|
C |10-10-10-10-10-10-10-10-|10-10-10-10-10-10-10-10-|10-10-10-10-10-10-10-10-|10-10-10-10-10-10-10-10-|
D |0--0--0--0--0--0--0--0--|0--0--0--0--0--0--0--0--|0--0--0--0--0--0--0--0--|0--0--0--0--0--0--0--0--|
G |------------------------|------------------------|------------------------|------------------------|
C |------------------------|------------------------|------------------------|------------------------|



   Gtr 1
D#|4--4--4---4-4-4-4-4-4-4-|4--4--4---4-4-4-4-4-4-4-|4--4--4---4-4-4-4-4-4-4-|4--4--4---4-4-4-4-4-4-4-|
D#|4--4--4---4-4-4-4-4-4-4-|4--4--4---4-4-4-4-4-4-4-|4--4--4---4-4-4-4-4-4-4-|4--4--4---4-4-4-4-4-4-4-|
D |------------------------|------------------------|------------------------|------------------------|
D |------------------------|------------------------|------------------------|------------------------|
G |------------------------|------------------------|------------------------|------------------------|
G |------------------------|------------------------|------------------------|------------------------|
  |
  |Gtr 2
D#|------------------------|------------------------|------------------------|------------------------|
D#|------------------------|------------------------|------------------------|------------------------|
D |0--0--0--0--0--0--0--0--|0--0--0--0--0--0--0--0--|0--0--0--0--0--0--0--0--|0--0--0--0--0--0--0--0--|
D |0--0--0--0--0--0--0--0--|0--0--0--0--0--0--0--0--|0--0--0--0--0--0--0--0--|0--0--0--0--0--0--0--0--|
G |0--0--0--0--0--0--0--0--|0--0--0--0--0--0--0--0--|0--0--0--0--0--0--0--0--|0--0--0--0--0--0--0--0--|
G |0--0--0--0--0--0--0--0--|0--0--0--0--0--0--0--0--|0--0--0--0--0--0--0--0--|0--0--0--0--0--0--0--0--|
  |
  |Gtr 3
D |------------------------|------------------------|------------------------|------------------------|
G |------0--0-----0--0-----|0--0-----0--0-----------|------0--0-----0--0-----|0--0-----0--0-----------|
C |------9--9-----11-11----|12-12----11-11----------|------9--9-----11-11----|12-12----14-14----------|
D |------7--7-----9--9-----|10-10----9--9-----------|------7--7-----9--9-----|10-10----12-12----------|
G |0-----0--0-----0--0-----|0--0-----0--0-----------|------0--0-----0--0-----|0--0-----0--0-----------|
C |------------------------|------------------------|------------------------|------------------------|



   Gtr 1
D#|17-17-17--17171717171717|17-17-17--17171717171717|17-17-17--17171717171717|17-17-17--17171717171717|
D#|17-17-17--17171717171717|17-17-17--17171717171717|17-17-17--17171717171717|17-17-17--17171717171717|
D |------------------------|------------------------|------------------------|------------------------|
D |------------------------|------------------------|------------------------|------------------------|
G |------------------------|------------------------|------------------------|------------------------|
G |------------------------|------------------------|------------------------|------------------------|
  |
  |Gtr 2
D#|---------------0--------|---------------0--------|------------------------|------------------------|
D#|------------0--0--------|------------0--0--------|------------------------|------------------------|
D |14----14----14-14----14-|14----14----14-14----14-|14----14----14-14----14-|14----14----14-14----14-|
D |12----12----12-12----12-|12----12----12-12----12-|12----12----12-12----12-|12----12----12-12----12-|
G |------------------------|------------------------|------------------------|------------------------|
G |------------------------|------------------------|------------------------|------------------------|
  |
  |Gtr 3
D |0--0--0--0--0--0--0--0--|0--0--0--0--0--0--0--0--|12-12-12-12-12-12-12-12-|12-12-12-12-10-10-10-10-|
G |7--7--7--7--7--7--7--7--|7--7--7--7--7--7--7--7--|12-12-12-12-12-12-12-12-|12-12-12-12-------------|
C |7--7--7--7--7--7--7--7--|7--7--7--7--7--7--7--7--|12-12-12-12-12-12-12-12-|12-12-12----------------|
D |0--0--0--0--0--0--0--0--|0--0--0--0--0--0--0--0--|0--0--0--0--0--0--0--0--|0--0--------------------|
G |------------------------|------------------------|------------------------|------------------------|
C |------------------------|------------------------|------------------------|------------------------|



   Gtr 1
D#|13-13-13--13131313131313|13-13-13--13131313131313|13-13-13--13131313131313|13-13-13--13131313131313|
D#|13-13-13--13131313131313|13-13-13--13131313131313|13-13-13--13131313131313|13-13-13--13131313131313|
D |------------------------|------------------------|------------------------|------------------------|
D |------------------------|------------------------|------------------------|------------------------|
G |------------------------|------------------------|------------------------|------------------------|
G |------------------------|------------------------|------------------------|------------------------|
  |
  |Gtr 2
D#|------------------------|------------------------|0-----------------------|------------------------|
D#|------------------------|------------------------|0-----------------------|------------------------|
D |12----12----12-12----12-|12----12----12-12----12-|12----12----12-12----12-|12----12----12-12----12-|
D |10----10----10-10----10-|10----10----10-10----10-|10----10----10-10----10-|10----10----10-10----10-|
G |------------------------|------------------------|------------------------|------------------------|
G |------------------------|------------------------|------------------------|------------------------|
  |
  |Gtr 3
D |10-10-12-12-12-12-12-12-|12-12-12-12-12-12-12-12-|12-12-12-12-12-12-12-12-|12-12-12-12-12-12-12-12-|
G |------------------------|10-10-10-10-10-10-10-10-|10-10-12-12-12-13-13-13-|13-13b15`15`15`15r13-13-|
C |------------------------|------------------------|------------------------|------------------------|
D |------------------------|------------------------|------------------------|------------------------|
G |------------------------|------------------------|------------------------|------------------------|
C |------------------------|------------------------|------------------------|------------------------|



   Gtr 1
D#|9--9--9---9-9-9-9-9-9-9-|9--9--9---9-9-9-9-9-9-9-|9--9--9---9-9-9-9-9-9-9-|9--9--9---9-9-9-9-9-9-9-|
D#|9--9--9---9-9-9-9-9-9-9-|9--9--9---9-9-9-9-9-9-9-|9--9--9---9-9-9-9-9-9-9-|9--9--9---9-9-9-9-9-9-9-|
D |------------------------|------------------------|------------------------|------------------------|
D |------------------------|------------------------|------------------------|------------------------|
G |------------------------|------------------------|------------------------|------------------------|
G |------------------------|------------------------|------------------------|------------------------|
  |
  |Gtr 2
D#|------------------------|0-----------------------|0-----------------------|0-----------------------|
D#|------------------------|0-----------------------|0--------------------0--|0-----------------------|
D |14----14----14-14----14-|14----14----14-14----14-|14----14----14-14----14-|14----14----14-14----14-|
D |12----12----12-12----12-|12----12----12-12----12-|12----12----12-12----12-|12----12----12-12----12-|
G |------------------------|------------------------|------------------------|------------------------|
G |------------------------|------------------------|------------------------|------------------------|
  |
  |Gtr 3
D |------------------------|------------------------|------------------------|------------------------|
G |13b15`15`15`15`15`15`15r|13-13b15`15`15`15`15`15`|15`15`15`15`15`15`15`15`|15r13\9--9--9--9--9--9--|
C |------------------------|------------------------|------------------------|------------------------|
D |------------------------|------------------------|------------------------|------------------------|
G |------------------------|------------------------|------------------------|------------------------|
C |------------------------|------------------------|------------------------|------------------------|



   Gtr 1
D#|14-14-14--14141414141414|14-14-14--14141414141414|14-14-14--14141414141414|14-14-14--14141414141414|
D#|14-14-14--14141414141414|14-14-14--14141414141414|14-14-14--14141414141414|14-14-14--14141414141414|
D |------------------------|------------------------|------------------------|------------------------|
D |------------------------|------------------------|------------------------|------------------------|
G |------------------------|------------------------|------------------------|------------------------|
G |------------------------|------------------------|------------------------|------------------------|
  |
  |Gtr 2
D#|------------------------|------------------------|------------------------|0--------------0--------|
D#|------------------------|------------------------|------------------------|0-----------0--0--------|
D |10----10----10-10----10-|10----10----10-10----10-|10----10----10-10----10-|10----10----10-10----10-|
D |8-----8-----8--8-----8--|8-----8-----8--8-----8--|8-----8-----8--8-----8--|8-----8-----8--8-----8--|
G |------------------------|------------------------|------------------------|------------------------|
G |------------------------|------------------------|------------------------|------------------------|
  |
  |Gtr 3
D |------------------------|------------------------|-----------------------/|19-19-19-19-19-19-19-19-|
G |10-10-10-10-10\9--9--9/-|12-12-12-12-13/15-15-15-|10-10-10-10-10\9--9--9--|------------------------|
C |------------------------|------------------------|------------------------|------------------------|
D |------------------------|------------------------|------------------------|------------------------|
G |------------------------|------------------------|------------------------|------------------------|
C |------------------------|------------------------|------------------------|------------------------|



   Gtr 1
D#|4--4--4---4-4-4-4-4-4-4-|4--4--4---4-4-4-4-4-4-4-|4--4--4---4-4-4-4-4-4-4-|4--4--4---4-4-4-4-4-4-4-|
D#|4--4--4---4-4-4-4-4-4-4-|4--4--4---4-4-4-4-4-4-4-|4--4--4---4-4-4-4-4-4-4-|4--4--4---4-4-4-4-4-4-4-|
D |------------------------|------------------------|------------------------|------------------------|
D |------------------------|------------------------|------------------------|------------------------|
G |------------------------|------------------------|------------------------|------------------------|
G |------------------------|------------------------|------------------------|------------------------|
  |
  |Gtr 2
D#|------------------------|------------------------|------------------------|------------------------|
D#|------------------------|------------------------|------------------------|------------------------|
D |0--0--0--0--0--0--0--0--|0--0--0--0--0--0--0--0--|0--0--0--0--0--0--0--0--|0--0--0--0--0--0--0--0--|
D |0--0--0--0--0--0--0--0--|0--0--0--0--0--0--0--0--|0--0--0--0--0--0--0--0--|0--0--0--0--0--0--0--0--|
G |0--0--0--0--0--0--0--0--|0--0--0--0--0--0--0--0--|0--0--0--0--0--0--0--0--|0--0--0--0--0--0--0--0--|
G |0--0--0--0--0--0--0--0--|0--0--0--0--0--0--0--0--|0--0--0--0--0--0--0--0--|0--0--0--0--0--0--0--0--|
  |
  |Gtr 3
D |19\---------------------|------------------------|------------------------|------------------------|
G |------0--0-----0--0-----|0--0-----0--0-----------|------0--0-----0--0-----|0--0-----0--0-----------|
C |------9--9-----11-11----|12-12----11-11----------|------9--9-----11-11----|12-12----14-14----------|
D |------7--7-----9--9-----|10-10----9--9-----------|------7--7-----9--9-----|10-10----12-12----------|
G |------0--0-----0--0-----|0--0-----0--0-----------|------0--0-----0--0-----|0--0-----0--0-----------|
C |------------------------|------------------------|------------------------|------------------------|



   Gtr 1
D#|4--4--4---4-4-4-4-4-4-4-|4--4--4---4-4-4-4-4-4-4-|
D#|4--4--4---4-4-4-4-4-4-4-|4--4--4---4-4-4-4-4-4-4-|
D |0--0--0---0-0-0-0-0-0-0-|0--0--0---0-0-0-0-0-0-0-|
D |----------0-0-0-0-0-0-0-|0--0--0---0-0-0-0-0-0-0-|
G |------------------------|------------------------|
G |------------------------|------------------------|
  |
  |Gtr 2
D#|0--0--0--0--0--0--0--0--|0--0--0--0--0--0--0--0--|
D#|0--0--0--0--0--0--0--0--|0--0--0--0--0--0--0--0--|
D |0--0--0--0--0--0--0--0--|0--0--0--0--0--0--0--0--|
D |0--0--0--0--0--0--0--0--|0--0--0--0--0--0--0--0--|
G |0--0--0--0--0--0--0--0--|0--0--0--0--0--0--0--0--|
G |0--0--0--0--0--0--0--0--|0--0--0--0--0--0--0--0--|
  |
  |Gtr 3
D |------------------------|------------------------|
G |------------------------|------------------------|
C |3~~3~~3~~3~~3~~3~~3~~3~~|3~~3~~3~~3~~3~~3~~3~~3--|
D |0--0--0--0--0--0--0--0--|0--0--0--0--0--0--0--0--|
G |0--0--0--0--0--0--0--0--|0--0--0--0--0--0--0--0--|
C |------------------------|------------------------|





3RD VERSE
   Gtr 1
D#|------------------------|------------|------------------------|--------------------0000|
D#|------------------------|------------|------------------------|--------------------0000|
D |4-----4--x--888---8--x--|11-11-11-11-|15----15----15x15-15----|15x15-15----15x15-15----|
D |4-----4--x--888---8--x--|11-11-11-11-|15----15----15x15-15----|15x15-15----15x15-15----|
G |4-----4--x--888---8--x--|11-11-11-11-|15----15----15x15-15----|15x15-15----15x15-15----|
G |4-----4--x--888---8--x--|11-11-11-11-|15----15----15x15-15----|15x15-15----15x15-15----|
  |
  |Gtr 2
D#|------------------------|------------|------------------------|--------------------0000|
D#|------------------------|------------|------------------------|--------------------0000|
D |------------------------|------------|------------------------|------------------------|
D |4-----4-----x--8--8--x--|11-11-11-x--|3-----3-----3--3--3-----|3--3--3-----3--3--3-----|
G |4-----4-----x--8--8--x--|11-11-11-x--|3-----3-----3--3--3-----|3--3--3-----3--3--3-----|
G |4-----4-----x--8--8--x--|11-11-11-x--|3-----3-----3--3--3-----|3--3--3-----3--3--3-----|
  |
  |Gtr 3
D |------------------------|------------|15----15---x15-x--15---x|15-x--15---x15-x--15----|
G |------------------------|------------|15----15---x15-x--15---x|15-x--15---x15-x--15----|
C |------------------------|------------|------------------------|------------------------|
D |------------------------|------------|------------------------|------------------------|
G |------------------------|------------|------------------------|------------------------|
C |------------------------|------------|------------------------|------------------------|



   Gtr 1
D#|------------------------|------------|------------------------|--------------------0000|
D#|------------------------|------------|------------------------|--------------------0000|
D |4-----4--x--888---8--x--|11-11-11-11-|15----15----15x15-15----|15x15-15----15x15-15----|
D |4-----4--x--888---8--x--|11-11-11-11-|15----15----15x15-15----|15x15-15----15x15-15----|
G |4-----4--x--888---8--x--|11-11-11-11-|15----15----15x15-15----|15x15-15----15x15-15----|
G |4-----4--x--888---8--x--|11-11-11-11-|15----15----15x15-15----|15x15-15----15x15-15----|
  |
  |Gtr 2
D#|------------------------|------------|------------------------|--------------------0000|
D#|------------------------|------------|------------------------|--------------------0000|
D |------------------------|------------|------------------------|------------------------|
D |4-----4-----x--8--8--x--|11-11-11-x--|3-----3-----3--3--3-----|3--3--3-----3--3--3-----|
G |4-----4-----x--8--8--x--|11-11-11-x--|3-----3-----3--3--3-----|3--3--3-----3--3--3-----|
G |4-----4-----x--8--8--x--|11-11-11-x--|3-----3-----3--3--3-----|3--3--3-----3--3--3-----|
  |
  |Gtr 3
D |------------------------|------------|15----15---x15-x--15---x|15-x--15---x15-x--15----|
G |------------------------|------------|15----15---x15-x--15---x|15-x--15---x15-x--15----|
C |------------------------|------------|------------------------|------------------------|
D |------------------------|------------|------------------------|------------------------|
G |------------------------|------------|------------------------|------------------------|
C |------------------------|------------|------------------------|------------------------|



   Gtr 1
D#|------------------------|------------|------------------------|--------------------0000|
D#|------------------------|------------|------------------------|--------------------0000|
D |4-----4--x--888---8--x--|11-11-11-11-|15----15----15x15-15----|15x15-15----15x15-15----|
D |4-----4--x--888---8--x--|11-11-11-11-|15----15----15x15-15----|15x15-15----15x15-15----|
G |4-----4--x--888---8--x--|11-11-11-11-|15----15----15x15-15----|15x15-15----15x15-15----|
G |4-----4--x--888---8--x--|11-11-11-11-|15----15----15x15-15----|15x15-15----15x15-15----|
  |
  |Gtr 2
D#|------------------------|------------|------------------------|--------------------0000|
D#|------------------------|------------|------------------------|--------------------0000|
D |------------------------|------------|------------------------|------------------------|
D |4-----4-----x--8--8--x--|11-11-11-x--|3-----3-----3--3--3-----|3--3--3-----3--3--3-----|
G |4-----4-----x--8--8--x--|11-11-11-x--|3-----3-----3--3--3-----|3--3--3-----3--3--3-----|
G |4-----4-----x--8--8--x--|11-11-11-x--|3-----3-----3--3--3-----|3--3--3-----3--3--3-----|
  |
  |Gtr 3
D |------------------------|------------|15----15---x15-x--15---x|15-x--15---x15-x--15----|
G |------------------------|------------|15----15---x15-x--15---x|15-x--15---x15-x--15----|
C |------------------------|------------|------------------------|------------------------|
D |------------------------|------------|------------------------|------------------------|
G |------------------------|------------|------------------------|------------------------|
C |------------------------|------------|------------------------|------------------------|



   Gtr 1
D#|------------------------|------------|------------------------|--------------------0000|
D#|------------------------|------------|------------------------|--------------------0000|
D |4-----4--x--888---8--x--|11-11-11-11-|15----15----15x15-15----|15x15-15----15x15-15----|
D |4-----4--x--888---8--x--|11-11-11-11-|15----15----15x15-15----|15x15-15----15x15-15----|
G |4-----4--x--888---8--x--|11-11-11-11-|15----15----15x15-15----|15x15-15----15x15-15----|
G |4-----4--x--888---8--x--|11-11-11-11-|15----15----15x15-15----|15x15-15----15x15-15----|
  |
  |Gtr 2
D#|------------------------|------------|------------------------|--------------------0000|
D#|------------------------|------------|------------------------|--------------------0000|
D |------------------------|------------|------------------------|------------------------|
D |4-----4-----x--8--8--x--|11-11-11-x--|3-----3-----3--3--3-----|3--3--3-----3--3--3-----|
G |4-----4-----x--8--8--x--|11-11-11-x--|3-----3-----3--3--3-----|3--3--3-----3--3--3-----|
G |4-----4-----x--8--8--x--|11-11-11-x--|3-----3-----3--3--3-----|3--3--3-----3--3--3-----|
  |
  |Gtr 3
D |------------------------|------------|15----15---x15-x--15---x|15-x--15---x15-x--15----|
G |------------------------|------------|15----15---x15-x--15---x|15-x--15---x15-x--15----|
C |------------------------|------------|------------------------|------------------------|
D |------------------------|------------|------------------------|------------------------|
G |------------------------|------------|------------------------|------------------------|
C |------------------------|------------|------------------------|------------------------|



   Gtr 1
D#|------------------------|------------|------------------------|--------------------0000|
D#|------------------------|------------|------------------------|--------------------0000|
D |4-----4--x--888---8--x--|11-11-11-11-|15----15----15x15-15----|15x15-15----15x15-15----|
D |4-----4--x--888---8--x--|11-11-11-11-|15----15----15x15-15----|15x15-15----15x15-15----|
G |4-----4--x--888---8--x--|11-11-11-11-|15----15----15x15-15----|15x15-15----15x15-15----|
G |4-----4--x--888---8--x--|11-11-11-11-|15----15----15x15-15----|15x15-15----15x15-15----|
  |
  |Gtr 2
D#|------------------------|------------|------------------------|--------------------0000|
D#|------------------------|------------|------------------------|--------------------0000|
D |------------------------|------------|------------------------|------------------------|
D |4-----4-----x--8--8--x--|11-11-11-x--|3-----3-----3--3--3-----|3--3--3-----3--3--3-----|
G |4-----4-----x--8--8--x--|11-11-11-x--|3-----3-----3--3--3-----|3--3--3-----3--3--3-----|
G |4-----4-----x--8--8--x--|11-11-11-x--|3-----3-----3--3--3-----|3--3--3-----3--3--3-----|
  |
  |Gtr 3
D |------------------------|------------|------------------------|------------------------|
G |------------------------|------------|------10~~--10h11p10-11/|13----15~~~~~--15-15\---|
C |------6~~~~-------10~~~-|------13~~~-|------------------------|------------------------|
D |------4~~~~-------8~~~~-|------11~~~-|------------------------|------------------------|
G |------------------------|------------|------------------------|------------------------|
C |------------------------|------------|------------------------|------------------------|



   Gtr 1
D#|------------------------|------------|------------------------|--------------------0000|
D#|------------------------|------------|------------------------|--------------------0000|
D |4-----4--x--888---8--x--|11-11-11-11-|15----15----15x15-15----|15x15-15----15x15-15----|
D |4-----4--x--888---8--x--|11-11-11-11-|15----15----15x15-15----|15x15-15----15x15-15----|
G |4-----4--x--888---8--x--|11-11-11-11-|15----15----15x15-15----|15x15-15----15x15-15----|
G |4-----4--x--888---8--x--|11-11-11-11-|15----15----15x15-15----|15x15-15----15x15-15----|
  |
  |Gtr 2
D#|------------------------|------------|------------------------|--------------------0000|
D#|------------------------|------------|------------------------|--------------------0000|
D |------------------------|------------|------------------------|------------------------|
D |4-----4-----x--8--8--x--|11-11-11-x--|3-----3-----3--3--3-----|3--3--3-----3--3--3-----|
G |4-----4-----x--8--8--x--|11-11-11-x--|3-----3-----3--3--3-----|3--3--3-----3--3--3-----|
G |4-----4-----x--8--8--x--|11-11-11-x--|3-----3-----3--3--3-----|3--3--3-----3--3--3-----|
  |
  |Gtr 3
D |------------------------|------------|------------------------|------------------------|
G |------------------------|------------|------10~~~~~~~~~~~--10~|~--10~10~10~10~10~10\---|
C |------6~~~~-------10~~~-|------13~~~-|------------------------|------------------------|
D |------4~~~~-------8~~~~-|------11~~~-|------------------------|------------------------|
G |------------------------|------------|------------------------|------------------------|
C |------------------------|------------|------------------------|------------------------|



   Gtr 1
D#|------------------------|------------|------------------------|--------------------0000|
D#|------------------------|------------|------------------------|--------------------0000|
D |4-----4--x--888---8--x--|11-11-11-11-|15----15----15x15-15----|15x15-15----15x15-15----|
D |4-----4--x--888---8--x--|11-11-11-11-|15----15----15x15-15----|15x15-15----15x15-15----|
G |4-----4--x--888---8--x--|11-11-11-11-|15----15----15x15-15----|15x15-15----15x15-15----|
G |4-----4--x--888---8--x--|11-11-11-11-|15----15----15x15-15----|15x15-15----15x15-15----|
  |
  |Gtr 2
D#|------------------------|------------|------------------------|--------------------0000|
D#|------------------------|------------|------------------------|--------------------0000|
D |------------------------|------------|------------------------|------------------------|
D |4-----4-----x--8--8--x--|11-11-11-x--|3-----3-----3--3--3-----|3--3--3-----3--3--3-----|
G |4-----4-----x--8--8--x--|11-11-11-x--|3-----3-----3--3--3-----|3--3--3-----3--3--3-----|
G |4-----4-----x--8--8--x--|11-11-11-x--|3-----3-----3--3--3-----|3--3--3-----3--3--3-----|
  |
  |Gtr 3
D |------------------------|------------|------------------------|------------------------|
G |------------------------|------------|------10~~~~~--10h11p10-|------10h11p10----10\---|
C |------6~~~~-------10~~~-|------13~~~-|------------------------|------------------------|
D |------4~~~~-------8~~~~-|------11~~~-|------------------------|------------------------|
G |------------------------|------------|------------------------|------------------------|
C |------------------------|------------|------------------------|------------------------|



   Gtr 1
D#|------------------------|------------|------------------------|------------------------|
D#|------------------------|------------|------------------------|------------------------|
D |4-----4--x--888---8--x--|11-11-11-11-|15----15----15x15-15----|15x15-15----15x15-15----|
D |4-----4--x--888---8--x--|11-11-11-11-|15----15----15x15-15----|15x15-15----15x15-15----|
G |4-----4--x--888---8--x--|11-11-11-11-|15----15----15x15-15----|15x15-15----15x15-15----|
G |4-----4--x--888---8--x--|11-11-11-11-|15----15----15x15-15----|15x15-15----15x15-15----|
  |
  |Gtr 2
D#|------------------------|------------|------------------------|------------------------|
D#|------------------------|------------|------------------------|------------------------|
D |------------------------|------------|------------------------|------------------------|
D |4-----4-----x--8--8--x--|11-11-11-x--|3-----3-----3--3--3-----|3--3--3-----3--3--3-----|
G |4-----4-----x--8--8--x--|11-11-11-x--|3-----3-----3--3--3-----|3--3--3-----3--3--3-----|
G |4-----4-----x--8--8--x--|11-11-11-x--|3-----3-----3--3--3-----|3--3--3-----3--3--3-----|
  |
  |Gtr 3
D |------------------------|------------|------------------------|------------------------|
G |------------------------|------------|------10~~~~~--10h11p10-|------10h11p10-10-10\---|
C |------6~~~~-------10~~~-|------13~~~-|------------------------|------------------------|
D |------4~~~~-------8~~~~-|------11~~~-|------------------------|------------------------|
G |------------------------|------------|------------------------|------------------------|
C |------------------------|------------|------------------------|------------------------|



   Gtr 1
D#|------------------------|
D#|------------------------|
D |------------------------|
D |4-----------------------|
G |4-----------------------|
G |4-----------------------|
  |
  |Gtr 2
D#|------------------------|
D#|------------------------|
D |------------------------|
D |------------------------|
G |4-----------------------|
G |4-----------------------|
  |
  |Gtr 3
D |------------------------|
G |------------------------|
C |------------------------|
D |------------------------|
G |------------------------|
C |------------------------|



comments
We did not receive enough feedback on this tab! Please rate:
print report bad tab
1 2 3 4 5
I want to post or [tab]
guest
You may want to rate the tab now too:
select rating
Please do not post tabs as comments. Select "correction" instead!