Oops, an error
Loading. Please wait.

Incinerate Tab

ver1
ver1

Whole song

Interactive

More versions @911Tabs.com
25,338 views 159 this week
3 commentsread comments
1 2 3 4 5
excellent!
x 6
Autoscroll
+/-
esc
set tempo
stop
Contributor
Hey! There's an official Ultimate Guitar app which is ideal
for learning songs when you're away from computer. Get the app
WARNING: You are trying to view
                                    content from Ultimate-Guitar.com
                                    in an unauthorized application,
                                    which is prohibited.

                                    Please use an official Ultimate
                                    Guitar Tabs application for iPhone,
                                    iPad or Android to access legitimate
                                    chords, guitar, bass, and drum tabs
                                    from Ultimate-Guitar.com database.

                                    Type "ultimate guitar tabs" in Apple
                                    App Store's or Android Market's
                                    search to find the application.
-------------------------------------------------------------------------------
			    INCINERATE - Sonic Youth
-------------------------------------------------------------------------------

Tabbed by: Whip It
Email: second-heartbeat@live.com

Tuning: Standard OR Tuned Down Half a Step

===============================================================================
Okay, first off just let me say that Sonic Youth is an awesome band. Most 
people who listen to them know that a large majority of their songs are 
played in alternative tunings. I'm pretty sure this song is as well, however 
it's actually quite easy to play in standard tuning. To have the exact same 
key as the song all the instruments would need to be tuned down half a step, 
but it works well in standard tuning as well.

Please note although these tabs are fairly accurate, some bits are not meant 
to be played literally (ie. second verse obviously doesn't have the exact 
same single notes played in between Thurston's vocals, but it's pretty much 
just saying improvise with that chord). I'm pretty sure they have either 
three guitars or a second bass which imitates a guitar in the recording of 
this song as well. They played it live on Letterman with the original line 
up of just two guitars and a bass though, so it can be done. Anyway, enjoy.

One last note, you can change the 0764 chord at the beginning to a 0799 and 
it won't make too much of a difference if you're finding it hard to switch 
from the end of the solo back to the chord.

===============================================================================

                               GUITAR ONE
e|---------------------------------------------------------------------------|
B|---------------------------------------------------------------------------|
G|--444----------------------------------------------------------------------|
D|--666----------------------------------------------------------------------|
A|--777----------------------------------------------------------------------|
E|--000----------------------------------------------------------------------|

                               GUITAR TWO
e|---------------------------------------------------------------------------|
B|---------------------------------------------------------------------------|
G|--444----------------------------------------------------------------------|
D|--666----------------------------------------------------------------------|
A|--777----------------------------------------------------------------------|
E|--000----------------------------------------------------------------------|

			       BASS GUITAR
G|---------------------------------------------------------------------------|
D|---------------------------------------------------------------------------|
A|---------------------------------------------------------------------------|
E|----0-0-0-0-0-0-0-0-0-0-0-0-0----------------------------------------------| etc.




                               GUITAR ONE
e|---------------------------------------------------------------------------|
B|---------------------------------------------------------------------------|
G|--444----------------------------------------------------------------------|
D|--666----------------------------------------------------------------------|
A|--777----------------------------------------------------------------------|
E|--000----------------------------------------------------------------------|

                               GUITAR TWO
e|---------------------------------------------------------------------------|
B|---------------------------------------------------------------------------|
G|--444----------------------------------------------------------------------|
D|--666----------------------------------------------------------------------|
A|--777----------------------------------------------------------------------|
E|--000----------------------------------------------------------------------|

			       BASS GUITAR
G|---------------------------------------------------------------------------|
D|---------------------------------------------------------------------------|
A|---------------------------------------------------------------------------|
E|----0-0-0-0-0-0-0-0-0-0-0-0-0----------------------------------------------| etc.




                               GUITAR ONE
e|---------------------------------------------------------------------------|
B|---------------------------------------------------------------------------|
G|---------------------------------------------------------------------------|
D|----------2-----------2----------2-----------2-----------------------------|
A|-------2-----2-----2----------2-----2-----2--------------------------------|
E|----0-----------0--------0-------------0-----------------------------------|

                               GUITAR TWO
e|---------------------------------------------------------------------------|
B|---------------------------------------------------------------------------|
G|---------------------------------------------------------------------------|
D|---------------------------------------------------------------------------|
A|---------------------------------------------------------------------------|
E|---------------------------------------------------------------------------|

			       BASS GUITAR
G|---------------------------------------------------------------------------|
D|---------------------------------------------------------------------------|
A|---------------------------------------------------------------------------|
E|----0-0-0-0-0-0-0-0-0-0-0-0-0----------------------------------------------| etc.




                               GUITAR ONE
e|---------------------------------------------------------------------------|
B|---------------------------------------------------------------------------|
G|-------/13--11--13---/16--16--13--11-11--13--------------------------------|
D|---------------------------------------------------------------------------|
A|---------------------------------------------------------------------------|
E|---------------------------------------------------------------------------|

                               GUITAR TWO
e|---------------------------------------------------------------------------|
B|---------------------------------------------------------------------------|
G|--444----------------------------------------------------------------------|
D|--666----------------------------------------------------------------------|
A|--777----------------------------------------------------------------------|
E|--000----------------------------------------------------------------------|

			       BASS GUITAR
G|---------------------------------------------------------------------------|
D|---------------------------------------------------------------------------|
A|---------------------------------------------------------------------------|
E|----0-0-0-0-0-0-0-0-0-0-0-0-0----------------------------------------------| etc.



                               GUITAR ONE
e|---------------------------------------------------------------------------|
B|---------------------------------------------------------------------------|
G|-------/13--11--13---/16--16--13--11-11--13--------------------------------|
D|---------------------------------------------------------------------------|
A|---------------------------------------------------------------------------|
E|---------------------------------------------------------------------------|

                               GUITAR TWO
e|---------------------------------------------------------------------------|
B|---------------------------------------------------------------------------|
G|--444----------------------------------------------------------------------|
D|--666----------------------------------------------------------------------|
A|--777----------------------------------------------------------------------|
E|--000----------------------------------------------------------------------|

			       BASS GUITAR
G|---------------------------------------------------------------------------|
D|---------------------------------------------------------------------------|
A|---------------------------------------------------------------------------|
E|----0-0-0-0-0-0-0-0-0-0-0-0-0----------------------------------------------| etc.




                               GUITAR ONE
e|---------------------------------------------------------------------------|
B|---------------------------------------------------------------------------|
G|------6-------8--8-------9--9-------8--8-----------------------------------|
D|---------------------------------------------------------------------------|
A|---------------------------------------------------------------------------|
E|---------------------------------------------------------------------------|

                               GUITAR TWO
e|---------------------------------------------------------------------------|
B|---------------------------------------------------------------------------|
G|------9------------------6--6----------------------------------------------|
D|------9-------9--9-------6--6-------9--9-----------------------------------|
A|------7-------9--9-------4--4-------9--9-----------------------------------|
E|------0-------7--7-------4--4-------7--7-----------------------------------|

			       BASS GUITAR
G|---------------------------------------------------------------------------|
D|---------------------------------------------------------------------------|
A|------7------------------4--4----------------------------------------------|
E|--------------7--7------------------7--7-----------------------------------|




                               GUITAR ONE
e|---------------------------------------------------------------------------|
B|---------------------------------------------------------------------------|
G|-------/13--11--13---/16--16--13--11-11--13--------------------------------|
D|---------------------------------------------------------------------------|
A|---------------------------------------------------------------------------|
E|---------------------------------------------------------------------------|

                               GUITAR TWO
e|---------------------------------------------------------------------------|
B|---------------------------------------------------------------------------|
G|--444----------------------------------------------------------------------|
D|--666----------------------------------------------------------------------|
A|--777----------------------------------------------------------------------|
E|--000----------------------------------------------------------------------|

			       BASS GUITAR
G|---------------------------------------------------------------------------|
D|---------------------------------------------------------------------------|
A|---------------------------------------------------------------------------|
E|----0-0-0-0-0-0-0-0-0-0-0-0-0----------------------------------------------| etc.




                               GUITAR ONE
e|---------------------------------------------------------------------------|
B|---------------------------------------------------------------------------|
G|-------/13--11--13---/16--16--13--11-11--13--------------------------------|
D|---------------------------------------------------------------------------|
A|---------------------------------------------------------------------------|
E|---------------------------------------------------------------------------|

                               GUITAR TWO
e|---------------------------------------------------------------------------|
B|---------------------------------------------------------------------------|
G|--444----------------------------------------------------------------------|
D|--666----------------------------------------------------------------------|
A|--777----------------------------------------------------------------------|
E|--000----------------------------------------------------------------------|

			       BASS GUITAR
G|---------------------------------------------------------------------------|
D|---------------------------------------------------------------------------|
A|---------------------------------------------------------------------------|
E|----0-0-0-0-0-0-0-0-0-0-0-0-0----------------------------------------------| etc.




                               GUITAR ONE
e|---------------------------------------------------------------------------|
B|---------------------------------------------------------------------------|
G|------6-------8--8-------9--9-------8--8-----------------------------------|
D|---------------------------------------------------------------------------|
A|---------------------------------------------------------------------------|
E|---------------------------------------------------------------------------|

                               GUITAR TWO
e|---------------------------------------------------------------------------|
B|---------------------------------------------------------------------------|
G|------9------------------6--6----------------------------------------------|
D|------9-------9--9-------6--6-------9--9-----------------------------------|
A|------7-------9--9-------4--4-------9--9-----------------------------------|
E|------0-------7--7-------4--4-------7--7-----------------------------------|

			       BASS GUITAR
G|---------------------------------------------------------------------------|
D|---------------------------------------------------------------------------|
A|------7------------------4--4----------------------------------------------|
E|--------------7--7------------------7--7-----------------------------------|




                               GUITAR ONE
e|---------------------------------------------------------------------------|
B|----2-------------------------------4--------------------------------------|
G|----2-------------------------------4--------------------------------------|
D|----2-------------------------------4--------------------------------------|
A|----0-------------------------------2--------------------------------------|
E|---------------------------------------------------------------------------|

                               GUITAR TWO
e|---------------------------------------------------------------------------|
B|---------------------------------------------------------------------------|
G|----2----2--2----2--2---------------4----4--4----4--4----------------------|
D|----2----2--2----2--2---------------4----4--4----4--4----------------------|
A|----0----0--0----0--0---------------2----2--2----2--2----------------------|
E|---------------------------------------------------------------------------|

			       BASS GUITAR
G|---------------------------------------------------------------------------|
D|---------------------------------------------------------------------------|
A|---------------------------------------------------------------------------|
E|----0-------------------------------2--------------------------------------|




                               GUITAR ONE
e|---------------------------------------------------------------------------|
B|---------------------------------------------------------------------------|
G|-------2--------2----------------------4--------4--------------------------|
D|----------2--------2----------------------4--------4-----------------------|
A|----0--------0--------0-------------2--------2--------2--------------------|
E|---------------------------------------------------------------------------|

                               GUITAR TWO
e|---------------------------------------------------------------------------|
B|---------------------------------------------------------------------------|
G|----2----2--2----2--2---------------4----4--4----4--4----------------------|
D|----2----2--2----2--2---------------4----4--4----4--4----------------------|
A|----0----0--0----0--0---------------2----2--2----2--2----------------------|
E|---------------------------------------------------------------------------|

			       BASS GUITAR
G|---------------------------------------------------------------------------|
D|---------------------------------------------------------------------------|
A|---------------------------------------------------------------------------|
E|----4-------------------------------2--------------------------------------|




                               GUITAR ONE
e|---------------------------------------------------------------------------|
B|----2-------------------------------4--------------------------------------|
G|----2-------------------------------4--------------------------------------|
D|----2-------------------------------4--------------------------------------|
A|----0-------------------------------2--------------------------------------|
E|---------------------------------------------------------------------------|

                               GUITAR TWO
e|---------------------------------------------------------------------------|
B|---------------------------------------------------------------------------|
G|----2----2--2----2--2---------------4----4--4----4--4----------------------|
D|----2----2--2----2--2---------------4----4--4----4--4----------------------|
A|----0----0--0----0--0---------------2----2--2----2--2----------------------|
E|---------------------------------------------------------------------------|

			       BASS GUITAR
G|---------------------------------------------------------------------------|
D|---------------------------------------------------------------------------|
A|---------------------------------------------------------------------------|
E|----0-------------------------------2--------------------------------------|




                               GUITAR ONE
e|---------------------------------------------------------------------------|
B|---------------------------------------------------------------------------|
G|-------2--------2----------------------4--------4--------------------------|
D|----------2--------2----------------------4--------4-----------------------|
A|----0--------0--------0-------------2--------2--------2--------------------|
E|---------------------------------------------------------------------------|

                               GUITAR TWO
e|---------------------------------------------------------------------------|
B|---------------------------------------------------------------------------|
G|----2----2--2----2--2---------------4----4--4----4--4----------------------|
D|----2----2--2----2--2---------------4----4--4----4--4----------------------|
A|----0----0--0----0--0---------------2----2--2----2--2----------------------|
E|---------------------------------------------------------------------------|

			       BASS GUITAR
G|---------------------------------------------------------------------------|
D|---------------------------------------------------------------------------|
A|---------------------------------------------------------------------------|
E|----4-------------------------------2--------------------------------------|




                               GUITAR ONE
e|---------------------------------------------------------------------------|
B|----2-------------------------------4--------------------------------------|
G|----2-------------------------------4--------------------------------------|
D|----2-------------------------------4--------------------------------------|
A|----0-------------------------------2--------------------------------------|
E|---------------------------------------------------------------------------|

                               GUITAR TWO
e|---------------------------------------------------------------------------|
B|---------------------------------------------------------------------------|
G|----2----2--2----2--2---------------4----4--4----4--4----------------------|
D|----2----2--2----2--2---------------4----4--4----4--4----------------------|
A|----0----0--0----0--0---------------2----2--2----2--2----------------------|
E|---------------------------------------------------------------------------|

			       BASS GUITAR
G|---------------------------------------------------------------------------|
D|---------------------------------------------------------------------------|
A|---------------------------------------------------------------------------|
E|----0-------------------------------2--------------------------------------|
          I ripped your heart out from your chest



                               GUITAR ONE
e|---------------------------------------------------------------------------|
B|---------------------------------------------------------------------------|
G|-------2--------2----------------------4--------4--------------------------|
D|----------2--------2----------------------4--------4-----------------------|
A|----0--------0--------0-------------2--------2--------2--------------------|
E|---------------------------------------------------------------------------|

                               GUITAR TWO
e|---------------------------------------------------------------------------|
B|---------------------------------------------------------------------------|
G|----2----2--2----2--2---------------4----4--4----4--4----------------------|
D|----2----2--2----2--2---------------4----4--4----4--4----------------------|
A|----0----0--0----0--0---------------2----2--2----2--2----------------------|
E|---------------------------------------------------------------------------|

			       BASS GUITAR
G|---------------------------------------------------------------------------|
D|---------------------------------------------------------------------------|
A|---------------------------------------------------------------------------|
E|----4-------------------------------2--------------------------------------|




                               GUITAR ONE
e|---------------------------------------------------------------------------|
B|----2-------------------------------4--------------------------------------|
G|----2-------------------------------4--------------------------------------|
D|----2-------------------------------4--------------------------------------|
A|----0-------------------------------2--------------------------------------|
E|---------------------------------------------------------------------------|

                               GUITAR TWO
e|---------------------------------------------------------------------------|
B|---------------------------------------------------------------------------|
G|----2----2--2----2--2---------------4----4--4----4--4----------------------|
D|----2----2--2----2--2---------------4----4--4----4--4----------------------|
A|----0----0--0----0--0---------------2----2--2----2--2----------------------|
E|---------------------------------------------------------------------------|

			       BASS GUITAR
G|---------------------------------------------------------------------------|
D|---------------------------------------------------------------------------|
A|---------------------------------------------------------------------------|
E|----0-------------------------------2--------------------------------------|
          Replaced it with a grenade blast.



                               GUITAR ONE
e|---------------------------------------------------------------------------|
B|---------------------------------------------------------------------------|
G|-------2--------2----------------------4--------4--------------------------|
D|----------2--------2----------------------4--------4-----------------------|
A|----0--------0--------0-------------2--------2--------2--------------------|
E|---------------------------------------------------------------------------|

                               GUITAR TWO
e|---------------------------------------------------------------------------|
B|---------------------------------------------------------------------------|
G|----2----2--2----2--2---------------4----4--4----4--4----------------------|
D|----2----2--2----2--2---------------4----4--4----4--4----------------------|
A|----0----0--0----0--0---------------2----2--2----2--2----------------------|
E|---------------------------------------------------------------------------|

			       BASS GUITAR
G|---------------------------------------------------------------------------|
D|---------------------------------------------------------------------------|
A|---------------------------------------------------------------------------|
E|----4-------------------------------2--------------------------------------|




                               GUITAR ONE
e|---------------------------------------------------------------------------|
B|---------------------------------------------------------------------------|
G|---------------------------------------------------------------------------|
D|--------------9h11--13---11---9h11-----------------------------------------|
A|----------11-----------------------9h11------------------------------------|
E|-----------------------------------------9---------------------------------|

                               GUITAR TWO
e|---------------------------------------------------------------------------|
B|---------------------------------------------------------------------------|
G|----6-6-6-6-6-6-6-6--------------------------------------------------------|
D|----6-6-6-6-6-6-6-6--------------------------------------------------------|
A|----4-4-4-4-4-4-4-4--------------------------------------------------------|
E|----4-4-4-4-4-4-4-4--------------------------------------------------------| etc.

			       BASS GUITAR
G|---------------------------------------------------------------------------|
D|---------------------------------------------------------------------------|
A|----4-4-4-4-4-4-4-4--------------------------------------------------------|
E|---------------------------------------------------------------------------| etc.
            Incinerate



                               GUITAR ONE
e|---------------------------------------------------------------------------|
B|---------------------------------------------------------------------------|
G|---------------------------------------------------------------------------|
D|--------------9h11--13---11---9h11-----------------------------------------|
A|----------11-----------------------9h11------------------------------------|
E|-----------------------------------------9---------------------------------|

                               GUITAR TWO
e|---------------------------------------------------------------------------|
B|---------------------------------------------------------------------------|
G|----6-6-6-6-6-6-6-6--------------------------------------------------------|
D|----6-6-6-6-6-6-6-6--------------------------------------------------------|
A|----4-4-4-4-4-4-4-4--------------------------------------------------------|
E|----4-4-4-4-4-4-4-4--------------------------------------------------------| etc.

			       BASS GUITAR
G|---------------------------------------------------------------------------|
D|---------------------------------------------------------------------------|
A|----4-4-4-4-4-4-4-4--------------------------------------------------------|
E|---------------------------------------------------------------------------| etc.
            Incinerate



                               GUITAR ONE
e|---------------------------------------------------------------------------|
B|---------------------------------------------------------------------------|
G|---------------------------------------------------------------------------|
D|--------------9h11--13---11---9h11-----------------------------------------|
A|----------11-----------------------9h11------------------------------------|
E|-----------------------------------------9---------------------------------|

                               GUITAR TWO
e|---------------------------------------------------------------------------|
B|---------------------------------------------------------------------------|
G|----6-6-6-6-6-6-6-6--------------------------------------------------------|
D|----6-6-6-6-6-6-6-6--------------------------------------------------------|
A|----4-4-4-4-4-4-4-4--------------------------------------------------------|
E|----4-4-4-4-4-4-4-4--------------------------------------------------------| etc.

			       BASS GUITAR
G|---------------------------------------------------------------------------|
D|---------------------------------------------------------------------------|
A|----4-4-4-4-4-4-4-4--------------------------------------------------------|
E|---------------------------------------------------------------------------| etc.
            Incinerate



                               GUITAR ONE
e|---------------------------------------------------------------------------|
B|---------------------------------------------------------------------------|
G|---------------------------------------------------------------------------|
D|--------------9h11--13---11---9h11-----------------------------------------|
A|----------11-----------------------9h11------------------------------------|
E|-----------------------------------------9---------------------------------|

                               GUITAR TWO
e|---------------------------------------------------------------------------|
B|---------------------------------------------------------------------------|
G|----6-6-6-6-6-6-6-6--------------------------------------------------------|
D|----6-6-6-6-6-6-6-6--------------------------------------------------------|
A|----4-4-4-4-4-4-4-4--------------------------------------------------------|
E|----4-4-4-4-4-4-4-4--------------------------------------------------------| etc.

			       BASS GUITAR
G|---------------------------------------------------------------------------|
D|---------------------------------------------------------------------------|
A|----4-4-4-4-4-4-4-4--------------------------------------------------------|
E|---------------------------------------------------------------------------| etc.
            Incinerate



                               GUITAR ONE
e|---------------------------------------------------------------------------|
B|---------------------------------------------------------------------------|
G|---------------------------------------------------------------------------|
D|-----777---7---7-7-7-7--7---7-7-7-7----------------------------------------|
A|-----777---7---7-7-7-7--7---7-7-7-7----------------------------------------|
E|-----555---5---5-5-5-5--5---5-5-5-5----------------------------------------|

                               GUITAR TWO
e|---------------------------------------------------------------------------|
B|---------------------------------------------------------------------------|
G|---------------------------------------------------------------------------|
D|-----777---7---7-7-7-7--7---7-7-7-7----------------------------------------|
A|-----777---7---7-7-7-7--7---7-7-7-7----------------------------------------|
E|-----555---5---5-5-5-5--5---5-5-5-5----------------------------------------|

			       BASS GUITAR
G|---------------------------------------------------------------------------|
D|---------------------------------------------------------------------------|
A|---------------------------------------------------------------------------|
E|-----5-5-5-5-5-5-5-5-5-5-5-5-5-5-5-----------------------------------------| etc.
      The firefighters hose me down



                               GUITAR ONE
e|---------------------------------------------------------------------------|
B|-------------------5-4-5-4-5-4---------------------------------------------|
G|-------------------------------6-4-----------------------------------------|
D|-----999-------------------------------------------------------------------|
A|-----999-------------------------------------------------------------------|
E|-----777-------------------------------------------------------------------|

                               GUITAR TWO
e|---------------------------------------------------------------------------|
B|---------------------------------------------------------------------------|
G|---------------------------------------------------------------------------|
D|-----999---9---9-9-9-9--9---9-9-9-9----------------------------------------|
A|-----999---9---9-9-9-9--9---9-9-9-9----------------------------------------|
E|-----777---7---7-7-7-7--7---7-7-7-7----------------------------------------|

			       BASS GUITAR
G|---------------------------------------------------------------------------|
D|---------------------------------------------------------------------------|
A|---------------------------------------------------------------------------|
E|-----7-7-7-7-7-7-7-7-7-7-7-7-7-7-7-----------------------------------------| etc.




                               GUITAR ONE
e|---------------------------------------------------------------------------|
B|---------------------------------------------------------------------------|
G|---------------------------------------------------------------------------|
D|-----777---7---7-7-7-7--7---7-7-7-7----------------------------------------|
A|-----777---7---7-7-7-7--7---7-7-7-7----------------------------------------|
E|-----555---5---5-5-5-5--5---5-5-5-5----------------------------------------|

                               GUITAR TWO
e|---------------------------------------------------------------------------|
B|---------------------------------------------------------------------------|
G|---------------------------------------------------------------------------|
D|-----777---7---7-7-7-7--7---7-7-7-7----------------------------------------|
A|-----777---7---7-7-7-7--7---7-7-7-7----------------------------------------|
E|-----555---5---5-5-5-5--5---5-5-5-5----------------------------------------|

			       BASS GUITAR
G|---------------------------------------------------------------------------|
D|---------------------------------------------------------------------------|
A|---------------------------------------------------------------------------|
E|-----5-5-5-5-5-5-5-5-5-5-5-5-5-5-5-----------------------------------------| etc.
       I don't care I'll burn out



                               GUITAR ONE
e|---------------------------------------------------------------------------|
B|---------------------------------------------------------------------------|
G|--------------------4------------------------------------------------------|
D|-----999--------4h6-----6---4h6p4------------------------------------------|
A|-----999---------------------------6---------------------------------------|
E|-----777-------------------------------------------------------------------|

                               GUITAR TWO
e|---------------------------------------------------------------------------|
B|---------------------------------------------------------------------------|
G|---------------------------------------------------------------------------|
D|-----999---9---9-9-9-9--9---9-9-9-9----------------------------------------|
A|-----999---9---9-9-9-9--9---9-9-9-9----------------------------------------|
E|-----777---7---7-7-7-7--7---7-7-7-7----------------------------------------|

			       BASS GUITAR
G|---------------------------------------------------------------------------|
D|---------------------------------------------------------------------------|
A|---------------------------------------------------------------------------|
E|-----7-7-7-7-7-7-7-7-7-7-7-7-7-7-7-----------------------------------------| etc.
      anyhow



                               GUITAR ONE
e|---------------------------------------------------------------------------|
B|---------------------------------------------------------------------------|
G|---------------------------------------------------------------------------|
D|-----777---7---7-7-7-7--7---7-7-7-7----------------------------------------|
A|-----777---7---7-7-7-7--7---7-7-7-7----------------------------------------|
E|-----555---5---5-5-5-5--5---5-5-5-5----------------------------------------|

                               GUITAR TWO
e|---------------------------------------------------------------------------|
B|---------------------------------------------------------------------------|
G|---------------------------------------------------------------------------|
D|-----777---7---7-7-7-7--7---7-7-7-7----------------------------------------|
A|-----777---7---7-7-7-7--7---7-7-7-7----------------------------------------|
E|-----555---5---5-5-5-5--5---5-5-5-5----------------------------------------|

			       BASS GUITAR
G|---------------------------------------------------------------------------|
D|---------------------------------------------------------------------------|
A|---------------------------------------------------------------------------|
E|-----5-5-5-5-5-5-5-5-5-5-5-5-5-5-5-----------------------------------------| etc.
       It's four-alarm girl, nothing to see



                               GUITAR ONE
e|---------------------------------------------------------------------------|
B|-------------------5-4-5-4-5-4---------------------------------------------|
G|-------------------------------6-4-----------------------------------------|
D|-----999-------------------------------------------------------------------|
A|-----999-------------------------------------------------------------------|
E|-----777-------------------------------------------------------------------|

                               GUITAR TWO
e|---------------------------------------------------------------------------|
B|---------------------------------------------------------------------------|
G|---------------------------------------------------------------------------|
D|-----999---9---9-9-9-9--9---9-9-9-9----------------------------------------|
A|-----999---9---9-9-9-9--9---9-9-9-9----------------------------------------|
E|-----777---7---7-7-7-7--7---7-7-7-7----------------------------------------|

			       BASS GUITAR
G|---------------------------------------------------------------------------|
D|---------------------------------------------------------------------------|
A|---------------------------------------------------------------------------|
E|-----7-7-7-7-7-7-7-7-7-7-7-7-7-7-7-----------------------------------------| etc.




                               GUITAR ONE
e|---------------------------------------------------------------------------|
B|---------------------------------------------------------------------------|
G|---------------------------------------------------------------------------|
D|-----777---7---7-7-7-7--7---7-7-7-7----------------------------------------|
A|-----777---7---7-7-7-7--7---7-7-7-7----------------------------------------|
E|-----555---5---5-5-5-5--5---5-5-5-5----------------------------------------|

                               GUITAR TWO
e|---------------------------------------------------------------------------|
B|---------------------------------------------------------------------------|
G|---------------------------------------------------------------------------|
D|-----777---7---7-7-7-7--7---7-7-7-7----------------------------------------|
A|-----777---7---7-7-7-7--7---7-7-7-7----------------------------------------|
E|-----555---5---5-5-5-5--5---5-5-5-5----------------------------------------|

			       BASS GUITAR
G|---------------------------------------------------------------------------|
D|---------------------------------------------------------------------------|
A|---------------------------------------------------------------------------|
E|-----5-5-5-5-5-5-5-5-5-5-5-5-5-5-5-----------------------------------------| etc.
       I hear the sirens come for me



                               GUITAR ONE
e|---------------------------------------------------------------------------|
B|---------------------------------------------------------------------------|
G|---------------------------------------------------------------------------|
D|-----999---9---9-9-9-9--9---9-9-9-9----------------------------------------|
A|-----999---9---9-9-9-9--9---9-9-9-9----------------------------------------|
E|-----777---7---7-7-7-7--7---7-7-7-7----------------------------------------|

                               GUITAR TWO
e|---------------------------------------------------------------------------|
B|---------------------------------------------------------------------------|
G|---------------------------------------------------------------------------|
D|-----999---9---9-9-9-9--9---9-9-9-9----------------------------------------|
A|-----999---9---9-9-9-9--9---9-9-9-9----------------------------------------|
E|-----777---7---7-7-7-7--7---7-7-7-7----------------------------------------|

			       BASS GUITAR
G|---------------------------------------------------------------------------|
D|---------------------------------------------------------------------------|
A|---------------------------------------------------------------------------|
E|-----7-7-7-7-7-7-7-7-7-7-7-7-7-7-7-----------------------------------------| etc.




                               GUITAR ONE
e|---------------------------------------------------------------------------|
B|---------------------------------------------------------------------------|
G|-------/13--11--13---/16--16--13--11-11--13--------------------------------|
D|---------------------------------------------------------------------------|
A|---------------------------------------------------------------------------|
E|---------------------------------------------------------------------------|

                               GUITAR TWO
e|---------------------------------------------------------------------------|
B|---------------------------------------------------------------------------|
G|--444----------------------------------------------------------------------|
D|--666----------------------------------------------------------------------|
A|--777----------------------------------------------------------------------|
E|--000----------------------------------------------------------------------|

			       BASS GUITAR
G|---------------------------------------------------------------------------|
D|---------------------------------------------------------------------------|
A|---------------------------------------------------------------------------|
E|----0-0-0-0-0-0-0-0-0-0-0-0-0----------------------------------------------| etc.



                               GUITAR ONE
e|---------------------------------------------------------------------------|
B|---------------------------------------------------------------------------|
G|-------/13--11--13---/16--16--13--11-11--13--------------------------------|
D|---------------------------------------------------------------------------|
A|---------------------------------------------------------------------------|
E|---------------------------------------------------------------------------|

                               GUITAR TWO
e|---------------------------------------------------------------------------|
B|---------------------------------------------------------------------------|
G|--444----------------------------------------------------------------------|
D|--666----------------------------------------------------------------------|
A|--777----------------------------------------------------------------------|
E|--000----------------------------------------------------------------------|

			       BASS GUITAR
G|---------------------------------------------------------------------------|
D|---------------------------------------------------------------------------|
A|---------------------------------------------------------------------------|
E|----0-0-0-0-0-0-0-0-0-0-0-0-0----------------------------------------------| etc.




                               GUITAR ONE
e|---------------------------------------------------------------------------|
B|---------------------------------------------------------------------------|
G|------6-------8--8-------9--9-------8--8-----------------------------------|
D|---------------------------------------------------------------------------|
A|---------------------------------------------------------------------------|
E|---------------------------------------------------------------------------|

                               GUITAR TWO
e|---------------------------------------------------------------------------|
B|---------------------------------------------------------------------------|
G|------9------------------6--6----------------------------------------------|
D|------9-------9--9-------6--6-------9--9-----------------------------------|
A|------7-------9--9-------4--4-------9--9-----------------------------------|
E|------0-------7--7-------4--4-------7--7-----------------------------------|

			       BASS GUITAR
G|---------------------------------------------------------------------------|
D|---------------------------------------------------------------------------|
A|------7------------------4--4----------------------------------------------|
E|--------------7--7------------------7--7-----------------------------------|




                               GUITAR ONE
e|---------------------------------------------------------------------------|
B|---------------------------------------------------------------------------|
G|-------/13--11--13---/16--16--13--11-11--13--------------------------------|
D|---------------------------------------------------------------------------|
A|---------------------------------------------------------------------------|
E|---------------------------------------------------------------------------|

                               GUITAR TWO
e|---------------------------------------------------------------------------|
B|---------------------------------------------------------------------------|
G|--444----------------------------------------------------------------------|
D|--666----------------------------------------------------------------------|
A|--777----------------------------------------------------------------------|
E|--000----------------------------------------------------------------------|

			       BASS GUITAR
G|---------------------------------------------------------------------------|
D|---------------------------------------------------------------------------|
A|---------------------------------------------------------------------------|
E|----0-0-0-0-0-0-0-0-0-0-0-0-0----------------------------------------------| etc.




                               GUITAR ONE
e|---------------------------------------------------------------------------|
B|---------------------------------------------------------------------------|
G|-------/13--11--13---/16--16--13--11-11--13--------------------------------|
D|---------------------------------------------------------------------------|
A|---------------------------------------------------------------------------|
E|---------------------------------------------------------------------------|

                               GUITAR TWO
e|---------------------------------------------------------------------------|
B|---------------------------------------------------------------------------|
G|--444----------------------------------------------------------------------|
D|--666----------------------------------------------------------------------|
A|--777----------------------------------------------------------------------|
E|--000----------------------------------------------------------------------|

			       BASS GUITAR
G|---------------------------------------------------------------------------|
D|---------------------------------------------------------------------------|
A|---------------------------------------------------------------------------|
E|----0-0-0-0-0-0-0-0-0-0-0-0-0----------------------------------------------| etc.




                               GUITAR ONE
e|---------------------------------------------------------------------------|
B|---------------------------------------------------------------------------|
G|------6-------8--8-------9--9-------8--8-----------------------------------|
D|---------------------------------------------------------------------------|
A|---------------------------------------------------------------------------|
E|---------------------------------------------------------------------------|

                               GUITAR TWO
e|---------------------------------------------------------------------------|
B|---------------------------------------------------------------------------|
G|------9------------------6--6----------------------------------------------|
D|------9-------9--9-------6--6-------9--9-----------------------------------|
A|------7-------9--9-------4--4-------9--9-----------------------------------|
E|------0-------7--7-------4--4-------7--7-----------------------------------|

			       BASS GUITAR
G|---------------------------------------------------------------------------|
D|---------------------------------------------------------------------------|
A|------7------------------4--4----------------------------------------------|
E|--------------7--7------------------7--7-----------------------------------|




                               GUITAR ONE
e|---------------------------------------------------------------------------|
B|------------------------------------------------4--------------------------|
G|----------2----------------------------------4-----4-----------------------|
D|-------2----2-----------------------------4-----------4--------------------|
A|----0----------0-----------------------2-----------------------------------|
E|---------------------------------------------------------------------------|

                               GUITAR TWO
e|---------------------------------------------------------------------------|
B|---------------------------------------------------------------------------|
G|----2---2-2-2-2------------------------4---4-4-4-4-------------------------|
D|----2---2-2-2-2------------------------4---4-4-4-4-------------------------|
A|----0---0-0-0-0------------------------2---2-2-2-2-------------------------|
E|---------------------------------------------------------------------------|

			       BASS GUITAR
G|---------------------------------------------------------------------------|
D|---------------------------------------------------------------------------|
A|---------------------------------------------------------------------------|
E|----0----------------------------------2-----------------------------------|




                               GUITAR ONE
e|---------------------------------------------------------------------------|
B|----5----------------------------------4-----------------------------------|
G|--------6----------------------------------4-------------------------------|
D|------------6----------------------------------4-------4-------------------|
A|----4----------------------------------2-----------2-----------------------|
E|---------------------------------------------------------------------------|

                               GUITAR TWO
e|---------------------------------------------------------------------------|
B|---------------------------------------------------------------------------|
G|----6---6-6-6-6------------------------4---4-4-4-4-------------------------|
D|----6---6-6-6-6------------------------4---4-4-4-4-------------------------|
A|----4---4-4-4-4------------------------2---2-2-2-2-------------------------|
E|---------------------------------------------------------------------------|

			       BASS GUITAR
G|---------------------------------------------------------------------------|
D|---------------------------------------------------------------------------|
A|---------------------------------------------------------------------------|
E|----4----------------------------------2-----------------------------------|




                               GUITAR ONE
e|---------------------------------------------------------------------------|
B|---------------------------------------------4-----------------------------|
G|----------2----------------------------------4-----------------------------|
D|-------2----2-----------------------------4-----4--------------------------|
A|----0----------0-----------------------2-----------------------------------|
E|---------------------------------------------------------------------------|

                               GUITAR TWO
e|---------------------------------------------------------------------------|
B|---------------------------------------------------------------------------|
G|----2---2-2-2-2------------------------4---4-4-4-4-------------------------|
D|----2---2-2-2-2------------------------4---4-4-4-4-------------------------|
A|----0---0-0-0-0------------------------2---2-2-2-2-------------------------|
E|---------------------------------------------------------------------------|

			       BASS GUITAR
G|---------------------------------------------------------------------------|
D|---------------------------------------------------------------------------|
A|---------------------------------------------------------------------------|
E|----0----------------------------------2-----------------------------------|




                               GUITAR ONE
e|---------------------------------------------------------------------------|
B|----5-5-5-5-5--------------------------4-4---------------------------------|
G|----6-6-6-6-6--------------------------4-4---------------------------------|
D|----6-6-6-6-6--------------------------4-4---------------------------------|
A|----4-4-4-4-4--------------------------2-2---------------------------------|
E|---------------------------------------------------------------------------|

                               GUITAR TWO
e|---------------------------------------------------------------------------|
B|---------------------------------------------------------------------------|
G|----6---6-6-6-6------------------------4---4-4-4-4-------------------------|
D|----6---6-6-6-6------------------------4---4-4-4-4-------------------------|
A|----4---4-4-4-4------------------------2---2-2-2-2-------------------------|
E|---------------------------------------------------------------------------|

			       BASS GUITAR
G|---------------------------------------------------------------------------|
D|---------------------------------------------------------------------------|
A|---------------------------------------------------------------------------|
E|----4----------------------------------2-----------------------------------|




                               GUITAR ONE
e|---------------------------------------------------------------------------|
B|------------------------------------------------4--------------------------|
G|----------2----------------------------------4-----4-----------------------|
D|-------2----2-----------------------------4-----------4--------------------|
A|----0----------0-----------------------2-----------------------------------|
E|---------------------------------------------------------------------------|

                               GUITAR TWO
e|---------------------------------------------------------------------------|
B|---------------------------------------------------------------------------|
G|----2---2-2-2-2------------------------4---4-4-4-4-------------------------|
D|----2---2-2-2-2------------------------4---4-4-4-4-------------------------|
A|----0---0-0-0-0------------------------2---2-2-2-2-------------------------|
E|---------------------------------------------------------------------------|

			       BASS GUITAR
G|---------------------------------------------------------------------------|
D|---------------------------------------------------------------------------|
A|---------------------------------------------------------------------------|
E|----0----------------------------------2-----------------------------------|
     You doused my soul with gasoline




                               GUITAR ONE
e|---------------------------------------------------------------------------|
B|----5----------------------------------4-----------------------------------|
G|--------6----------------------------------4-------------------------------|
D|------------6----------------------------------4-------4-------------------|
A|----4----------------------------------2-----------2-----------------------|
E|---------------------------------------------------------------------------|

                               GUITAR TWO
e|---------------------------------------------------------------------------|
B|---------------------------------------------------------------------------|
G|----6---6-6-6-6------------------------4---4-4-4-4-------------------------|
D|----6---6-6-6-6------------------------4---4-4-4-4-------------------------|
A|----4---4-4-4-4------------------------2---2-2-2-2-------------------------|
E|---------------------------------------------------------------------------|

			       BASS GUITAR
G|---------------------------------------------------------------------------|
D|---------------------------------------------------------------------------|
A|---------------------------------------------------------------------------|
E|----4----------------------------------2-----------------------------------|




                               GUITAR ONE
e|---------------------------------------------------------------------------|
B|---------------------------------------------4-----------------------------|
G|----------2----------------------------------4-----------------------------|
D|-------2----2-----------------------------4-----4--------------------------|
A|----0----------0-----------------------2-----------------------------------|
E|---------------------------------------------------------------------------|

                               GUITAR TWO
e|---------------------------------------------------------------------------|
B|---------------------------------------------------------------------------|
G|----2---2-2-2-2------------------------4---4-4-4-4-------------------------|
D|----2---2-2-2-2------------------------4---4-4-4-4-------------------------|
A|----0---0-0-0-0------------------------2---2-2-2-2-------------------------|
E|---------------------------------------------------------------------------|

			       BASS GUITAR
G|---------------------------------------------------------------------------|
D|---------------------------------------------------------------------------|
A|---------------------------------------------------------------------------|
E|----0----------------------------------2-----------------------------------|
     You flicked a match into my brain



                               GUITAR ONE
e|---------------------------------------------------------------------------|
B|----5-5-5-5-5--------------------------4-4---------------------------------|
G|----6-6-6-6-6--------------------------4-4---------------------------------|
D|----6-6-6-6-6--------------------------4-4---------------------------------|
A|----4-4-4-4-4--------------------------2-2---------------------------------|
E|---------------------------------------------------------------------------|

                               GUITAR TWO
e|---------------------------------------------------------------------------|
B|---------------------------------------------------------------------------|
G|----6---6-6-6-6------------------------4---4-4-4-4-------------------------|
D|----6---6-6-6-6------------------------4---4-4-4-4-------------------------|
A|----4---4-4-4-4------------------------2---2-2-2-2-------------------------|
E|---------------------------------------------------------------------------|

			       BASS GUITAR
G|---------------------------------------------------------------------------|
D|---------------------------------------------------------------------------|
A|---------------------------------------------------------------------------|
E|----4----------------------------------2-----------------------------------|



                               GUITAR ONE
e|---------------------------------------------------------------------------|
B|---------------------------------------------------------------------------|
G|---------------------------------------------------------------------------|
D|--------------9h11--13---11---9h11-----------------------------------------|
A|----------11-----------------------9h11------------------------------------|
E|-----------------------------------------9---------------------------------|

                               GUITAR TWO
e|---------------------------------------------------------------------------|
B|---------------------------------------------------------------------------|
G|----6-6-6-6-6-6-6-6--------------------------------------------------------|
D|----6-6-6-6-6-6-6-6--------------------------------------------------------|
A|----4-4-4-4-4-4-4-4--------------------------------------------------------|
E|----4-4-4-4-4-4-4-4--------------------------------------------------------| etc.

			       BASS GUITAR
G|---------------------------------------------------------------------------|
D|---------------------------------------------------------------------------|
A|----4-4-4-4-4-4-4-4--------------------------------------------------------|
E|---------------------------------------------------------------------------| etc.
            Incinerate



                               GUITAR ONE
e|---------------------------------------------------------------------------|
B|---------------------------------------------------------------------------|
G|---------------------------------------------------------------------------|
D|--------------9h11--13---11---9h11-----------------------------------------|
A|----------11-----------------------9h11------------------------------------|
E|-----------------------------------------9---------------------------------|

                               GUITAR TWO
e|---------------------------------------------------------------------------|
B|---------------------------------------------------------------------------|
G|----6-6-6-6-6-6-6-6--------------------------------------------------------|
D|----6-6-6-6-6-6-6-6--------------------------------------------------------|
A|----4-4-4-4-4-4-4-4--------------------------------------------------------|
E|----4-4-4-4-4-4-4-4--------------------------------------------------------| etc.

			       BASS GUITAR
G|---------------------------------------------------------------------------|
D|---------------------------------------------------------------------------|
A|----4-4-4-4-4-4-4-4--------------------------------------------------------|
E|---------------------------------------------------------------------------| etc.
            Incinerate



                               GUITAR ONE
e|---------------------------------------------------------------------------|
B|---------------------------------------------------------------------------|
G|---------------------------------------------------------------------------|
D|--------------9h11--13---11---9h11-----------------------------------------|
A|----------11-----------------------9h11------------------------------------|
E|-----------------------------------------9---------------------------------|

                               GUITAR TWO
e|---------------------------------------------------------------------------|
B|---------------------------------------------------------------------------|
G|----6-6-6-6-6-6-6-6--------------------------------------------------------|
D|----6-6-6-6-6-6-6-6--------------------------------------------------------|
A|----4-4-4-4-4-4-4-4--------------------------------------------------------|
E|----4-4-4-4-4-4-4-4--------------------------------------------------------| etc.

			       BASS GUITAR
G|---------------------------------------------------------------------------|
D|---------------------------------------------------------------------------|
A|----4-4-4-4-4-4-4-4--------------------------------------------------------|
E|---------------------------------------------------------------------------| etc.
            Incinerate



                               GUITAR ONE
e|---------------------------------------------------------------------------|
B|---------------------------------------------------------------------------|
G|---------------------------------------------------------------------------|
D|--------------9h11--13---11---9h11-----------------------------------------|
A|----------11-----------------------9h11------------------------------------|
E|-----------------------------------------9---------------------------------|

                               GUITAR TWO
e|---------------------------------------------------------------------------|
B|---------------------------------------------------------------------------|
G|----6-6-6-6-6-6-6-6--------------------------------------------------------|
D|----6-6-6-6-6-6-6-6--------------------------------------------------------|
A|----4-4-4-4-4-4-4-4--------------------------------------------------------|
E|----4-4-4-4-4-4-4-4--------------------------------------------------------| etc.

			       BASS GUITAR
G|---------------------------------------------------------------------------|
D|---------------------------------------------------------------------------|
A|----4-4-4-4-4-4-4-4--------------------------------------------------------|
E|---------------------------------------------------------------------------| etc.
            Incinerate



                               GUITAR ONE
e|---------------------------------------------------------------------------|
B|---------------------------------------------------------------------------|
G|----------6--8--9--11------------------------------------------------------|
D|-----7---------------------------------------------------------------------|
A|-----7---------------------------------------------------------------------|
E|-----5---------------------------------------------------------------------|

                               GUITAR TWO
e|---------------------------------------------------------------------------|
B|---------------------------------------------------------------------------|
G|---------------------------------------------------------------------------|
D|-----777---7---7-7-7-7--7---7-7-7-7----------------------------------------|
A|-----777---7---7-7-7-7--7---7-7-7-7----------------------------------------|
E|-----555---5---5-5-5-5--5---5-5-5-5----------------------------------------|

			       BASS GUITAR
G|---------------------------------------------------------------------------|
D|---------------------------------------------------------------------------|
A|---------------------------------------------------------------------------|
E|-----5-5-5-5-5-5-5-5-5-5-5-5-5-5-5-----------------------------------------| etc.
      The firefighters are so nice



                               GUITAR ONE
e|---------------------------------------------------------------------------|
B|------9---9-10-9-----------------------------------------------------------|
G|------------------11-9h11h9h11---------------------------------------------|
D|---------------------------------------------------------------------------|
A|---------------------------------------------------------------------------|
E|---------------------------------------------------------------------------|

                               GUITAR TWO
e|---------------------------------------------------------------------------|
B|---------------------------------------------------------------------------|
G|---------------------------------------------------------------------------|
D|-----999---9---9-9-----/6---6-6-6-6-4--------------------------------------|
A|-----999---9---9-9---------------------7-6---------------------------------|
E|-----777---7---7-7---------------------------------------------------------|

			       BASS GUITAR
G|---------------------------------------------------------------------------|
D|---------------------------------------------------------------------------|
A|---------------------------------------------------------------------------|
E|-----7-7-7-7-7-7-7-7-7-7-7-7-7-7-7-----------------------------------------| etc.




                               GUITAR ONE
e|---------------------------------------------------------------------------|
B|---------------------------------------------------------------------------|
G|-----6----6----6h8---9------------------------------------------------------|
D|---------------------------------------------------------------------------|
A|---------------------------------------------------------------------------|
E|---------------------------------------------------------------------------|

                               GUITAR TWO
e|---------------------------------------------------------------------------|
B|---------------------------------------------------------------------------|
G|---------------------------------------------------------------------------|
D|-----777---7---7-7-7-7--7---7-7-7-7----------------------------------------|
A|-----777---7---7-7-7-7--7---7-7-7-7----------------------------------------|
E|-----555---5---5-5-5-5--5---5-5-5-5----------------------------------------|

			       BASS GUITAR
G|---------------------------------------------------------------------------|
D|---------------------------------------------------------------------------|
A|---------------------------------------------------------------------------|
E|-----5-5-5-5-5-5-5-5-5-5-5-5-5-5-5-----------------------------------------| etc.
      I remember you so cold as ice



                               GUITAR ONE
e|---------------------------------------------------------------------------|
B|---------------------------------------------------------------------------|
G|------8----6h8---6h8p6---4h6-----------------------------------------------|
D|------------------------------4h6------------------------------------------|
A|---------------------------------------------------------------------------|
E|---------------------------------------------------------------------------|

                               GUITAR TWO
e|---------------------------------------------------------------------------|
B|---------------------------------------------------------------------------|
G|---------------------------------------------------------------------------|
D|-----999---9---9-9-----/6---6-6-6-6-4--------------------------------------|
A|-----999---9---9-9---------------------7-6---------------------------------|
E|-----777---7---7-7---------------------------------------------------------|

			       BASS GUITAR
G|---------------------------------------------------------------------------|
D|---------------------------------------------------------------------------|
A|---------------------------------------------------------------------------|
E|-----7-7-7-7-7-7-7-7-7-7-7-7-7-7-7-----------------------------------------| etc.




                               GUITAR ONE
e|---------------------------------------------------------------------------|
B|---------------------------------------------------------------------------|
G|-------------------------------4h6-----------------------------------------|
D|-----7---------------------------------------------------------------------|
A|-----7---------------------------------------------------------------------|
E|-----5---------------------------------------------------------------------|

                               GUITAR TWO
e|---------------------------------------------------------------------------|
B|---------------------------------------------------------------------------|
G|---------------------------------------------------------------------------|
D|-----777---7---7-7-7-7--7---7-7-7-7----------------------------------------|
A|-----777---7---7-7-7-7--7---7-7-7-7----------------------------------------|
E|-----555---5---5-5-5-5--5---5-5-5-5----------------------------------------|

			       BASS GUITAR
G|---------------------------------------------------------------------------|
D|---------------------------------------------------------------------------|
A|---------------------------------------------------------------------------|
E|-----5-5-5-5-5-5-5-5-5-5-5-5-5-5-5-----------------------------------------| etc.
      The flames are licking at your feet



                               GUITAR ONE
e|---------------------------------------------------------------------------|
B|---------------------------------------------------------------------------|
G|--------------4----2-------------------------------------------------------|
D|--------4h6----------------------------------------------------------------|
A|---------------------------------------------------------------------------|
E|---------------------------------------------------------------------------|

                               GUITAR TWO
e|---------------------------------------------------------------------------|
B|---------------------------------------------------------------------------|
G|---------------------------------------------------------------------------|
D|-----999---9---9-9-----/6---6-6-6-6-4--------------------------------------|
A|-----999---9---9-9---------------------7-6---------------------------------|
E|-----777---7---7-7---------------------------------------------------------|

			       BASS GUITAR
G|---------------------------------------------------------------------------|
D|---------------------------------------------------------------------------|
A|---------------------------------------------------------------------------|
E|-----7-7-7-7-7-7-7-7-7-7-7-7-7-7-7-----------------------------------------| etc.




                               GUITAR ONE
e|---------------------------------------------------------------------------|
B|---------------------------------------------------------------------------|
G|---------------------------------------------------------------------------|
D|-----6-----4-------2-------------------------------------------------------|
A|---------------------------------------------------------------------------|
E|---------------------------------------------------------------------------|

                               GUITAR TWO
e|---------------------------------------------------------------------------|
B|---------------------------------------------------------------------------|
G|---------------------------------------------------------------------------|
D|-----777---7---7-7-7-7--7---7-7-7-7----------------------------------------|
A|-----777---7---7-7-7-7--7---7-7-7-7----------------------------------------|
E|-----555---5---5-5-5-5--5---5-5-5-5----------------------------------------|

			       BASS GUITAR
G|---------------------------------------------------------------------------|
D|---------------------------------------------------------------------------|
A|---------------------------------------------------------------------------|
E|-----5-5-5-5-5-5-5-5-5-5-5-5-5-5-5-----------------------------------------| etc.
      The sirens come to put me



                               GUITAR ONE
e|---------------------------------------------------------------------------|
B|---------------------------------------------------------------------------|
G|---------------------------------------------------------------------------|
D|---------------------------------------------------------------------------|
A|-----2---------------------------------------------------------------------|
E|---------------------------------------------------------------------------|

                               GUITAR TWO
e|---------------------------------------------------------------------------|
B|---------------------------------------------------------------------------|
G|---------------------------------------------------------------------------|
D|-----999---9---9-9---9---9-9----9---9-9-9-9--------------------------------|
A|-----999---9---9-9---9---9-9----9---9-9-9-9--------------------------------|
E|-----777---7---7-7---7---7-7----7---7-7-7-7--------------------------------|

			       BASS GUITAR
G|---------------------------------------------------------------------------|
D|---------------------------------------------------------------------------|
A|---------------------------------------------------------------------------|
E|-----7-7-7-7-7-7-7-7-7-7-7-7-7-7-7-----------------------------------------| etc.
     out of misery



                               GUITAR ONE
e|---------------------------------------------------------------------------|
B|---------------------------------------------------------------------------|
G|---444---------------------------------------------------------------------|
D|---666---------------------------------------------------------------------|
A|---777---------------------------------------------------------------------|
E|---000---------------------------------------------------------------------|

                               GUITAR TWO
e|---------------------------------------------------------------------------|
B|---------------------------------------------------------------------------|
G|---444---------------------------------------------------------------------|
D|---666---------------------------------------------------------------------|
A|---777---------------------------------------------------------------------|
E|---000---------------------------------------------------------------------|

			       BASS GUITAR
G|---------------------------------------------------------------------------|
D|---------------------------------------------------------------------------|
A|---------------------------------------------------------------------------|
E|---000-0-0-0-0-0-0-0-0-0-0-0-0-0-0-----------------------------------------| etc.




                               GUITAR ONE
e|---------------------------------------------------------------------------|
B|---------------------------------------------------------------------------|
G|---444---------------------------------------------------------------------|
D|---666---------------------------------------------------------------------|
A|---777---------------------------------------------------------------------|
E|---000---------------------------------------------------------------------|

                               GUITAR TWO
e|---------------------------------------------------------------------------|
B|---------------------------------------------------------------------------|
G|---444---------------------------------------------------------------------|
D|---666---------------------------------------------------------------------|
A|---777---------------------------------------------------------------------|
E|---000---------------------------------------------------------------------|

			       BASS GUITAR
G|---------------------------------------------------------------------------|
D|---------------------------------------------------------------------------|
A|---------------------------------------------------------------------------|
E|---000-0-0-0-0-0-0-0-0-0-0-0-0-0-0-----------------------------------------| etc.




                               GUITAR ONE
e|---------------------------------------------------------------------------|
B|-------9---10---12---10---9------------------------------------------------|
G|----9----------------------------------------------------------------------|
D|---------------------------------------------------------------------------|
A|---------------------------------------------------------------------------|
E|---------------------------------------------------------------------------|

                               GUITAR TWO
e|---------------------------------------------------------------------------|
B|---------------------------------------------------------------------------|
G|---------------------------------------------------------------------------|
D|-------9---11---13---11---9------------------------------------------------|
A|---------------------------------------------------------------------------|
E|---------------------------------------------------------------------------|

			       BASS GUITAR
G|---------------------------------------------------------------------------|
D|---------------------------------------------------------------------------|
A|---------------------------------------------------------------------------|
E|---000-0-0-0-0-0-0-0-0-0-0-0-0-0-0-----------------------------------------| etc.




                               GUITAR ONE
e|---------------------------------------------------------------------------|
B|-------9---10---12---10---9------------------------------------------------|
G|----9----------------------------------------------------------------------|
D|---------------------------------------------------------------------------|
A|---------------------------------------------------------------------------|
E|---------------------------------------------------------------------------|

                               GUITAR TWO
e|---------------------------------------------------------------------------|
B|---------------------------------------------------------------------------|
G|--------------------------9------------------------------------------------|
D|-------9---11---13---11----------------------------------------------------|
A|---------------------------------------------------------------------------|
E|---------------------------------------------------------------------------|

			       BASS GUITAR
G|---------------------------------------------------------------------------|
D|---------------------------------------------------------------------------|
A|---------------------------------------------------------------------------|
E|---000-0-0-0-0-0-0-0-0-0-0-0-0-0-0-----------------------------------------| etc.




                               GUITAR ONE
e|---------------------------------------------------------------------------|
B|---------------------------------------------------------------------------|
G|-------4---6--------4---6----------4---6-------4---6-----------------------|
D|---6------------6--------------6-----------6-------------------------------|
A|---------------------------------------------------------------------------|
E|---------------------------------------------------------------------------|

                               GUITAR TWO
e|---------------------------------------------------------------------------|
B|---------------------------------------------------------------------------|
G|---------------------------------------------------------------------------|
D|---9-9-9-9-9-9-9-9-9-9-9-9-9-9-9-------------------------------------------|
A|---------------------------------------------------------------------------|
E|---------------------------------------------------------------------------| etc.

			       BASS GUITAR
G|---------------------------------------------------------------------------|
D|---------------------------------------------------------------------------|
A|---------------------------------------------------------------------------|
E|---000-0-0-0-0-0-0-0-0-0-0-0-0-0-0-----------------------------------------| etc.




                               GUITAR ONE
e|---------------------------------------------------------------------------|
B|---------------------------------------------------------------------------|
G|-------6---8--------6---8----------6---8--------6---8----------------------|
D|---6------------6--------------6------------6------------------------------|
A|---------------------------------------------------------------------------|
E|---------------------------------------------------------------------------|

                               GUITAR TWO
e|---------------------------------------------------------------------------|
B|---------------------------------------------------------------------------|
G|---------------------------------------------------------------------------|
D|---11-11-11-11-11-11-11-11-11-11-11-11-------------------------------------|
A|---------------------------------------------------------------------------|
E|---------------------------------------------------------------------------| etc.

			       BASS GUITAR
G|---------------------------------------------------------------------------|
D|---------------------------------------------------------------------------|
A|---------------------------------------------------------------------------|
E|---000-0-0-0-0-0-0-0-0-0-0-0-0-0-0-----------------------------------------| etc.




                               GUITAR ONE
e|---------------------------------------------------------------------------|
B|---------------------------------------------------------------------------|
G|---9-9-9-9-9-9-9-9-9-9-9-9-9-9-9-9-----------------------------------------|
D|---------------------------------------------------------------------------|
A|---------------------------------------------------------------------------|
E|---------------------------------------------------------------------------|

                               GUITAR TWO
e|---------------------------------------------------------------------------|
B|---------------------------------------------------------------------------|
G|---9-9-9-9-9-9-9-9-9-9-9-9-9-9-9-9-----------------------------------------|
D|---------------------------------------------------------------------------|
A|---------------------------------------------------------------------------|
E|---------------------------------------------------------------------------|etc.

			       BASS GUITAR
G|---------------------------------------------------------------------------|
D|---------------------------------------------------------------------------|
A|---------------------------------------------------------------------------|
E|---000-0-0-0-0-0-0-0-0-0-0-0-0-0-0-----------------------------------------| etc.




                               GUITAR ONE
e|---------------------------------------------------------------------------|
B|---------------------------------------------------------------------------|
G|---11-11-11-11-11-11-11-11-11-11-11-11-------------------------------------|
D|---------------------------------------------------------------------------|
A|---------------------------------------------------------------------------|
E|---------------------------------------------------------------------------|

                               GUITAR TWO
e|---------------------------------------------------------------------------|
B|---------------------------------------------------------------------------|
G|---11-11-11-11-11-11-11-11-11-11-11-11-------------------------------------|
D|---------------------------------------------------------------------------|
A|---------------------------------------------------------------------------|
E|---------------------------------------------------------------------------| etc.

			       BASS GUITAR
G|---------------------------------------------------------------------------|
D|---------------------------------------------------------------------------|
A|---------------------------------------------------------------------------|
E|---000-0-0-0-0-0-0-0-0-0-0-0-0-0-0-----------------------------------------| etc.




                               GUITAR ONE
e|---------------------------------------------------------------------------|
B|---------------------------------------------------------------------------|
G|---13-13-13-16-13-13-16-----13-13-16-13-13-16------------------------------|
D|---------------------------------------------------------------------------|
A|---------------------------------------------------------------------------|
E|---------------------------------------------------------------------------|

                               GUITAR TWO
e|---------------------------------------------------------------------------|
B|---9-9-9-9-9-9-9-9-9-9-9-9-9-9-9-9-----------------------------------------|
G|---------------------------------------------------------------------------|
D|---------------------------------------------------------------------------|
A|---------------------------------------------------------------------------|
E|---------------------------------------------------------------------------| etc.

			       BASS GUITAR
G|---------------------------------------------------------------------------|
D|---------------------------------------------------------------------------|
A|---------------------------------------------------------------------------|
E|---000-0-0-0-0-0-0-0-0-0-0-0-0-0-0-----------------------------------------| etc.




                               GUITAR ONE
e|---------------------------------------------------------------------------|
B|------------14-------14-----------14-------14------------------------------|
G|---13-13-13----13-13--------13-13----13-13---------------------------------|
D|---------------------------------------------------------------------------|
A|---------------------------------------------------------------------------|
E|---------------------------------------------------------------------------|

                               GUITAR TWO
e|---------------------------------------------------------------------------|
B|---12-12-12-12-12-12-12-12-12-12-12----------------------------------------|
G|---------------------------------------------------------------------------|
D|---------------------------------------------------------------------------|
A|---------------------------------------------------------------------------|
E|---------------------------------------------------------------------------| etc.

			       BASS GUITAR
G|---------------------------------------------------------------------------|
D|---------------------------------------------------------------------------|
A|---------------------------------------------------------------------------|
E|---000-0-0-0-0-0-0-0-0-0-0-0-0-0-0-----------------------------------------| etc.




                               GUITAR ONE
e|---12-12-12-12-12-12-12-12-12-12-12----------------------------------------|
B|---------------------------------------------------------------------------|
G|---------------------------------------------------------------------------|
D|---------------------------------------------------------------------------|
A|---------------------------------------------------------------------------|
E|---------------------------------------------------------------------------|

                               GUITAR TWO
e|---12-12-12-12-12-12-12-12-12-12-12----------------------------------------|
B|---------------------------------------------------------------------------|
G|---------------------------------------------------------------------------|
D|---------------------------------------------------------------------------|
A|---------------------------------------------------------------------------|
E|---------------------------------------------------------------------------| etc.

			       BASS GUITAR
G|---------------------------------------------------------------------------|
D|---------------------------------------------------------------------------|
A|---------------------------------------------------------------------------|
E|---000-0-0-0-0-0-0-0-0-0-0-0-0-0-0-----------------------------------------| etc.




                               GUITAR ONE
e|---12--12--12--12--12--12--12--12--12--------------------------------------|
B|---12--12--12--12--12--12--12--12--12--------------------------------------|
G|----9--9---9---9---9---9---9---9---9---------------------------------------|
D|---------------------------------------------------------------------------|
A|---------------------------------------------------------------------------|
E|---------------------------------------------------------------------------|

                               GUITAR TWO
e|---12b-12b-12b-12b-12b-12b-12b-12b-12b-------------------------------------|
B|---------------------------------------------------------------------------|
G|---------------------------------------------------------------------------|
D|---------------------------------------------------------------------------|
A|---------------------------------------------------------------------------|
E|---------------------------------------------------------------------------| etc.

			       BASS GUITAR
G|---------------------------------------------------------------------------|
D|---------------------------------------------------------------------------|
A|---------------------------------------------------------------------------|
E|---000-0-0-0-0-0-0-0-0-0-0-0-0-0-0-----------------------------------------| etc.




                               GUITAR ONE
e|---------------------------------------------------------------------------|
B|---------------------------------------------------------------------------|
G|---444---------------------------------------------------------------------|
D|---666---------------------------------------------------------------------|
A|---777---------------------------------------------------------------------|
E|---000---------------------------------------------------------------------|

                               GUITAR TWO
e|---------------------------------------------------------------------------|
B|---------------------------------------------------------------------------|
G|---444---------------------------------------------------------------------|
D|---666---------------------------------------------------------------------|
A|---777---------------------------------------------------------------------|
E|---000---------------------------------------------------------------------|

			       BASS GUITAR
G|---------------------------------------------------------------------------|
D|---------------------------------------------------------------------------|
A|---------------------------------------------------------------------------|
E|---000-0-0-0-0-0-0-0-0-0-0-0-0-0-0-----------------------------------------| etc.




                               GUITAR ONE
e|---------------------------------------------------------------------------|
B|---------------------------------------------------------------------------|
G|---444---------------------------------------------------------------------|
D|---666---------------------------------------------------------------------|
A|---777---------------------------------------------------------------------|
E|---000---------------------------------------------------------------------|

                               GUITAR TWO
e|---------------------------------------------------------------------------|
B|---------------------------------------------------------------------------|
G|---444---------------------------------------------------------------------|
D|---666---------------------------------------------------------------------|
A|---777---------------------------------------------------------------------|
E|---000---------------------------------------------------------------------|

			       BASS GUITAR
G|---------------------------------------------------------------------------|
D|---------------------------------------------------------------------------|
A|---------------------------------------------------------------------------|
E|---000-0-0-0-0-0-0-0-0-0-0-0-0-0-0-----------------------------------------| etc.




                               GUITAR ONE
e|---------------------------------------------------------------------------|
B|---------------------------------------------------------------------------|
G|---------------------------------------------------------------------------|
D|----------2-----------2----------2-----------2-----------------------------|
A|-------2-----2-----2----------2-----2-----2--------------------------------|
E|----0-----------0--------0-------------0-----------------------------------|

                               GUITAR TWO
e|---------------------------------------------------------------------------|
B|---------------------------------------------------------------------------|
G|---------------------------------------------------------------------------|
D|---------------------------------------------------------------------------|
A|---------------------------------------------------------------------------|
E|---------------------------------------------------------------------------|

			       BASS GUITAR
G|---------------------------------------------------------------------------|
D|---------------------------------------------------------------------------|
A|---------------------------------------------------------------------------|
E|----0-0-0-0-0-0-0-0-0-0-0-0-0----------------------------------------------| etc.




                               GUITAR ONE
e|---------------------------------------------------------------------------|
B|---------------------------------------------------------------------------|
G|-------/13--11--13---/16--16--13--11-11--13--------------------------------|
D|---------------------------------------------------------------------------|
A|---------------------------------------------------------------------------|
E|---------------------------------------------------------------------------|

                               GUITAR TWO
e|---------------------------------------------------------------------------|
B|---------------------------------------------------------------------------|
G|--444----------------------------------------------------------------------|
D|--666----------------------------------------------------------------------|
A|--777----------------------------------------------------------------------|
E|--000----------------------------------------------------------------------|

			       BASS GUITAR
G|---------------------------------------------------------------------------|
D|---------------------------------------------------------------------------|
A|---------------------------------------------------------------------------|
E|----0-0-0-0-0-0-0-0-0-0-0-0-0----------------------------------------------| etc.



                               GUITAR ONE
e|---------------------------------------------------------------------------|
B|---------------------------------------------------------------------------|
G|-------/13--11--13---/16--16--13--11-11--13--------------------------------|
D|---------------------------------------------------------------------------|
A|---------------------------------------------------------------------------|
E|---------------------------------------------------------------------------|

                               GUITAR TWO
e|---------------------------------------------------------------------------|
B|---------------------------------------------------------------------------|
G|--444----------------------------------------------------------------------|
D|--666----------------------------------------------------------------------|
A|--777----------------------------------------------------------------------|
E|--000----------------------------------------------------------------------|

			       BASS GUITAR
G|---------------------------------------------------------------------------|
D|---------------------------------------------------------------------------|
A|---------------------------------------------------------------------------|
E|----0-0-0-0-0-0-0-0-0-0-0-0-0----------------------------------------------| etc.




                               GUITAR ONE
e|---------------------------------------------------------------------------|
B|---------------------------------------------------------------------------|
G|------6-------8--8-------9--9-------8--8-----------------------------------|
D|---------------------------------------------------------------------------|
A|---------------------------------------------------------------------------|
E|---------------------------------------------------------------------------|

                               GUITAR TWO
e|---------------------------------------------------------------------------|
B|---------------------------------------------------------------------------|
G|------9------------------6--6----------------------------------------------|
D|------9-------9--9-------6--6-------9--9-----------------------------------|
A|------7-------9--9-------4--4-------9--9-----------------------------------|
E|------0-------7--7-------4--4-------7--7-----------------------------------|

			       BASS GUITAR
G|---------------------------------------------------------------------------|
D|---------------------------------------------------------------------------|
A|------7------------------4--4----------------------------------------------|
E|--------------7--7------------------7--7-----------------------------------|




                               GUITAR ONE
e|---------------------------------------------------------------------------|
B|---------------------------------------------------------------------------|
G|-------/13--11--13---/16--16--13--11-11--13--------------------------------|
D|---------------------------------------------------------------------------|
A|---------------------------------------------------------------------------|
E|---------------------------------------------------------------------------|

                               GUITAR TWO
e|---------------------------------------------------------------------------|
B|---------------------------------------------------------------------------|
G|--444----------------------------------------------------------------------|
D|--666----------------------------------------------------------------------|
A|--777----------------------------------------------------------------------|
E|--000----------------------------------------------------------------------|

			       BASS GUITAR
G|---------------------------------------------------------------------------|
D|---------------------------------------------------------------------------|
A|---------------------------------------------------------------------------|
E|----0-0-0-0-0-0-0-0-0-0-0-0-0----------------------------------------------| etc.




                               GUITAR ONE
e|---------------------------------------------------------------------------|
B|---------------------------------------------------------------------------|
G|-------/13--11--13---/16--16--13--11-11--13--------------------------------|
D|---------------------------------------------------------------------------|
A|---------------------------------------------------------------------------|
E|---------------------------------------------------------------------------|

                               GUITAR TWO
e|---------------------------------------------------------------------------|
B|---------------------------------------------------------------------------|
G|--444----------------------------------------------------------------------|
D|--666----------------------------------------------------------------------|
A|--777----------------------------------------------------------------------|
E|--000----------------------------------------------------------------------|

			       BASS GUITAR
G|---------------------------------------------------------------------------|
D|---------------------------------------------------------------------------|
A|---------------------------------------------------------------------------|
E|----0-0-0-0-0-0-0-0-0-0-0-0-0----------------------------------------------| etc.




                               GUITAR ONE
e|---------------------------------------------------------------------------|
B|---------------------------------------------------------------------------|
G|------6-------8--8-------9--9-------8--8-----------------------------------|
D|---------------------------------------------------------------------------|
A|---------------------------------------------------------------------------|
E|---------------------------------------------------------------------------|

                               GUITAR TWO
e|---------------------------------------------------------------------------|
B|---------------------------------------------------------------------------|
G|------9------------------6--6----------------------------------------------|
D|------9-------9--9-------6--6-------9--9-----------------------------------|
A|------7-------9--9-------4--4-------9--9-----------------------------------|
E|------0-------7--7-------4--4-------7--7-----------------------------------|

			       BASS GUITAR
G|---------------------------------------------------------------------------|
D|---------------------------------------------------------------------------|
A|------7------------------4--4----------------------------------------------|
E|--------------7--7------------------7--7-----------------------------------|




                               GUITAR ONE
e|---------------------------------------------------------------------------|
B|------------------------------------------------4--------------------------|
G|----------2----------------------------------4-----4-----------------------|
D|-------2----2-----------------------------4-----------4--------------------|
A|----0----------0-----------------------2-----------------------------------|
E|---------------------------------------------------------------------------|

                               GUITAR TWO
e|---------------------------------------------------------------------------|
B|---------------------------------------------------------------------------|
G|----2---2-2-2-2------------------------4---4-4-4-4-------------------------|
D|----2---2-2-2-2------------------------4---4-4-4-4-------------------------|
A|----0---0-0-0-0------------------------2---2-2-2-2-------------------------|
E|---------------------------------------------------------------------------|

			       BASS GUITAR
G|---------------------------------------------------------------------------|
D|---------------------------------------------------------------------------|
A|---------------------------------------------------------------------------|
E|----0----------------------------------2-----------------------------------|




                               GUITAR ONE
e|---------------------------------------------------------------------------|
B|----5----------------------------------4-----------------------------------|
G|--------6----------------------------------4-------------------------------|
D|------------6----------------------------------4-------4-------------------|
A|----4----------------------------------2-----------2-----------------------|
E|---------------------------------------------------------------------------|

                               GUITAR TWO
e|---------------------------------------------------------------------------|
B|---------------------------------------------------------------------------|
G|----6---6-6-6-6------------------------4---4-4-4-4-------------------------|
D|----6---6-6-6-6------------------------4---4-4-4-4-------------------------|
A|----4---4-4-4-4------------------------2---2-2-2-2-------------------------|
E|---------------------------------------------------------------------------|

			       BASS GUITAR
G|---------------------------------------------------------------------------|
D|---------------------------------------------------------------------------|
A|---------------------------------------------------------------------------|
E|----4----------------------------------2-----------------------------------|




                               GUITAR ONE
e|---------------------------------------------------------------------------|
B|---------------------------------------------4-----------------------------|
G|----------2----------------------------------4-----------------------------|
D|-------2----2-----------------------------4-----4--------------------------|
A|----0----------0-----------------------2-----------------------------------|
E|---------------------------------------------------------------------------|

                               GUITAR TWO
e|---------------------------------------------------------------------------|
B|---------------------------------------------------------------------------|
G|----2---2-2-2-2------------------------4---4-4-4-4-------------------------|
D|----2---2-2-2-2------------------------4---4-4-4-4-------------------------|
A|----0---0-0-0-0------------------------2---2-2-2-2-------------------------|
E|---------------------------------------------------------------------------|

			       BASS GUITAR
G|---------------------------------------------------------------------------|
D|---------------------------------------------------------------------------|
A|---------------------------------------------------------------------------|
E|----0----------------------------------2-----------------------------------|




                               GUITAR ONE
e|---------------------------------------------------------------------------|
B|----5-5-5-5-5--------------------------4-4---------------------------------|
G|----6-6-6-6-6--------------------------4-4---------------------------------|
D|----6-6-6-6-6--------------------------4-4---------------------------------|
A|----4-4-4-4-4--------------------------2-2---------------------------------|
E|---------------------------------------------------------------------------|

                               GUITAR TWO
e|---------------------------------------------------------------------------|
B|---------------------------------------------------------------------------|
G|----6---6-6-6-6------------------------4---4-4-4-4-------------------------|
D|----6---6-6-6-6------------------------4---4-4-4-4-------------------------|
A|----4---4-4-4-4------------------------2---2-2-2-2-------------------------|
E|---------------------------------------------------------------------------|

			       BASS GUITAR
G|---------------------------------------------------------------------------|
D|---------------------------------------------------------------------------|
A|---------------------------------------------------------------------------|
E|----4----------------------------------2-----------------------------------|




                               GUITAR ONE
e|---------------------------------------------------------------------------|
B|------------------------------------------------4--------------------------|
G|----------2----------------------------------4-----4-----------------------|
D|-------2----2-----------------------------4-----------4--------------------|
A|----0----------0-----------------------2-----------------------------------|
E|---------------------------------------------------------------------------|

                               GUITAR TWO
e|---------------------------------------------------------------------------|
B|---------------------------------------------------------------------------|
G|----2---2-2-2-2------------------------4---4-4-4-4-------------------------|
D|----2---2-2-2-2------------------------4---4-4-4-4-------------------------|
A|----0---0-0-0-0------------------------2---2-2-2-2-------------------------|
E|---------------------------------------------------------------------------|

			       BASS GUITAR
G|---------------------------------------------------------------------------|
D|---------------------------------------------------------------------------|
A|---------------------------------------------------------------------------|
E|----0----------------------------------2-----------------------------------|
     You doused my soul with gasoline




                               GUITAR ONE
e|---------------------------------------------------------------------------|
B|----5----------------------------------4-----------------------------------|
G|--------6----------------------------------4-------------------------------|
D|------------6----------------------------------4-------4-------------------|
A|----4----------------------------------2-----------2-----------------------|
E|---------------------------------------------------------------------------|

                               GUITAR TWO
e|---------------------------------------------------------------------------|
B|---------------------------------------------------------------------------|
G|----6---6-6-6-6------------------------4---4-4-4-4-------------------------|
D|----6---6-6-6-6------------------------4---4-4-4-4-------------------------|
A|----4---4-4-4-4------------------------2---2-2-2-2-------------------------|
E|---------------------------------------------------------------------------|

			       BASS GUITAR
G|---------------------------------------------------------------------------|
D|---------------------------------------------------------------------------|
A|---------------------------------------------------------------------------|
E|----4----------------------------------2-----------------------------------|




                               GUITAR ONE
e|---------------------------------------------------------------------------|
B|---------------------------------------------4-----------------------------|
G|----------2----------------------------------4-----------------------------|
D|-------2----2-----------------------------4-----4--------------------------|
A|----0----------0-----------------------2-----------------------------------|
E|---------------------------------------------------------------------------|

                               GUITAR TWO
e|---------------------------------------------------------------------------|
B|---------------------------------------------------------------------------|
G|----2---2-2-2-2------------------------4---4-4-4-4-------------------------|
D|----2---2-2-2-2------------------------4---4-4-4-4-------------------------|
A|----0---0-0-0-0------------------------2---2-2-2-2-------------------------|
E|---------------------------------------------------------------------------|

			       BASS GUITAR
G|---------------------------------------------------------------------------|
D|---------------------------------------------------------------------------|
A|---------------------------------------------------------------------------|
E|----0----------------------------------2-----------------------------------|
     You flicked a match into my brain



                               GUITAR ONE
e|---------------------------------------------------------------------------|
B|----5-5-5-5-5--------------------------4-4---------------------------------|
G|----6-6-6-6-6--------------------------4-4---------------------------------|
D|----6-6-6-6-6--------------------------4-4---------------------------------|
A|----4-4-4-4-4--------------------------2-2---------------------------------|
E|---------------------------------------------------------------------------|

                               GUITAR TWO
e|---------------------------------------------------------------------------|
B|---------------------------------------------------------------------------|
G|----6---6-6-6-6------------------------4---4-4-4-4-------------------------|
D|----6---6-6-6-6------------------------4---4-4-4-4-------------------------|
A|----4---4-4-4-4------------------------2---2-2-2-2-------------------------|
E|---------------------------------------------------------------------------|

			       BASS GUITAR
G|---------------------------------------------------------------------------|
D|---------------------------------------------------------------------------|
A|---------------------------------------------------------------------------|
E|----4----------------------------------2-----------------------------------|



                               GUITAR ONE
e|---------------------------------------------------------------------------|
B|---------------------------------------------------------------------------|
G|---------------------------------------------------------------------------|
D|--------------9h11--13---11---9h11-----------------------------------------|
A|----------11-----------------------9h11------------------------------------|
E|-----------------------------------------9---------------------------------|

                               GUITAR TWO
e|---------------------------------------------------------------------------|
B|---------------------------------------------------------------------------|
G|----6-6-6-6-6-6-6-6--------------------------------------------------------|
D|----6-6-6-6-6-6-6-6--------------------------------------------------------|
A|----4-4-4-4-4-4-4-4--------------------------------------------------------|
E|----4-4-4-4-4-4-4-4--------------------------------------------------------| etc.

			       BASS GUITAR
G|---------------------------------------------------------------------------|
D|---------------------------------------------------------------------------|
A|----4-4-4-4-4-4-4-4--------------------------------------------------------|
E|---------------------------------------------------------------------------| etc.
            Incinerate



                               GUITAR ONE
e|---------------------------------------------------------------------------|
B|---------------------------------------------------------------------------|
G|---------------------------------------------------------------------------|
D|--------------9h11--13---11---9h11-----------------------------------------|
A|----------11-----------------------9h11------------------------------------|
E|-----------------------------------------9---------------------------------|

                               GUITAR TWO
e|---------------------------------------------------------------------------|
B|---------------------------------------------------------------------------|
G|----6-6-6-6-6-6-6-6--------------------------------------------------------|
D|----6-6-6-6-6-6-6-6--------------------------------------------------------|
A|----4-4-4-4-4-4-4-4--------------------------------------------------------|
E|----4-4-4-4-4-4-4-4--------------------------------------------------------| etc.

			       BASS GUITAR
G|---------------------------------------------------------------------------|
D|---------------------------------------------------------------------------|
A|----4-4-4-4-4-4-4-4--------------------------------------------------------|
E|---------------------------------------------------------------------------| etc.
            Incinerate



                               GUITAR ONE
e|---------------------------------------------------------------------------|
B|---------------------------------------------------------------------------|
G|---------------------------------------------------------------------------|
D|--------------9h11--13---11---9h11-----------------------------------------|
A|----------11-----------------------9h11------------------------------------|
E|-----------------------------------------9---------------------------------|

                               GUITAR TWO
e|---------------------------------------------------------------------------|
B|---------------------------------------------------------------------------|
G|----6-6-6-6-6-6-6-6--------------------------------------------------------|
D|----6-6-6-6-6-6-6-6--------------------------------------------------------|
A|----4-4-4-4-4-4-4-4--------------------------------------------------------|
E|----4-4-4-4-4-4-4-4--------------------------------------------------------| etc.

			       BASS GUITAR
G|---------------------------------------------------------------------------|
D|---------------------------------------------------------------------------|
A|----4-4-4-4-4-4-4-4--------------------------------------------------------|
E|---------------------------------------------------------------------------| etc.
            Incinerate



                               GUITAR ONE
e|---------------------------------------------------------------------------|
B|---------------------------------------------------------------------------|
G|---------------------------------------------------------------------------|
D|--------------9h11--13---11---9h11-----------------------------------------|
A|----------11-----------------------9h11------------------------------------|
E|-----------------------------------------9---------------------------------|

                               GUITAR TWO
e|---------------------------------------------------------------------------|
B|---------------------------------------------------------------------------|
G|----6-6-6-6-6-6-6-6--------------------------------------------------------|
D|----6-6-6-6-6-6-6-6--------------------------------------------------------|
A|----4-4-4-4-4-4-4-4--------------------------------------------------------|
E|----4-4-4-4-4-4-4-4--------------------------------------------------------| etc.

			       BASS GUITAR
G|---------------------------------------------------------------------------|
D|---------------------------------------------------------------------------|
A|----4-4-4-4-4-4-4-4--------------------------------------------------------|
E|---------------------------------------------------------------------------| etc.
            Incinerate



                               GUITAR ONE
e|---------------------------------------------------------------------------|
B|---------------------------------------------------------------------------|
G|---------------------------------------------------------------------------|
D|--------------9h11--13---11---9h11-----------------------------------------|
A|----------11-----------------------9h11------------------------------------|
E|-----------------------------------------9---------------------------------|

                               GUITAR TWO
e|---------------------------------------------------------------------------|
B|---------------------------------------------------------------------------|
G|----6-6-6-6-6-6-6-6--------------------------------------------------------|
D|----6-6-6-6-6-6-6-6--------------------------------------------------------|
A|----4-4-4-4-4-4-4-4--------------------------------------------------------|
E|----4-4-4-4-4-4-4-4--------------------------------------------------------| etc.

			       BASS GUITAR
G|---------------------------------------------------------------------------|
D|---------------------------------------------------------------------------|
A|----4-4-4-4-4-4-4-4--------------------------------------------------------|
E|---------------------------------------------------------------------------| etc.
            Incinerate



                               GUITAR ONE
e|---------------------------------------------------------------------------|
B|---------------------------------------------------------------------------|
G|---------------------------------------------------------------------------|
D|--------------9h11--13---11---9h11-----------------------------------------|
A|----------11-----------------------9h11------------------------------------|
E|-----------------------------------------9---------------------------------|

                               GUITAR TWO
e|---------------------------------------------------------------------------|
B|---------------------------------------------------------------------------|
G|----6-6-6-6-6-6-6-6--------------------------------------------------------|
D|----6-6-6-6-6-6-6-6--------------------------------------------------------|
A|----4-4-4-4-4-4-4-4--------------------------------------------------------|
E|----4-4-4-4-4-4-4-4--------------------------------------------------------| etc.

			       BASS GUITAR
G|---------------------------------------------------------------------------|
D|---------------------------------------------------------------------------|
A|----4-4-4-4-4-4-4-4--------------------------------------------------------|
E|---------------------------------------------------------------------------| etc.
            Incinerate



                               GUITAR ONE
e|---------------------------------------------------------------------------|
B|---------------------------------------------------------------------------|
G|---------------------------------------------------------------------------|
D|--------------9h11--13---11---9h11-----------------------------------------|
A|----------11-----------------------9h11------------------------------------|
E|-----------------------------------------9---------------------------------|

                               GUITAR TWO
e|---------------------------------------------------------------------------|
B|---------------------------------------------------------------------------|
G|----6-6-6-6-6-6-6-6--------------------------------------------------------|
D|----6-6-6-6-6-6-6-6--------------------------------------------------------|
A|----4-4-4-4-4-4-4-4--------------------------------------------------------|
E|----4-4-4-4-4-4-4-4--------------------------------------------------------| etc.

			       BASS GUITAR
G|---------------------------------------------------------------------------|
D|---------------------------------------------------------------------------|
A|----4-4-4-4-4-4-4-4--------------------------------------------------------|
E|---------------------------------------------------------------------------| etc.
            Incinerate



                               GUITAR ONE
e|---------------------------------------------------------------------------|
B|---------------------------------------------------------------------------|
G|---------------------------------------------------------------------------|
D|--------------9h11--13---11---9h11-----------------------------------------|
A|----------11-----------------------9h11------------------------------------|
E|-----------------------------------------9---------------------------------|

                               GUITAR TWO
e|---------------------------------------------------------------------------|
B|---------------------------------------------------------------------------|
G|----6-6-6-6-6-6-6-6--------------------------------------------------------|
D|----6-6-6-6-6-6-6-6--------------------------------------------------------|
A|----4-4-4-4-4-4-4-4--------------------------------------------------------|
E|----4-4-4-4-4-4-4-4--------------------------------------------------------|

			       BASS GUITAR
G|---------------------------------------------------------------------------|
D|---------------------------------------------------------------------------|
A|----4-4-4-4-4-4-4-4--------------------------------------------------------|
E|---------------------------------------------------------------------------|etc.
            Incinerate



| /  slide up
| \  slide down
| h  hammer-on
| p  pull-off
| ~  vibrato
| +  harmonic
| x  Mute note
===============================================================================
comments
print report bad tab
3 comments total.
0 reply
nirvanapwns wrote on August 9 2012, 01:23 pm

it's great to be able to play a sonic youth song with a regular tunning, i think the diamond sea can also be played on a more normal tunning too

anyway thanks for the tab!

0 reply
buxeyy wrote on July 30 2013, 04:46 am

Awesome, dude! I'd love to play so many SY songs but the tunings are such a bitch to get into and then tune back to standard! Thanks for tabbing it in a more 'friendly' tuning!

0 reply
ArthurBassFreak wrote on December 13 2013, 06:00 pm

Awesome!! Sounds great!!

I want to post or [tab]
guest
You may want to rate the tab now too:
select rating
Please do not post tabs as comments. Select "correction" instead!