Oops, an error
Loading. Please wait.

Lights Out Tab

200 views 1 this week
no commentswrite comment
1 2 3 4 5
please rate
Autoscroll
+/-
esc
set tempo
stop
Contributor
WARNING: You are trying to view
                                    content from Ultimate-Guitar.com
                                    in an unauthorized application,
                                    which is prohibited.

                                    Please use an official Ultimate
                                    Guitar Tabs application for iPhone,
                                    iPad or Android to access legitimate
                                    chords, guitar, bass, and drum tabs
                                    from Ultimate-Guitar.com database.

                                    Type "ultimate guitar tabs" in Apple
                                    App Store's or Android Market's
                                    search to find the application.
Band: Sonic Youth
Song: Lights Out
Album: Rather Ripped

Tabbed By: Indie Nation

All Guitars Tuned - CGDGCD  



1ST VERSE
  Gtr 1
D|--------------------------------|--------------------------------|
C|--------------------------------|--------------------------------|
G|--------------------------------|--------------------------------|
D|--------------------------------|--------------------------------|
G|9---------------7-------5---4---|------------------------4---4---|
C|0---0---0---0---0---0---0---0---|0---0---0---0---0---0---0---0---|
 |
 |Gtr 2
D|--------------------------------|--------------------------------|
G|--------------------------------|--------------------------------|
C|--------------------------------|--------------------------------|
D|--------------------------------|--------------------------------|
G|9---------------7-------5---4---|--------------------------------|
C|--------------------------------|--------------------------------|


  Gtr 1
D|--------------------------------|--------------------------------|
C|--------------------------------|--------------------------------|
G|--------------------------------|--------------------------------|
D|----------------4---2-----------|----------------4---4---4-------|
G|5---------------4---2-------4---|--------4---4---4---4---4---0---|
C|0---0---0---0---0---0-------4---|----4---4---4---4---4---4---0---|
 |
 |Gtr 2
D|--------------------------------|--------------------------------|
G|--------------------------------|--------------------------------|
C|--------------------------------|--------------------------------|
D|--------------------------------|--------------------------------|
G|5---------------4\--2-----------|----4-----------4---------------|
C|----------------------------4---|------------4-------------------|


  Gtr 1
D|--------------------------------|--------------------------------|
C|--------------------------------|--------------------------------|
G|--------------------------------|--------------------------------|
D|--------------------------------|--------------------------------|
G|9-------9---9---7\--5-------4---|----------------4---4---4---4---|
C|0---0---0---0---0---0---0---0---|0---0---0---0---0---0---0---0---|
 |
 |Gtr 2
D|--------------------------------|--------------------------------|
G|--------------------------------|--------------------------------|
C|--------------------------------|--------------------------------|
D|--------------------------------|--------------------------------|
G|9---------------7---5\------4---|--------------------------------|
C|--------------------------------|--------------------------------|


  Gtr 1
D|--------------------------------|--------------------------------|
C|--------------------------------|--------------------------------|
G|--------------------------------|--------------------------------|
D|--------------------------------|----------------4---4---4-------|
G|5---------------4---2-------4---|--------4---4---4---4---4---0---|
C|0---0---0---0---0---0---0---4---|----4---4---4---4---4---4---0---|
 |
 |Gtr 2
D|--------------------------------|--------------------------------|
G|--------------------------------|--------------------------------|
C|--------------------------------|--------------------------------|
D|--------------------------------|--------------------------------|
G|5---------------4---2-----------|--------------------------------|
C|----------------------------4---|--------------------------------|


  Gtr 1
D|--------------------------------|--------------------------------|
C|--------------------------------|--------------------------------|
G|9-------9---9---7---5-------4---|------------------------4---4---|
D|x-------x---x---x---x-------x---|------------------------x---x---|
G|9-------9---9---7---5-------4---|----------------4---4---4---4---|
C|0---0---0---0---0---0---0---0---|0---0---0---0---0---0---0---0---|
 |
 |Gtr 2 (pick high G string with your finger)
D|--------------------------------|--------------------------------|
G|9---------------7\--5-------4---|--------------------------------|
C|--------------------------------|--------------------------------|
D|--------------------------------|--------------------------------|
G|9---------------7\--5-------4---|--------------------------------|
C|--------------------------------|--------------------------------|


  Gtr 1
D|--------------------------------|--------------------------------|
C|--------------------------------|--------------------------------|
G|5-------5---5---4---2-----------|--------------------------------|
D|x-------x---x---x---x-----------|--------------------------------|
G|5-------5---5---4---2-------4---|--------4-------4---4---4---4---|
C|0---0---0---0---0---0-------4---|----4---4---4---4---4---4---4---|
 |
 |Gtr 2
D|--------------------------------|--------------------------------|
G|5---------------4\--2-------4---|--------------------------------|
C|--------------------------------|--------------------------------|
D|--------------------------------|--------------------------------|
G|5---------------4\--2-----------|--------------------------------|
C|----------------------------4---|--------------------------------|





CHORUS RIFF: repeat x4
  Gtr 1
D|--------------------------------|--------------------------------|
C|--------------------------------|--------------------------------|
G|----------------------------2---|------------4-------2-----------|
D|4---4---4---4---4---4---4---2---|----2---2---2-------2---2---2---|
G|4---4---4---4---4---4---4---2---|----2---2---2-------2---2---2---|
C|4---4---4---4---4---4---4-------|--------------------------------|
 |
 |Gtr 2
D|--------------------------------|--------------------------------|
G|--------------------------------|--------------------------------|
C|--------------------------------|--------------------------------|
D|4-------------------------------|--------------------------------|
G|4-------------------------------|9-------------------------------|
C|4-------------------------------|9-------------------------------|





BRIDGE
  Gtr 1
D|----------------0---------------|----------------0---------------|
C|--------0-----------0-----------|--------0-----------0-----------|
G|------------0-------------------|----0-------0-----------0-------|
D|------------------------0-------|0---------------------------0---|
G|5---------------------------5---|--------------------------------|
C|0-------------------------------|--------------------------------|
 |
 |Gtr 2
D|--------------------------------|--------------------------------|
G|--------------------------------|--------------------------------|
C|--------------------------------|--------------------------------|
D|--------------------------------|--------------------------------|
G|12------12----------12------12--|----12------12------------------|
C|12------12------12--------------|--------------------12----------|





2ND VERSE

CHORUS RIFF: repeat x4

SOLO BREAK
  Gtr 1
D|----------------0---------------|----------------0---------------|
C|--------0-----------0-----------|--------0-----------0-----------|
G|----0-------0-----------0-------|----0-------0-----------0-------|
D|----------------------------0---|----------------------------0---|
G|5-------------------------------|5-------------------------------|
C|0-------------------------------|--------------------------------|
 |
 |Gtr 2
D|--------------------------------|--------------------------------|
G|--------------------------------|--------------------------------|
C|--------------------------------|--------------------------------|
D|--------------------------------|--------------------------------|
G|12------------------12------12--|------------------------12------|
C|12--------------12------12------|--------12------12--------------|


  Gtr 1
D|--------------------------------|--------------------------------|
C|----------------------------0---|0---0-------0-------0---0---0---|
G|5-----------5-------5---5---5/--|7---5-------2-------5---5---5---|
D|x-----------x-------x---x---x---|x---x-------x-------x---x---x---|
G|5-----------5-------5---5---5/--|7---5-------2-------5---5---5---|
C|0-------------------------------|--------------------------------|
 |
 |Gtr 2
D|--------------------------------|--------------------------------|
G|--------------------------------|--------------------------------|
C|--------------------------------|--------------------------------|
D|--------------------------------|--------------------------------|
G|--------------------12------12--|----12----------12------12------|
C|12--------------12------12------|--------12----------------------|


  Gtr 1
D|--------------------------------|--------------------------------|
C|0---------------------------0---|0---0---0---0-------0---0---0---|
G|3-----------3-------3---3---3---|3---2---2---3-------3/--5---5---|
D|x-----------x-------x---x---x---|x---x---x---x-------x---x---x---|
G|3-----------3-------3---3---3---|3---2---2---3-------3/--5---5---|
C|--------------------------------|--------------------------------|
 |
 |Gtr 2
D|--------------------------------|--------------------------------|
G|--------------------------------|--------------------------------|
C|--------------------------------|--------------------------------|
D|--------------------------------|--------------------------------|
G|10------------------10----------|--------------------------------|
C|10----------------------10/-17--|----17--16--16--14--14--12--14--|


  Gtr 1
D|--------------------------------|------------0-------------------|
C|0-----------0---0-------0---0---|0---0---0---0-------0---0---0---|
G|5-----------5---5-------5---5/--|7---5---5---2-------5---5---5---|
D|x-----------x---x-------x---x---|x---x---x---x-------x---x---x---|
G|5-----------5---5-------5---5/--|7---5---5---2-------5---5---5---|
C|--------------------------------|--------------------------------|
 |
 |Gtr 2
D|--------------------------------|--------------------------------|
G|--------------------------------|--------------------------------|
C|--------------------------------|--------------------------------|
D|--------------------------------|--------------------------------|
G|--------12----------12------12--|----12------12----------12------|
C|12----------------------12------|--------12----------------------|


  Gtr 1
D|--------------------------------|--------------------------------|
C|0-------------------0---0---0---|0---0---0---0-------0---0---0-0-|
G|3-------------------3---3---3---|3---2---2---3-------3/--5---5-5-|
D|x-------------------x---x---x---|x---x---x---x-------x---x---x-x-|
G|3-------------------3---3---3---|3---2---2---3-------3/--5---5-5-|
C|--------------------------------|--------------------------------|
 |
 |Gtr 2
D|--------------------------------|--------------------------------|
G|--------------------------------|--------------------------------|
C|--------------------------------|--------------------------------|
D|--------------------------------|--------------------------------|
G|10------------------10--10--10--|--------10----------10--10/-12--|
C|10--------------------------10--|--------------------------------|


  Gtr 1
D|5-----------5-------5---5/--7---|7---5-------2-------5---5---5---|
C|0-----------0-------0---0---0---|0---0-------0-------0---0---0---|
G|5-----------5-------5---5/--7---|7---5-------2-------5---5---5---|
D|x-----------x-------x---x---x---|x---x-------x-------x---x---x---|
G|5-----------5-------5---5/--7---|7---5-------2-------5---5---5---|
C|--------------------------------|--------------------------------|
 |
 |Gtr 2
D|--------------------------------|--------------------------------|
G|--------------------------------|--------------------------------|
C|--------------------------------|--------------------------------|
D|--------------------------------|----------------12--------------|
G|12------------------12------12--|12----------12------------------|
C|12----------------------12------|--------------------------------|
 |
 |Gtr 3
D|--------------------------------|--------------------------------|
C|--------------------------------|--------------------------------|
G|--------------------------------|--------------------------------|
D|----------------------------5/--|10~~~~~~-------/12~~~~~~--------|
G|--------------------------------|--------------------------------|
C|0-------------------------------|--------------------------------|


  Gtr 1
D|3-----------3-------3---3---3---|3---2---2---3-------3---5---5-5-|
C|0-----------0-------0---0---0---|0---0---0---0-------0---0---0-0-|
G|3-----------3-------3---3---3---|3---2---2---3-------3---5---5-5-|
D|x-----------x-------x---x---x---|x---x---x---x-------x---x---x-x-|
G|3-----------3-------3---3---3---|3---2---2---3-------3---5---5-5-|
C|--------------------------------|--------------------------------|
 |
 |Gtr 2
D|--------------------------------|--------------------------------|
G|----------------10--------------|------------10------------------|
C|10--------------------------10--|--------------------------------|
D|------------10------------------|----10--------------10----------|
G|--------------------------------|--------------------------------|
C|--------------------------------|--------------------------------|
 |
 |Gtr 3
D|--------------------------------|--------------------------------|
C|--------------------------------|--------------------------------|
G|--------------------------------|--------------------------------|
D|--------------------------------|--------------------------------|
G|15~~~~~~~~~~~~~~------------15--|----15--14--14--12--12--10h-12--|
C|--------------------------------|--------------------------------|


  Gtr 1
D|5-------5---5---5---5---5/--7---|7---5---5---2-------5---5---5---|
C|0-------0---0---0---0---0---0---|0---0---0---0-------0---0---0---|
G|5-------5---5---5---5---5/--7---|7---5---5---2-------5---5---5---|
D|x-------x---x---x---x---x---x---|x---x---x---x-------x---x---x---|
G|5-------5---5---5---5---5/--7---|7---5---5---2-------5---5---5---|
C|--------------------------------|--------------------------------|
 |
 |Gtr 2
D|--------------------------------|--------------14----12p-10------|
G|----------------12--------------|----12-------12-----------------|
C|10/-12--------------------------|--------12--12------------------|
D|------------12------------------|12------------------------------|
G|--------------------------------|--------------------------------|
C|--------------------------------|--------------------------------|
 |
 |Gtr 3
D|--------------------------------|--------------------------------|
C|--------------------------------|14------------------------------|
G|--------------------------------|-----------14-------------------|
D|----------------------------14--|------------------------17------|
G|10/-12~~~~~~~~~~----------------|--------------------------------|
C|--------------------------------|--------------------------------|


  Gtr 1
D|3-------------------3---3---3---|3---2-------3-------3/--5-------|
C|0-------------------0---0---0---|0---0-------0-------0---0-------|
G|3-------------------3---3---3---|3---2-------3-------3/--5---5-5-|
D|x-------------------x---x---x---|x---x-------x-------x---x---x-x-|
G|3-------------------3---3---3---|3---2-------3-------3/--5---5-5-|
C|--------------------------------|--------------------------------|
 |
 |Gtr 2
D|----------------------------12--|----12--12--12--12p-10----------|
G|------------------------10------|--------------------------------|
C|--------------------10----------|--------------------------------|
D|10------------------------------|--------------------------------|
G|--------------------------------|--------------------------------|
C|--------------------------------|--------------------------------|
 |
 |Gtr 3
D|--------------------------------|--------------------------------|
C|--------------------------------|--------------------------------|
G|14~~--------15~~--------14------|--------------------------------|
D|----------------------------17--|17~~------------15~~----17------|
G|--------------------------------|--------------------------------|
C|--------------------------------|--------------------------------|


  Gtr 1
D|--------------------------------|--------------------------------|
C|--------------------------------|--------------------------------|
G|5/17----17--17--17--17--17--1717|17--16------14------14--12------|
D|x-------x---x---x---x---x---x-x-|x---x-------x-------x---x-------|
G|5/17----17--17--17--17--17--1717|17--16------14------14--12------|
C|0-------0---0---0---0---0---0-0-|0---0-------0-------0---0-------|
 |
 |Gtr 2
D|----------------12----------14--|14--14------14------14--14--12--|
G|----------------12----------12--|12--12------12------12--12--12--|
C|----12----------12--12------12--|12--12------12------12--12--12--|
D|12--12--12--12--12--12--12------|--------12--12------12----------|
G|12--12--12--12------12--12------|--------12----------------------|
C|12--12--12--12------12--12------|--------12----------------------|
 |
 |Gtr 3
D|17------------------------------|--------------------------------|
C|----------------17~~--------16~~|--------17~~----14------16p-14--|
G|----15~~------------------------|--------------------------------|
D|--------------------------------|--------------------------------|
G|--------------------------------|--------------------------------|
C|--------------------------------|--------------------------------|


  Gtr 1
D|--------------------------------|--------------------------------|
C|--------------------------------|--------------------------------|
G|15--15--15--15--15--15--15--1515|15--14------12------12--10--1010|
D|x---x---x---x---x---x---x---x-x-|x---x-------x-------x---x---x-x-|
G|15--15--15--15--15--15--15--1515|15--14------12------12--10--1010|
C|0---0---0---0---0---0---0---0-0-|0---0-------0-------0---0---0-0-|
 |
 |Gtr 2
D|10--------------------------12--|----12------12----------10--10--|
G|10--------------------------10--|----10------10----------10--10--|
C|10--10----------10----------10--|----10------10------10--10--10--|
D|10--10--10--10--10--10--10--10--|----10--10--10--10--10----------|
G|10--10--10--10--10--10--10------|--------10------10--10----------|
C|10--10--10--10--10--10--10------|--------10------10--10----------|
 |
 |Gtr 3
D|--------------------------------|--------------------------------|
C|----------------14~~--------16--|17~~----16--17--16--14------14--|
G|17~~~~~~------------------------|------------------------17------|
D|--------------------------------|--------------------------------|
G|--------------------------------|--------------------------------|
C|--------------------------------|--------------------------------|


  Gtr 1
D|--------------------------------|--------------------------------|
C|--------------------------------|--------------------------------|
G|17--17--17--17--17--17--17--1717|17--16------14------14--12--1212|
D|x---x---x---x---x---x---x---x-x-|x---x-------x-------x---x---x-x-|
G|17--17--17--17--17--17--17--1717|17--16------14------14--12--1212|
C|0---0---0---0---0---0---0---0-0-|0---0-------0-------0---0---0-0-|
 |
 |Gtr 2
D|----------------12----------14--|14--14------14------14--14--12--|
G|----------------12----------12--|12--12------12------12--12--12--|
C|----12----------12--12------12--|12--12------12------12--12--12--|
D|12--12--12--12--12--12--12------|--------12--12------12----------|
G|12--12--12--12------12--12------|--------12----------------------|
C|12--12--12--12------12--12------|--------12----------------------|
 |
 |Gtr 3
D|--------------------19~~~~~~----|17~~-------\15~~--------14~~----|
C|14------------------------------|--------------------------------|
G|----17--17~~--------------------|--------------------------------|
D|--------------------------------|--------------------------------|
G|--------------------------------|--------------------------------|
C|--------------------------------|--------------------------------|


  Gtr 1
D|--------------------------------|--------------------------------|
C|--------------------------------|--------------------------------|
G|15------15--15--15--15--15--1515|15--14--14--12------12--10--1010|
D|x-------x---x---x---x---x---x-x-|x---x---x---x-------x---x---x-x-|
G|15------15--15--15--15--15--1515|15--14--14--12------12--10--1010|
C|0-------0---0---0---0---0---0-0-|0---0---0---0-------0---0---0-0-|
 |
 |Gtr 2
D|10--------------------------12--|----12------12----------10--10--|
G|10--------------------------10--|----10------10----------10--10--|
C|10--10----------10----------10--|----10------10------10--10--10--|
D|10--10--10--10--10--10--10--10--|----10--10--10--10--10----------|
G|10--10--10--10--10--10--10------|--------10------10--10----------|
C|10--10--10--10--10--10--10------|--------10------10--10----------|
 |
 |Gtr 3
D|14h15p14------------------------|--------------------------------|
C|--------------------------------|--------------------------------|
G|--------15--17~~--------15------|--------15h-17--17p-15------15--|
D|----------------------------17~~|------------------------17------|
G|--------------------------------|--------------------------------|
C|--------------------------------|--------------------------------|


  Gtr 1
D|--------------------------------|--------------------------------|
C|--------------------------------|--------------------------------|
G|10/17---17--17--17--17--17171717|17--16------14------14--12--1212|
D|x---x---x---x---x---x---x-x-x-x-|x---x-------x-------x---x---x-x-|
G|10/17---17--17--17--17--17171717|17--16------14------14--12--1212|
C|0--0----0---0---0---0---0-0-0-0-|0---0-------0-------0---0---0-0-|
 |
 |Gtr 2
D|----------------12----------14--|14--14------14------14--14--12--|
G|----------------12----------12--|12--12------12------12--12--12--|
C|----12----------12--12------12--|12--12------12------12--12--12--|
D|12--12--12--12--12--12--12------|--------12--12------12----------|
G|12--12--12--12------12--12------|--------12----------------------|
C|12--12--12--12------12--12------|--------12----------------------|
 |
 |Gtr 3
D|--------------------------------|--------------------------------|
C|--------------------------------|--------16~~--------------------|
G|--------------------------------|----------------15h-17~~~~~~----|
D|17~~~~~~~~~~~~~~----------------|17p-15--------------------------|
G|--------------------------------|--------------------------------|
C|--------------------------------|--------------------------------|


  Gtr 1
D|--------------------------------|--------------------------------|
C|--------------------------------|--------------------------------|
G|15--15--15--15--15--15--15151515|15--14--14--12------12--10--1010|
D|x---x---x---x---x---x---x-x-x-x-|x---x---x---x-------x---x---x-x-|
G|15--15--15--15--15--15--15151515|15--14--14--12------12--10--1010|
C|0---0---0---0---0---0---0-0-0-0-|0---0---0---0-------0---0---0-0-|
 |
 |Gtr 2
D|10--------------------------12--|----12------12----------10--10--|
G|10--------------------------10--|----10------10----------10--10--|
C|10--10----------10----------10--|----10------10------10--10--10--|
D|10--10--10--10--10--10--10--10--|----10--10--10--10--10----------|
G|10--10--10--10--10--10--10------|--------10------10--10----------|
C|10--10--10--10--10--10--10------|--------10------10--10----------|
 |
 |Gtr 3
D|--------------------------------|--------------------------------|
C|14~~~~~~------------------------|--------------------------------|
G|------------17~~~~~~------------|--------------------------------|
D|-----------------------------15b|17`````````````````````r15------|
G|--------------------------------|--------------------------------|
C|--------------------------------|--------------------------------|


  Gtr 1
D|--------------------------------|--------------------------------|
C|--------------------------------|--------------------------------|
G|17--17--17--17171717171717171717|17--16--16--14--14--14--12--1212|
D|x---x---x---x-x-x-x-x-x-x-x-x-x-|x---x---x---x---x---x---x---x-x-|
G|17--17--17--17171717171717171717|17--16--16--14--14--14--12--1212|
C|0---0---0---0-0-0-0-0-0-0-0-0-0-|0---0---0---0---0---0---0---0-0-|
 |
 |Gtr 2
D|----------------12----------14--|14--14------14------14--14--12--|
G|----------------12----------12--|12--12------12------12--12--12--|
C|----12----------12--12------12--|12--12------12------12--12--12--|
D|12--12--12--12--12--12--12------|--------12--12------12----------|
G|12--12--12--12------12--12------|--------12----------------------|
C|12--12--12--12------12--12------|--------12----------------------|
 |
 |Gtr 3
D|--------------------------------|--------------------------------|
C|--------------------------------|------------12~~----------------|
G|--------------------------------|------------0-----------0-------|
D|14\-----12\-----10~~--------14~~|--------------------------------|
G|------------------------14------|--------14----------------------|
C|--------------------------------|--------------------------------|


  Gtr 1
D|--------------------------------|--------------------------------|
C|--------------------------------|--------------------------------|
G|15--15--15--151515--15--15151515|15--14------12------12--10--1010|
D|x---x---x---x-x-x---x---x-x-x-x-|x---x-------x-------x---x---x-x-|
G|15--15--15--151515--15--15151515|15--14------12------12--10--1010|
C|0---0---0---0-0-0---0---0-0-0-0-|0---0-------0-------0---0---0-0-|
 |
 |Gtr 2
D|10--------------------------12--|----12------12----------10--10--|
G|10--------------------------10--|----10------10----------10--10--|
C|10--10----------10----------10--|----10------10------10--10--10--|
D|10--10--10--10--10--10--10--10--|----10--10--10--10--10----------|
G|10--10--10--10--10--10--10------|--------10------10--10----------|
C|10--10--10--10--10--10--10------|--------10------10--10----------|
 |
 |Gtr 3
D|--------------------------------|--------------------------------|
C|------------12~~--------14~~----|12~~------------10/-12~~--------|
G|------------0-----------0-------|0---------------0---0-----------|
D|14~~----------------------------|--------------------------------|
G|--------14----------------------|--------------------------------|
C|--------------------------------|--------------------------------|





3RD VERSE
  Gtr 1
D|--------------------------------|--------------------------------|
C|--------------------------------|--------------------------------|
G|--------------------------------|--------------------------------|
D|--------------------------------|--------------------------------|
G|9---------------7-------5---4---|--------------------4---4---4---|
C|0---0---0---0---0---0---0---0---|0---0---0---0---0---0---0---0---|
 |
 |Gtr 2
D|--------------------------------|--------------------------------|
G|--------------------------------|--------------------------------|
C|--------------------------------|--------------------------------|
D|--------------------------------|--------------------------------|
G|9---------------7-------5---4---|--------------------------------|
C|--------------------------------|--------------------------------|
 |
 |Gtr 3 (fade out)
D|--------------------------------|--------------------------------|
C|12~~~~~~~~~~~~~~----------------|(12)----------------------------|
G|0-------------------------------|(0)-----------------------------|
D|--------------------------------|--------------------------------|
G|--------------------------------|--------------------------------|
C|--------------------------------|--------------------------------|


  Gtr 1
D|--------------------------------|--------------------------------|
C|--------------------------------|--------------------------------|
G|--------------------------------|--------------------------------|
D|--------------------------------|----------------4---4---4-------|
G|5---------------4---2-------4---|--------4---4---4---4---4---0---|
C|0---0---0---0---0---0---0---4---|----4---4---4---4---4---4---0---|
 |
 |Gtr 2
D|--------------------------------|--------------------------------|
G|--------------------------------|--------------------------------|
C|--------------------------------|--------------------------------|
D|--------------------------------|--------------------------------|
G|5---------------4\--2-----------|----4-----------4---------------|
C|----------------------------4---|------------4-------------------|


  Gtr 1
D|--------------------------------|--------------------------------|
C|--------------------------------|--------------------------------|
G|--------------------------------|--------------------------------|
D|--------------------------------|--------------------------------|
G|9---------------7-------5\--4---|------------4---4---4---4---4---|
C|0---0---0---0---0---0---0---0---|0---0---0---0---0---0---0---0---|
 |
 |Gtr 2
D|--------------------------------|--------------------------------|
G|--------------------------------|--------------------------------|
C|--------------------------------|--------------------------------|
D|--------------------------------|--------------------------------|
G|9---------------7-------5---4---|--------------------------------|
C|--------------------------------|--------------------------------|


  Gtr 1
D|--------------------------------|--------------------------------|
C|--------------------------------|--------------------------------|
G|--------------------------------|--------------------------------|
D|--------------------------------|----------------4---4---4-------|
G|5---------------4---2-------4---|--------4---4---4---4---4---0---|
C|0---0---0---0---0---0---0---4---|----4---4---4---4---4---4---0---|
 |
 |Gtr 2
D|--------------------------------|--------------------------------|
G|--------------------------------|--------------------------------|
C|--------------------------------|--------------------------------|
D|--------------------------------|--------------------------------|
G|5---------------4---2-----------|--------------------------------|
C|----------------------------4---|--------------------------------|


  Gtr 1
D|--------------------------------|--------------------------------|
C|--------------------------------|--------------------------------|
G|9-------9---9---7---5---5---4---|--------4---4---4---4---4---4---|
D|x-------x---x---x---x---x---x---|--------x---x---x---x---x---x---|
G|9---9---9---9---7---5---5---4---|4---4---4---4---4---4---4---4---|
C|0---0---0---0---0---0---0---0---|0---0---0---0---0---0---0---0---|
 |
 |Gtr 2
D|--------------------------------|--------------------------------|
G|9---------------7\--5-------4---|--------------------------------|
C|--------------------------------|--------------------------------|
D|--------------------------------|--------------------------------|
G|9---------------7\--5-------4---|--------------------------------|
C|--------------------------------|--------------------------------|


  Gtr 1
D|--------------------------------|--------------------------------|
C|--------------------------------|--------------------------------|
G|5-------5---5---4---2---2-------|--------------------------------|
D|x-------x---x---x---x---x-------|----------------4---4---4---4---|
G|5---5---5---5---4---2---2---4---|--------4---4---4---4---4---4---|
C|0---0---0---0---0---0---0---4---|----4---4---4---4---4---4---4---|
 |
 |Gtr 2
D|--------------------------------|--------------------------------|
G|5---------------4\--2-------4---|--------------------------------|
C|--------------------------------|--------------------------------|
D|--------------------------------|--------------------------------|
G|5---------------4\--2-----------|--------------------------------|
C|----------------------------4---|--------------------------------|





CHORUS RIFF: repeat x8

ENDING
  Gtr 1
D|--------------------------------|
C|--------------------------------|
G|5-------------------------------|
D|5-------------------------------|
G|5-------------------------------|
C|0-------------------------------|
 |
 |Gtr 2
D|--------------------------------|
G|--------------------------------|
C|--------------------------------|
D|--------------------------------|
G|--------------------------------|
C|12------------------------------|
comments
We did not receive enough feedback on this tab! Please rate:
print report bad tab
1 2 3 4 5
I want to post or [tab]
guest
You may want to rate the tab now too:
select rating
Please do not post tabs as comments. Select "correction" instead!