Oops, an error
Loading. Please wait.

Blow Up The Outside World Bass Tab

ver2
ver2

Whole song

More versions @911Tabs.com
257 views 3 this week
no commentswrite comment
1 2 3 4 5
please rate
Autoscroll
+/-
esc
set tempo
stop
Contributor
WARNING: You are trying to view
                                    content from Ultimate-Guitar.com
                                    in an unauthorized application,
                                    which is prohibited.

                                    Please use an official Ultimate
                                    Guitar Tabs application for iPhone,
                                    iPad or Android to access legitimate
                                    chords, guitar, bass, and drum tabs
                                    from Ultimate-Guitar.com database.

                                    Type "ultimate guitar tabs" in Apple
                                    App Store's or Android Market's
                                    search to find the application.
Song: Blow Up The Outside World
Artist: Soundgarden
Album: Down On The Upside
Tabbed by: Jase Warner (www.erikk.co.uk)

Standard Tuning (E,A,D,G)

Intro:

G|--------------|--------------|--------------|--------------|
D|*-------------|--------------|--------------|-------------*|
A|*-------------|--------------|-3~-----------|-------------*|
E|-0~-----------|--------------|--------------|----------3---|

G|--------------|--------------|--------------|--------------|
D|*-------------|--------------|--------------|-------------*|
A|*-------------|--------------|-3~-----------|-------------*|
E|-0~-----------|--------------|--------------|----------3---| x2

First Verse:

G|-----------9--|--------------|------------9-|--------------|
D|*-------------|--------------|--------------|-------------*|
A|*-------------|-3-3-3p5--5p7-|--------------|-3-3-3p5--5p7*|
E|-0~-----------|--------------|-0~-----------|--------------|

G|--------------|--------------|--------------|--------------|
D|*-------------|--------------|--------------|-------------*|
A|*-------------|--------------|-5------------|-3-----------*|
E|-0~-----------|--------------|--------------|--------3-----|

G|--------------|--------------|--------------|--------------|
D|*-------------|--------------|--------------|-------------*|
A|*-------------|--------------|--------------|-2--2-2------*|
E|-2~-----------|--------------|-2-2~---------|--------3--3-3|

G|--------------|--------------|--------------|--------------|
D|*-------------|--------------|--------------|-------------*|
A|*3~-----------|-3-3~-------3-|--------------|-------------*|
E|--------------|--------------|-5~-----------|-----------5-|

G|--------------|--------------|--------------|--------------|
D|*-------------|--------------|--------------|-------------*|
A|*-------------|--------------|-2-0---0------|0-0----------*|
E|-2------------|--------------|--------------|----2-2p0--2~-|

Break:

G|--------------|--------------|
D|*-------------|-------------*|
A|*-------------|-------------*|
E|--------------|0--2--4--2--0-|

Second Verse:

G|-----------9--|--------------|------------9-|--------------|
D|*-------------|--------------|--------------|-------------*|
A|*-------------|-3-3-3p5--5p7-|--------------|-3-3-3p5--5p7*|
E|-0~-----------|--------------|-0~-----------|--------------|

G|--------------|--------------|--------------|--------------|
D|*-------------|--------------|--------------|-------------*|
A|*-------------|--------------|-5------------|-3-----------*|
E|-0~-----------|--------------|--------------|--------3-----|

G|--------------|--------------|--------------|--------------|
D|*-------------|--------------|--------------|-------------*|
A|*-------------|--------------|--------------|-2--2-2------*|
E|-2~-----------|--------------|-2-2~---------|--------3--3-3|

G|--------------|--------------|--------------|--------------|
D|*-------------|--------------|--------------|-------------*|
A|*3~-----------|-3-3~-------3-|--------------|-------------*|
E|--------------|--------------|-5~-----------|-----------5--|

G|--------------|--------------|--------------|--------------|
D|*-------------|--------------|--------------|-------------*|
A|*-------------|--------------|-0~-----------|-------------*|
E|-2~-----------|--2--2~-------|--------------|--------------|

Pre-Chorus:

G|--------------|--------------|--------------|--------------|
D|*-------------|--------------|--------------|--------------|
A|*0---0---0---0|-0--0--0--0-0-|-3---3---3---3|-3--3-3-3--3-3|
E|--------------|--------------|--------------|--------------|

G|--------------|--------------|--------------|--------------|
D|*-------------|--------------|--------------|--------------|
A|*2---2---2---2|-2--2--2--2-2-|--------------|-4-----4----4-|
E|--------------|--------------|-3----3-3--3-|---------------|

G|--------------|--------------|--------------|--------------|
D|*-------------|--------------|--------------|--------------|
A|*0---0---0---0|-0---0---0---0|-3---3---3---3|-3--3-3-3--3-3|
E|--------------|--------------|--------------|--------------|

G|--------------|--------------|
D|*-------------|-------------*|
A|*-------------|-------------*|
E|-2---2---2---2|-2---2--2--2--|

Chorus:

G|--------------|--------------|--------------|--------------|
D|*-------------|--------------|--------------|-------------*|
A|*-------7--5--|-3-3-3p5--5p7-|--------7--5--|-3-3-3p5--5p7*|
E|-0~-----------|--------------|-0~-----------|--------------|

G|--------------|--------------|--------------|--------------|
D|*-------------|--------------|--------------|-------------*|
A|*-------7--5--|-3--3-3p2-----|-2------------|-5~----------*|
E|-0------------|----------5p3-|----0---------|--------------|

Second Verse:

G|-----------9--|--------------|------------9-|--------------|
D|*-------------|--------------|--------------|-------------*|
A|*-------------|-3-3-3p5--5p7-|--------------|-3-3-3p5--5p7*|
E|-0~-----------|--------------|-0~-----------|--------------|

G|--------------|--------------|--------------|--------------|
D|*-------------|--------------|--------------|-------------*|
A|*-------------|--------------|-5------------|-3-----------*|
E|-0~-----------|--------------|--------------|--------3-----|

G|--------------|--------------|--------------|--------------|
D|*-------------|--------------|--------------|-------------*|
A|*-------------|--------------|--------------|-2--2-2------*|
E|-2~-----------|--------------|-2-2~---------|--------3--3-3|

G|--------------|--------------|--------------|--------------|
D|*-------------|--------------|--------------|-------------*|
A|*3~-----------|-3-3~-------3-|--------------|-------------*|
E|--------------|--------------|-5~-----------|-----------5--|

G|--------------|--------------|--------------|--------------|
D|*-------------|--------------|--------------|-------------*|
A|*-------------|--------------|-0~-----------|-------------*|
E|-2~-----------|--2--2~-------|--------------|--------------|

Pre-Chorus:

G|--------------|--------------|--------------|--------------|
D|*-------------|--------------|--------------|--------------|
A|*0---0---0---0|-0--0--0--0-0-|-3---3---3---3|-3--3-3-3--3-3|
E|--------------|--------------|--------------|--------------|

G|--------------|--------------|--------------|--------------|
D|*-------------|--------------|--------------|--------------|
A|*2---2---2---2|-2--2--2--2-2-|--------------|-4-----4----4-|
E|--------------|--------------|-3----3-3--3--|--------------|

G|--------------|--------------|--------------|--------------|
D|*-------------|--------------|--------------|--------------|
A|*0---0---0---0|-0---0---0---0|-3---3---3---3|-3--3-3-3--3-3|
E|--------------|--------------|--------------|--------------|

G|--------------|--------------|
D|*-------------|-------------*|
A|*-------------|-------------*|
E|-2---2---2---2|-2---2--2--2--|

Chorus:

G|--------------|--------------|--------------|--------------|
D|*-------------|--------------|--------------|-------------*|
A|*-------7--5--|-3-3-3p5--5p7-|--------7--5--|-3-3-3p5--5p7*|
E|-0~-----------|--------------|-0~-----------|--------------|

G|--------------|--------------|--------------|--------------|
D|*-------------|--------------|--------------|-------------*|
A|*-------7--5--|-3--3-3p2-----|-2------------|-5~----------*|
E|-0------------|----------5p3-|----0---------|--------------|

Guitar Solo:

G|-----------9--|--------------|-----------9--|--------------|
D|*-------------|--------------|--------------|-------------*|
A|*-------------|-3-3-3p5--5p7-|--------------|-3-3-3p5--5p7*|
E|-0~-----------|--------------|-0~-----------|--------------|

G|-----------9--|--------------|-----------9--|--------------|
D|*-------------|--------------|--------------|-------------*|
A|*-------------|-3-3-3p5--5p7-|--------------|-3-3-3p5--5p7*|
E|-0~-----------|--------------|-0~-----------|--------------| x2

Interlude:

G|--------------|--------------|--------------|--------------|
D|*-------------|--------------|--------------|-------------*|
A|*-----3-------|-5~-----------|--------------|-------------*|
E|-5-5------5-5-|--------------|--------------|--------------|

G|--------------|--------------|--------------|--------------|
D|*-------------|--------------|--------------|-------------*|
A|*-----3-------|-5~-----------|--------------|-------------*|
E|-5-5------5-5-|--------------|--------------|--------------|

G|--------------|--------------|--------------|--------------|
D|*-------------|--------------|--------------|-------------*|
A|*-----5-------|-7------7---7-|--3~----3---3-|------5------*|
E|-5-5------5-5-|----0-0---0---|--------------|-5-5------5-5-|

G|--------------|--------------|--------------|
D|*-------------|--------------|-------------*|
A|*7------7---7-|--3-----3---3-|------5------*|
E|----0-0---0---|--------------|-5-5------5-5-|

G|--------------|--------------|--------------|
D|*-------------|--------------|-------------*|
A|*7------7---7-|--3-----3---3-|------5------*|
E|----0-0---0---|--------------|-5-5------5-5-|

Chorus:

G|--------------|--------------|--------------|--------------|
D|*-------------|--------------|--------------|-------------*|
A|*-------7--5--|-3-3-3p5--5p7-|--------7--5--|-3-3-3p5--5p7*|
E|-0~-----------|--------------|-0~-----------|--------------|

G|--------------|--------------|--------------|--------------|
D|*-------------|--------------|--------------|-------------*|
A|*-------7--5--|-3-3-3p5--5p7-|--------7--5--|-3-3-3p5--5p7*|
E|-0~-----------|--------------|-0~-----------|--------------|

Break:

G|--------------|--------------|--------------|--------------|
D|*-------------|--------------|--------------|-------------*|
A|*-------7--5--|-3-3-3p5--5p7-|--------7--5--|-3-3-3p5--5p7*|
E|-0~-----------|--------------|-0~-----------|--------------|

G|--------------|--------------|--------------|--------------|
D|*-------------|--------------|--------------|-------------*|
A|*-------7--5--|-3-3-3p5--5p7-|--------7--5--|-3-3-3p5--5p7*|
E|-0~-----------|--------------|-0~-----------|--------------|

G|--------------|--------------|--------------|--------------|
D|*-------------|--------------|--------------|-------------*|
A|*-------7--5--|-3-3-3p5--5p7-|--------7--5--|-3-3-3p5--5p7*|
E|-0~-----------|--------------|-0~-----------|--------------|

Outro:

G|--------------|--------------|--------------|--------------|
D|*-------------|--------------|--------------|-------------*|
A|*-------------|--------------|--------------|-------------*|
E|-0~-----------|--------------|-0~-----------|--------------| x2

G|--------------|--------------|--------------|--------------|
D|*-------------|-6p7---6------|--------------|-6p7---6-----*|
A|*-------------|----------7---|--------------|----------7--*|
E|-0~-----------|--------------|-0~-----------|--------------| x3

G|--------------|--------------|--------------|--------------|
D|*-------------|--------------|--------------|-------------*|
A|*-------------|--------------|--------------|-------------*|
E|-0~-----------|--------------|--------------|--------------|
comments
We did not receive enough feedback on this tab! Please rate:
1 2 3 4 5
I want to post or [tab]
guest
You may want to rate the tab now too:
select rating
Please do not post tabs as comments. Select "correction" instead!