Oops, an error
Loading. Please wait.

Cold Bitch Tab

ver2
ver2

Whole song

More versions @911Tabs.com
297 views 1 this week
no commentswrite comment
1 2 3 4 5
accurate
x 1
Autoscroll
+/-
esc
set tempo
stop
Contributor
Difficulty
Tuning
intermediate
D A D G B E
Hey! There's an official Ultimate Guitar app which is ideal
for learning songs when you're away from computer. Get the app
WARNING: You are trying to view
                                    content from Ultimate-Guitar.com
                                    in an unauthorized application,
                                    which is prohibited.

                                    Please use an official Ultimate
                                    Guitar Tabs application for iPhone,
                                    iPad or Android to access legitimate
                                    chords, guitar, bass, and drum tabs
                                    from Ultimate-Guitar.com database.

                                    Type "ultimate guitar tabs" in Apple
                                    App Store's or Android Market's
                                    search to find the application.
Cold Bitch

Fade intro   Dropped D Tuning   3/4               4/4
|--------------------------------|-------------|---------------|----------------|
|--------------------------------|-----13--12--|---------------|----------------|
|--------------------------------|-------------|---------------|----------------|
|--------------------------------|-----10--9---|------9--8--7--|----------------|
|--------------------------------|-------------|------9--8--7--|----------------|
|--------------------------------|--0----------|---0--9--8--7--|----------------|


3/4          4/4             3/4
----------|---------------|------------|-----------|-----------|-----------|----|
----8--7--|---------------|------------|-----------|-----------|-----------|----|
----------|---------------|---------7--|-----------|-----------|-----------|----|
----5--4--|------5--4--3--|------------|-----0--1--|-----0--3--|--1-----0--|----|
----------|------5--4--3--|------6--5--|-----0--1--|-----0--3--|--1-----0--|----|
-0--------|---0--5--4--3--|---0--------|-----0--1--|-----0--3--|--1-----0--|----|


6/8     3/4               4/4             3/4          4/4
---------|-------------|---------------|------------|---------------|-----------|
---------|-----13--12--|---------------|------8--7--|---------------|-----------|
---------|-------------|---------------|------------|---------------|-----------|
-3-------|-----10--9---|------9--8--7--|------5--4--|------5--4--3--|-----------|
-3-------|-------------|------9--8--7--|------------|------5--4--3--|-----------|
-3-------|--0----------|---0--9--8--7--|---0--------|---0--5--4--3--|-----------|


3/4
----------|--------|-----------|-----------|--------|----------------------------|
----------|--------|-----------|-----------|--------|----------------------------|
----8--7--|--------|-----------|-----------|--------|----------------------------|
----------|--0--1--|-----0--3--|--1-----0--|---3----|----------------------------|
----6--5--|--0--1--|-----0--3--|--1-----0--|---3----|----------------------------|
-0--------|--0--1--|-----0--3--|--1-----0--|---3----|----------------------------|


3/4 On your breast...4/4            3/4          4/4
||----------------|---------------|------------|---------------|----------------|
||--------13--12--|---------------|------8--7--|---------------|----------------|
||*---------------|---------------|------------|---------------|----------------|
||*-------10--9---|------9--8--7--|------5--4--|------5--4--3--|----------------|
||----------------|------9--8--7--|------------|------5--4--3--|----------------|
||----0-----------|---0--9--8--7--|---0--------|---0--5--4--3--|----------------|


3/4
----------|--------|-----------|-----------|-------|-----------------------------|
----------|--------|-----------|-----------|-------|-----------------------------|
----8--7--|--------|-----------|-----------|-------|-----------------------------|
----------|--0--1--|-----0--3--|--1-----0--|---3---|-----------------------------|
----6--5--|--0--1--|-----0--3--|--1-----0--|---3---|-----------------------------|
-0--------|--0--1--|-----0--3--|--1-----0--|---3---|-----------------------------|


 3/4 In your mouth...4/4          3/4          4/4
||----------------|---------------|------------|------------------|-------------|
||-------13---12--|---------------|------8--7--|------------------|-------------|
||*---------------|------4--5--7--|------------|------11--12--15--|-------------|
||*------10---9---|------0--0--0--|------5--4--|------0---0---0---|-------------|
||----------------|---------------|------------|------------------|-------------|
||----0-----------|--0------------|---0--------|---0--------------|-------------|


3/4
----------|--------|-----------|--------|-------|---||---------------------------|
----------|--------|-----------|--------|-------|---||---------------------------|
----8--7--|--------|-----------|--------|-------|--*||---------------------------|
----------|--0--1--|-----0--3--|--1--0--|---3---|--*||---------------------------|
----6--5--|--0--1--|-----0--3--|--1--0--|---3---|---||---------------------------|
-0--------|--0--1--|-----0--3--|--1--0--|---3---|---||---------------------------|


3/4            But in your heart I'd freeze         4/4
||----------------|-----------|--------|-----------|----------||----------------|
||----------------|-----------|--------|-----------|----------||----------------|
||*---------8--7--|-----------|--------|-----------|---------*||----------------|
||*---------------|-----------|--------|-----------|---------*||----------------|
||----------6--5--|-----------|--------|-/8--7--6--|----------||----------------|
||-------0--------|--0--7--6--|--0--5--|-----------|----------||----------------|


               3/4   In your eyes...4/4             3/4
----------------||---------------|---------------|------------|-----------------|
----------------||-------13--12--|---------------|------8--7--|-----------------|
----------------||*--------------|---------------|------------|-----------------|
----------------||*------10--9---|------9--8--7--|------5--4--|-----------------|
----------------||---------------|------9--8--7--|------------|-----------------|
----------------||----0----------|---0--9--8--7--|---0--------|-----------------|


4/4             3/4
-------------|------------|--------|-----------|-----------|------|----||--------|
-------------|------------|--------|-----------|-----------|------|----||--------|
-------------|------8--7--|--------|-----------|-----------|------|---*||--------|
----5--4--3--|------------|--0--1--|-----0--3--|--1-----0--|---3--|---*||--------|
----5--4--3--|------6--5--|--0--1--|-----0--3--|--1-----0--|---3--|----||--------|
-0--5--4--3--|---0--------|--0--1--|-----0--3--|--1-----0--|---3--|----||--------|


     3/4 In your lungs..4/4          3/4          4/4
||----------------|---------------|------------|------------------|-------------|
||--------13--12--|---------------|------8--7--|------------------|-------------|
||*---------------|------4--5--7--|------------|------11--12--15--|-------------|
||*-------10--9---|------0--0--0--|------5--4--|------0---0---0---|-------------|
||----------------|---------------|------------|------------------|-------------|
||----0-----------|--0------------|---0--------|---0--------------|-------------|


3/4
----------|--------|-----------|--------|-----|-----||---------------------------|
----------|--------|-----------|--------|-----|-----||---------------------------|
----8--7--|--------|-----------|--------|-----|----*||---------------------------|
----------|--0--1--|-----0--3--|--1--0--|---3-|----*||---------------------------|
----6--5--|--0--1--|-----0--3--|--1--0--|---3-|-----||---------------------------|
-0--------|--0--1--|-----0--3--|--1--0--|---3-|-----||---------------------------|


 3/4    But in your heart I'd freeze                4/4
||----------------|-----------|--------|-----------|----------||----------------|
||----------------|-----------|--------|-----------|----------||----------------|
||*---------8--7--|-----------|--------|-----------|---------*||----------------|
||*---------------|-----------|--------|-----------|---------*||----------------|
||----------6--5--|-----------|--------|--8--7--6--|----------||----------------|
||-------0--------|--0--7--6--|--0--5--|-----------|----------||----------------|


3/4  But in your heart I'd freeze      2/4       4/4
||----------------|-----------|---------|---------|--------------|--------------|
||----------------|-----------|---------|---------|--------------|--------------|
||*---------8--7--|-----------|---------|---------|-----8--------|--------------|
||*---------------|-----------|---------|---------|--------8-----|--------------|
||----------6--5--|-----------|---------|--8--7---|--6--------6--|--------------|
||-------0--------|--0--7--6--|--0--5---|---------|--------------|--------------|



------------|--------------|--------------|------------------|------------------|
------------|--------------|--------------|------------------|------------------|
8-----------|--------------|--------------|------------------|------------------|
---8-----8--|-----3--------|--3-----------|------10----------|------------------|
------6-----|--------3-----|-----3-----3--|----------10------|------------------|
------------|--3--------3--|--------3-----|--10----------10--|------------------|


                                             I would freeze...
----------------|-----|-----|-----|-----||-----------------|---------------|----|
----------------|-----|-----|-----|-----||-----------------|---------------|----|
----------------|-----|-----|-----|-----||*---------17-16--|--------12-11--|----|
10--------------|-----|-----|-----|-----||*-----------\----|----------\----|----|
----10------10--|-----|-----|-----|-----||----------15-14--|--------10-9---|----|
--------10------|--0--|-----|-----|-----||----0--0---------|-----0---------|----|


                  I would feed your heart...
---------||--||-----------------|---------------|-----------||------------------|
---------||--||-----------------|---------------|-----------||------------------|
---6-7--*||--||*---------17-16--|--------12-11--|-----6-7--*||------------------|
----/---*||--||*-----------\----|----------\----|------/---*||------------------|
---4-5---||--||----------15-14--|--------10-9---|-----4-5---||------------------|
0--------||--||----0--0---------|-----0---------|--0--------||------------------|


And put your love...         3/4 Guitar Solo    4/4             3/4
-------------|---------------||---------------|---------------|------------|----|
-------------|---------------||-------13--12--|---------------|------8--7--|----|
-------------|---------------||*--------------|---------------|------------|----|
----3--------|--3------------||*------10--9---|------9--8--7--|------5--4--|----|
-------3-----|-----3-----3---||---------------|------9--8--7--|------------|----|
-3--------3--|--------3------||----0----------|---0--9--8--7--|---0--------|----|


4/4             3/4
-------------|------------|--------|-----------|-----------|-----|-----||--------|
-------------|------------|--------|-----------|-----------|-----|-----||--------|
-------------|------8--7--|--------|-----------|-----------|-----|----*||--------|
----5--4--3--|------------|--0--1--|-----0--3--|--1-----0--|---3-|----*||--------|
----5--4--3--|------6--5--|--0--1--|-----0--3--|--1-----0--|---3-|-----||--------|
-0--5--4--3--|---0--------|--0--1--|-----0--3--|--1-----0--|---3-|-----||--------|


3/4   But in your heart I'd freeze                     4/4
-||----------------|-----------|--------|-----------|----------||---------------|
-||----------------|-----------|--------|-----------|----------||---------------|
-||*---------8--7--|-----------|--------|-----------|---------*||---------------|
-||*---------------|-----------|--------|-----------|---------*||---------------|
-||----------6--5--|-----------|--------|--8--7--6--|----------||---------------|
-||-------0--------|--0--7--6--|--0--5--|-----------|----------||---------------|


3/4   But in your heart I'd freeze      2/4       4/4
||----------------|-----------|---------|---------|--------------|--------------|
||----------------|-----------|---------|---------|--------------|--------------|
||*---------8--7--|-----------|---------|---------|-----8--------|--------------|
||*---------------|-----------|---------|---------|--------8-----|--------------|
||----------6--5--|-----------|---------|--8--7---|--6--------6--|--------------|
||-------0--------|--0--7--6--|--0--5---|---------|--------------|--------------|



------------|--------------|--------------|------------------|------------------|
------------|--------------|--------------|------------------|------------------|
8-----------|--------------|--------------|------------------|------------------|
---8-----8--|-----3--------|--3-----------|------10----------|------------------|
------6-----|--------3-----|-----3-----3--|----------10------|------------------|
------------|--3--------3--|--------3-----|--10----------10--|------------------|


                   (hold for a while)
----------------|------------------------------------------|--------------------|
----------------|------------------------------------------|--------------------|
----------------|------------------------------------------|--------------------|
10--------------|------------------------------------------|--------------------|
----10------10--|------------------------------------------|--------------------|
--------10------|---0--------------------------------------|--------------------|
comments
We did not receive enough feedback on this tab! Please rate:
print report bad tab
1 2 3 4 5
I want to post or [tab]
guest
You may want to rate the tab now too:
select rating
Please do not post tabs as comments. Select "correction" instead!