Oops, an error
Loading. Please wait.

Fell On Black Days Tab

ver5
ver5

Whole song

Interactive

More versions @911Tabs.com
5,531 views 108 this week
no commentswrite comment
1 2 3 4 5
excellent!
x 4
Autoscroll
+/-
esc
set tempo
stop
Contributor
NEW! There's an official Ultimate Guitar app which is ideal
for learning songs when you're away from computer. Get the app
WARNING: You are trying to view
                                    content from Ultimate-Guitar.com
                                    in an unauthorized application,
                                    which is prohibited.

                                    Please use an official Ultimate
                                    Guitar Tabs application for iPhone,
                                    iPad or Android to access legitimate
                                    chords, guitar, bass, and drum tabs
                                    from Ultimate-Guitar.com database.

                                    Type "ultimate guitar tabs" in Apple
                                    App Store's or Android Market's
                                    search to find the application.

FELL ON BLACK DAYS

Soundgarden

Tabbed by:Brownbear93

Tuning:Standard


Intro:
G1
|--------------------------------------------------------------------------------|
|--------------------------------------------------------------------------------|
|--------------------------------------------------------------------------------|
|--9--x-------7-0------------9--x-------7-0------------9--x-------7-0------------|
|--7--x--9br--7-0-7-7-7-7-x--7--x--9br--7-0-7-7-7-7-x--7--x--9br--7-0-7-7-7-7-x--|
|--0-----7br------8-8-8-8-x--0-----7br------8-8-8-8-x--0-----7br------8-8-8-8-x--|
PM                .....                     .....                     .....   
           

 G1
|-------------------0---------------|
|-------------------0---------------|
|-------------------0---------------|
|--9--x-------7-0---9---------------|
|--7--x--9br--7-0-7-7---------------|
|--0-----7br------8-8---------------|
|
|G2
|-----------------------------------|
|-----------------------------------|
|------------------7b----------r----|
|-----------------------------------|
|-----------------------------------|
|-----------------------------------|


1st Verse:
|--------------------------------------------------------------------------------|
|--------------------------------------------------------------------------------|
|--------------------------------------------------------------------------------|x3
|--9--x-------7-0------------9--x-------7-0------------9--x-------7-0------------|
|--7--x--9br--7-0-7-7-7-7-x--7--x--9br--7-0-7-7-7-7-x--7--x--9br--7-0-7-7-7-7-x--|
|--0-----7br------8-8-8-8-x--0-----7br------8-8-8-8-x--0-----7br------8-8-8-8-x--|
PM                .....                     .....                     .....     


 G1
|--------------------------------0----------------------|
|--------------------------------0----------------------|
|--------------------------------0----------------------|
|---------------9----------------9----------------------|
|--9---9-9--9---7--9--7-7--7/9-7-7----------------------|
|--7---7-7--7------7--5-5--5/7-8-8----------------------|
|                                         
|G2
|---------------------------------0---------------------|
|---------------------------------0---------------------|
|---------------------------------0---------------------|
|--9---9-9--9--9--9\7--7-7-7/12-9-9---------------------|
|--x---x-x--x--x--x-x--x-x-x--x-7-7---------------------|
|--7---7-7--7--7--7\5--5-5-5/10-8-8---------------------|
                                          
                                        
Chorus:
|------------------------------------------------------|
|------------------------------------------------------|
|------------------------------------------------------|
|--9--x-------7-0------------9--x-------7-0------------|
|--7--x--9br--7-0-7-7-7-7-x--7--x--9br--7-0-7-7-7-7-x--|
|--0-----7br------8-8-8-8-x--0-----7br------8-8-8-8-x--|
PM                .....                     .....    
 

|---------------------------------------------0--------|
|---------------------------------------------0--------|
|---------------------------------------------0--------|
|--9--x-------7-0------------9--x-------7-0---9--------|
|--7--x--9br--7-0-7-7-7-7-x--7--x--9br--7-0-7-7--------|
|--0-----7br------8-8-8-8-x--0-----7br------8-8--------|
PM                .....                                           
  


2nd Verse:
|--------------------------------------------------------------------------------|
|--------------------------------------------------------------------------------|
|--------------------------------------------------------------------------------|x3
|--9--x-------7-0------------9--x-------7-0------------9--x-------7-0------------|
|--7--x--9br--7-0-7-7-7-7-x--7--x--9br--7-0-7-7-7-7-x--7--x--9br--7-0-7-7-7-7-x--|
|--0-----7br------8-8-8-8-x--0-----7br------8-8-8-8-x--0-----7br------8-8-8-8-x--|
PM                .....                     .....                     .....  


 G1
|--------------------------------0----------------------|
|--------------------------------0----------------------|
|--------------------------------0----------------------|
|---------------9----------------9----------------------|
|--9---9-9--9---7--9--7-7--7/9-7-7----------------------|
|--7---7-7--7------7--5-5--5/7-8-8----------------------|
|                                         
|G2
|---------------------------------0---------------------|
|---------------------------------0---------------------|
|---------------------------------0---------------------|
|--9---9-9--9--9--9\7--7-7-7/12-9-9---------------------|
|--x---x-x--x--x--x-x--x-x-x--x-7-7---------------------|
|--7---7-7--7--7--7\5--5-5-5/10-8-8---------------------|
|
|G3 w/wah
|-------------------------------------------------------|
|-------------------10b-10~---10br----------------------|
|---7~-------9br-7-----------------9~--------------\----|
|--------9----------------------------------------------|
|-------------------------------------------------------|
|-------------------------------------------------------|
                                                                                     


Chorus:
|------------------------------------------------------|
|------------------------------------------------------|
|------------------------------------------------------|
|--9--x-------7-0------------9--x-------7-0------------|
|--7--x--9br--7-0-7-7-7-7-x--7--x--9br--7-0-7-7-7-7-x--|
|--0-----7br------8-8-8-8-x--0-----7br------8-8-8-8-x--|
PM                .....                     .....    
  

|-------------------------------------------------|
|-------------------------------------------------|
|-------------------------------------------------|
|--9--x-------7-0------------9--x-------7-0-------|
|--7--x--9br--7-0-7-7-7-7-x--7--x--9br--7-0-7/----|
|--0-----7br------8-8-8-8-x--0-----7br------8/----|
PM                .....                                           
  
  
Post Chorus:
|---------------------------------------------------|
|---------------------------------------------------|
|---------------------------------------------------|
|--7-7-7-7/9-------7-0------------9--x-------7-0----|
|--5-5-5-5/7--9br--7-0-7-7-7-7-x--7--x--9br--7-0-7--|
|-------------7br------8-8-8-8-x--0-----7br------8--|
PM                     .....

|---------------------------------------------------------|
|---------------------------------------------------------|
|---------------------------------------------------------|
|--7-7-7-7/9-------7-0------------9---x-------7-0---------|
|--5-5-5-5/7--9br--7-0-7-7-7-7-x--7---x--9br--7-0-7-7-7-7-|
|-------------7br------8-8-8-8-x--0------7br------8-8-8-8-|
PM                     .....



Bridge:
|---------------------------------------------------------------------------|
|---------------------------------------------------------------------------|
|----------9/13--13/14--14-----16h17p16\14---16-17---19~---17-16-14~---14\--|x2
|--9--9-9--x--x---x--x---x---0-------------0-------0-----0-----------0------|
|--x--x-x--7/11--11/12--12--------------------------------------------------|
|--7--7-7-------------------------------------------------------------------|

|-------------------------------------------------------------------------------------|
|-------------------------------------------------------------------------------------|
|----------9/13--13/14--14-----16h17p16\14---16-17---19~---16h17p16\14---16-17---16~--|
|--9--9-9--x--x---x--x---x---0-------------0-------0-----0-------------0-------0------|
|--x--x-x--7/11--11/12--12------------------------------------------------------------|
|--7--7-7-----------------------------------------------------------------------------|

|-----------------------------------------------------|
|-----------------------------------------------------|
|----16h17p16\14---16-17---19~---17-16-14---12-11\----|
|--0-------------0-------0-----0----------0-----------|
|-----------------------------------------------------|
|-----------------------------------------------------|


3rd Verse:
|------------------------------------------------------|
|------------------------------------------------------|
|--9---------------------------------------------------|
|--9--x-------7-0------------9--x-------7-0------------|
|--7--x--9br--7-0-7-7-7-7-x--7--x--9br--7-0-7-7-7-7-x--|
|--0-----7br------8-8-8-8-x--0-----7br------8-8-8-8-x--|
PM                .....                     .....       

|--------------------------------------------------------------------------------|
|--------------------------------------------------------------------------------|
|--------------------------------------------------------------------------------|x2
|--9--x-------7-0------------9--x-------7-0------------9--x-------7-0------------|
|--7--x--9br--7-0-7-7-7-7-x--7--x--9br--7-0-7-7-7-7-x--7--x--9br--7-0-7-7-7-7-x--|
|--0-----7br------8-8-8-8-x--0-----7br------8-8-8-8-x--0-----7br------8-8-8-8-x--|
PM                .....                     .....                     ..... 



G1 Backing for solo:
|---------------------------------0----------------------|
|---------------------------------0----------------------|
|--9--9-9-------9-----------------0----------------------|x
|--9--9-9---9---9--9---7-7--12----9----------------------|
|--7--7-7---9---7--9---7-7--12--7-7----------------------|
|-----------7------7---5-5--10--8-8----------------------|



Solo:
G2 w/wah
|------------------------------------------------------------------------------|
|------------------------------------------------------------------------------|
|--<7>tr-----------------9-9-9------------------7-7-7---------7---7-9b-9-7~----|
|-------------------------------9-9-9-7-7-9-9-9-------7-7-7h9---9--------------|
|------------------------------------------------------------------------------|
|------------------------------------------------------------------------------|

|--10b---(10)r-7h10p7----------------------------------------------------------|
|---------------------10-7-7h10p7----------------------------------------------|
|---------------------------------7h9p7---7-9b---r--7h9p7---7-7~----7-7~---7-7~|
|---------------------------------------9-----------------9-------9------9-----|
|------------------------------------------------------------------------------|
|------------------------------------------------------------------------------|

|-----------------------------------------------7-10-10b--10~----------10b--7--|
|---------10------10----------------10b-10~------------------------7b----------|
|----7-9b----(9)r----pb9r-7h9p7---7--------------------------------7b----------|
|--9----------------------------9----------------------------------------------|
|------------------------------------------------------------------------------|
|------------------------------------------------------------------------------|

|---------10b--7--------------------------------|
|-10br-7----------10br-7------------------------|
|-------------------------9-7-------------------|
|-----------------------------9~-----------\----|
|-----------------------------------------------|
|-----------------------------------------------|


3rd Chorus:
G1
|-------------------------------------------------------------------------------------------------|
|-------------------------------------------------------------------------------------------------|
|-------------------------------------------------------------------------------------------------|
|--9--x-------7-0------------9--x-------7-0------------9--x-------7-0------------9--x-------7-0---|
|--7--x--9br--7-0-7-7-7-7-x--7--x--9br--7-0-7-7-7-7-x--7--x--9br--7-0-7-7-7-7-x--7--x--9br--7-0-7-|
|--0-----7br------8-8-8-8-x--0-----7br------8-8-8-8-x--0-----7br------8-8-8-8-x--0-----7br------8-|
PM                .....                     .....                     .....  

|---------------------------------------------------|
|---------------------------------------------------|
|---------------------------------------------------|x4
|--7-7-7-7/9-------7-0------------9--x-------7-0----|
|--5-5-5-5/7--9br--7-0-7-7-7-7-x--7--x--9br--7-0-7--|
|-------------7br------8-8-8-8-x--0-----7br------8--|
PM                     .....



G2
|---------------------------------------------------------------------------|
|---------------------------------------------------------------------------|
|-4--/--9--/--12----4--/--9--/--12----13--\--7--/--9----13--\--7--/--14-----|
|-x-----x------x----x-----x------x-----x-----x-----x-----x-----x------x-----|
|-2--/--7--/--10----2--/--7--/--10----11--\--5--/--7----11--\--5--/--12-----|
|---------------------------------------------------------------------------|

|------------------------------------------|
|------------------------------------------|
|--7-7-7-7/9-9--/--12----13--\--7--/--14---|x4
|--7-7-7-7/9-x------x-----x-----x------x---|
|--5-5-5-5/7-7--/--10----11--\--5--/--12---|
|------------------------------------------|


Ends on:
 G1
|--------------------------------0----------------------|
|--------------------------------0----------------------|
|--------------------------------0----------------------|
|---------------9----------------9----------------------|
|--9---9-9--9---7--9--7-7--7/9-7-7----------------------|
|--7---7-7--7------7--5-5--5/7-8-8----------------------|
|                                         
|G2
|---------------------------------0---------------------|
|---------------------------------0---------------------|
|---------------------------------0---------------------|
|--9---9-9--9--9--9\7--7-7-7/12-9-9---------------------|
|--x---x-x--x--x--x-x--x-x-x--x-7-7---------------------|
|--7---7-7--7--7--7\5--5-5-5/10-8-8---------------------|
|
|G3 w/wah
|-------------------------------------------------------|
|------------------------------------10b-10~------------|
|---7~-----7-7-7---9b(9)r-7--7h9p7----------------------|
|-------9--------9--------------------------------------|
|-------------------------------------------------------|
|-------------------------------------------------------|


************************************

| /   slide up
| \   slide down
| h   hammer-on
| p   pull-off
| ~   vibrato
| +   harmonic
| x   Mute note
| b   Bend
| pb  Pre-bend
| br  Bend release
| pbr Pre-bend release
| brb Bend release bend
| ()  Strike note while string is bent
| <>  Natural Harmonic
| tr  tremelo pick
************************************
comments
print report bad tab
I want to post or [tab]
guest
You may want to rate the tab now too:
select rating
Please do not post tabs as comments. Select "correction" instead!