Oops, an error
Loading. Please wait.

Fresh Tendrils Tab

ver1
ver1

Whole song

Interactive

More versions @911Tabs.com
11,281 views 30 this week
2 commentsread comments
1 2 3 4 5
excellent!
x 11
Autoscroll
+/-
esc
set tempo
stop
Contributor
Difficulty
intermediate
Hey! There's an official Ultimate Guitar app which is ideal
for learning songs when you're away from computer. Get the app
WARNING: You are trying to view
                                    content from Ultimate-Guitar.com
                                    in an unauthorized application,
                                    which is prohibited.

                                    Please use an official Ultimate
                                    Guitar Tabs application for iPhone,
                                    iPad or Android to access legitimate
                                    chords, guitar, bass, and drum tabs
                                    from Ultimate-Guitar.com database.

                                    Type "ultimate guitar tabs" in Apple
                                    App Store's or Android Market's
                                    search to find the application.
Fresh Tendrils.Awesome song off Superunknown
Lyrics by Chris Cornell and Matt Cameron. Music by Matt Cameron

Tuning:DGDGBe (Drop Low E to D and A to G)

Intro                                  
e|-------------------------------------|
B|-------------------------------------|
G|-------------------------------------|
D|------12---12------12---0--12\11-----|
G|---------------------------12\11--7--|
D|--12-----------12-----------------0--| x5

e|--------------------------------------------------------|
B|--------------------------------------------------------|
G|-----------------------------------9/10-10-10-10-10-----|
D|------12---12------12------12\11---9/10-10-10-10-10-----|
G|---------------------------12\11---9/10-10-10-10-10--7--|
D|--12-----------12------------------------------------0--|

Verse 1
e|--------------------------------------------------------|
B|--------------------------------------------------------|
G|-----------------------------------9/10-10-10-10-10-----|
D|------12---12------12------12\11---9/10-10-10-10-10-----|
G|---------------------------12\11---9/10-10-10-10-10--7--|
D|--12-----------12------------------------------------0--|
  Long time coming

e|--------------------------------------------------------|
B|--------------------------------------------------------|
G|-----------------------------------9/10-10-10-10-10-----|
D|------12---12------12------12\11---9/10-10-10-10-10-----|
G|---------------------------12\11---9/10-10-10-10-10--7--|
D|--12-----------12------------------------------------0--|
  It seemed to get me through

e|--------------------------------------------------------|
B|--------------------------------------------------------|
G|-----------------------------------9/10-10-10-10-10-----|
D|------12---12------12------12\11---9/10-10-10-10-10-----|
G|---------------------------12\11---9/10-10-10-10-10--7--|
D|--12-----------12------------------------------------0--|
  Long time coming

e|--------------------------------------------------------|
B|--------------------------------------------------------|
G|-----------------------------------9/10-10-10-10-10-----|
D|------12---12------12------12\11---9/10-10-10-10-10-----|
G|---------------------------12\11---9/10-10-10-10-10--7--|
D|--12-----------12------------------------------------0--|
  Many served the few

e|--------------------------------------------------------|
B|--------------------------------------------------------|
G|-----------------------------------9/10-10-10-10-10-----|
D|------12---12------12------12\11---9/10-10-10-10-10-----|
G|---------------------------12\11---9/10-10-10-10-10--7--|
D|--12-----------12------------------------------------0--|
  And long to taste the shame

e|--------------------------------------------------------|
B|--------------------------------------------------------|
G|-----------------------------------9/10-10-10-10-10-----|
D|------12---12------12------12\11---9/10-10-10-10-10-----|
G|---------------------------12\11---9/10-10-10-10-10--7--|
D|--12-----------12------------------------------------0--|
  That bows down before you

e|-------------------------------------|
B|-------------------------------------|
G|-------------------------------------|
D|------12---12------12---0--12\11-----|
G|---------------------------12\11--7--|
D|--12-----------12-----------------0--| x3

e|--------------------------------------------------------|
B|--------------------------------------------------------|
G|-----------------------------------9/10-10-10-10-10-----|
D|------12---12------12------12\11---9/10-10-10-10-10-----|
G|---------------------------12\11---9/10-10-10-10-10--7--|
D|--12-----------12------------------------------------0--|

Verse 2
e|--------------------------------------------------------|
B|--------------------------------------------------------|
G|-----------------------------------9/10-10-10-10-10-----|
D|------12---12------12------12\11---9/10-10-10-10-10-----|
G|---------------------------12\11---9/10-10-10-10-10--7--|
D|--12-----------12------------------------------------0--|
  Long time coming

e|--------------------------------------------------------|
B|--------------------------------------------------------|
G|-----------------------------------9/10-10-10-10-10-----|
D|------12---12------12------12\11---9/10-10-10-10-10-----|
G|---------------------------12\11---9/10-10-10-10-10--7--|
D|--12-----------12------------------------------------0--|
  It seemed to get me by

e|--------------------------------------------------------|
B|--------------------------------------------------------|
G|-----------------------------------9/10-10-10-10-10-----|
D|------12---12------12------12\11---9/10-10-10-10-10-----|
G|---------------------------12\11---9/10-10-10-10-10--7--|
D|--12-----------12------------------------------------0--|
  Long time coming

e|--------------------------------------------------------|
B|--------------------------------------------------------|
G|-----------------------------------9/10-10-10-10-10-----|
D|------12---12------12------12\11---9/10-10-10-10-10-----|
G|---------------------------12\11---9/10-10-10-10-10--7--|
D|--12-----------12------------------------------------0--|
  It seemed to satisfy

e|--------------------------------------------------------|
B|--------------------------------------------------------|
G|-----------------------------------9/10-10-10-10-10-----|
D|------12---12------12------12\11---9/10-10-10-10-10-----|
G|---------------------------12\11---9/10-10-10-10-10--7--|
D|--12-----------12------------------------------------0--|
  You longed to taste the shame

e|--------------------------------------------------------|
B|--------------------------------------------------------|
G|-----------------------------------9/10-10-10-10-10-----|
D|------12---12------12------12\11---9/10-10-10-10-10-----|
G|---------------------------12\11---9/10-10-10-10-10--7--|
D|--12-----------12------------------------------------0--|
  That everybody tries

Pre-Chorus
e|-----------------------------------------------|
B|-----------------------------------------------|
G|-----------------------------------------------|
D|------12---12------12---------12---12------12--|
G|-----------------------------------------------|
D|--12-----------12---------12-----------12------|

e|------------------------------------------------------------------------|
B|-------------------------x-x-x-x-------------------x------------------x-|
G|-------------------------x-x-x-x---10---12-12~-----x-------10-10~-----x-|
D|---------12------12------x-x-x-x---10---12-12~-----x---7---10-10~-----x-|
G|-------------------------x-x-x-x---10---12-12~-----x---7~-------------x-|
D|--12---------12------12--x-x-x-x---10---10-10~-----x---7~-------------x-|

Chorus
e|------------------------------------------------------------------|
B|-------------x-----------x-------------------x------------------x-|
G|--12-12-12---x---7-7-7---x---10---12-12~-----x-------10-10~-----x-|
D|--12-12-12---x---7-7-7---x---10---12-12~-----x---7---10-10~-----x-|
G|--12-12-12---x---7-7-7---x---10---12-12~-----x---7~-------------x-|
D|--12-12-12---x---0-0-0---x---10---10-10~-----x---7~-------------x-|
   Shame,         shame,    throw yourself away, give me little bits of

e|-----------------------------------------------------------------|
B|-----------------x--------------x-----------x------------------x-|
G|--10--12-12~-----x---12-12-12---x---7-7-7---x---10--12-12~-----x-|
D|--10--12-12~-----x---12-12-12---x---7-7-7---x---10--12-12~-----x-|
G|--10--12-12~-----x---12-12-12---x---7-7-7---x---10--12-12~-----x-|
D|--10--10-10~-----x---12-12-12---x---0-0-0---x---10--10-10~-----x-|
  More than I can take, if it sits upon your tongue, or naked in your eyes

e|-----------------------------------------|
B|-----------------x------------------x-x--|
G|------10-10~-----x---10--12-12~-----x-x--|
D|--7---10-10~-----x---10--12-12~-----x-x--|
G|--7~-------------x---10--12-12~-----x-x--|
D|--7~-------------x---10--10-10~-----x-x--|
  Give me little bits of, more than I can try

Bridge
e|---------------------------------|-------------------------------------|
B|---------------------------------|-------------------------------------|
G|--7---7-10-7-10-7---7-10-7-10-7--|--7---7-10-7-10-7---7-10-7-10-7---7--|
D|--7---7-10-7-10-7---7-10-7-10-7--|--7---7-10-7-10-7---7-10-7-10-7---7--|
G|--7---7-10-7-10-7---7-10-7-10-7--|--7---7-10-7-10-7---7-10-7-10-7---7--|
D|--0---0--0-0--0-0---0--0-0--0-0--|--0---0--0-0--0-0---0--0-0--0-0---0--|
   Throw yourself away,              throw yourself away

Post-Chorus
e|-------------------------------------|
B|-------------------------------------|
G|-------------------------------------|
D|------12---12------12---0--12\11-----|
G|---------------------------12\11--7--|
D|--12-----------12-----------------0--| x5

e|--------------------------------------------------------|
B|--------------------------------------------------------|
G|-----------------------------------9/10-10-10-10-10-----|
D|------12---12------12------12\11---9/10-10-10-10-10-----|
G|---------------------------12\11---9/10-10-10-10-10--7--|
D|--12-----------12------------------------------------0--|

Verse 3
e|--------------------------------------------------------|
B|--------------------------------------------------------|
G|-----------------------------------9/10-10-10-10-10-----|
D|------12---12------12------12\11---9/10-10-10-10-10-----|
G|---------------------------12\11---9/10-10-10-10-10--7--|
D|--12-----------12------------------------------------0--|
  Long time coming

e|--------------------------------------------------------|
B|--------------------------------------------------------|
G|-----------------------------------9/10-10-10-10-10-----|
D|------12---12------12------12\11---9/10-10-10-10-10-----|
G|---------------------------12\11---9/10-10-10-10-10--7--|
D|--12-----------12------------------------------------0--|
  It seemed to get me through

e|--------------------------------------------------------|
B|--------------------------------------------------------|
G|-----------------------------------9/10-10-10-10-10-----|
D|------12---12------12------12\11---9/10-10-10-10-10-----|
G|---------------------------12\11---9/10-10-10-10-10--7--|
D|--12-----------12------------------------------------0--|
  Long time coming

e|--------------------------------------------------------|
B|--------------------------------------------------------|
G|-----------------------------------9/10-10-10-10-10-----|
D|------12---12------12------12\11---9/10-10-10-10-10-----|
G|---------------------------12\11---9/10-10-10-10-10--7--|
D|--12-----------12------------------------------------0--|
  Many served the few

e|--------------------------------------------------------|
B|--------------------------------------------------------|
G|-----------------------------------9/10-10-10-10-10-----|
D|------12---12------12------12\11---9/10-10-10-10-10-----|
G|---------------------------12\11---9/10-10-10-10-10--7--|
D|--12-----------12------------------------------------0--|
  And long to taste the shame

e|--------------------------------------------------------|
B|--------------------------------------------------------|
G|-----------------------------------9/10-10-10-10-10-----|
D|---------------------------12\11---9/10-10-10-10-10-----|
G|---------------------------12\11---9/10-10-10-10-10--7--|
D|-----------------------------------------------------0--|
  That bows down before you

Pre-Chorus
e|-----------------------------------------------|
B|-----------------------------------------------|
G|-----------------------------------------------|
D|------12---12------12---------12---12------12--|
G|-----------------------------------------------|
D|--12-----------12---------12-----------12------|

e|------------------------------------------------------------------------|
B|-------------------------x-x-x-x-------------------x------------------x-|
G|-------------------------x-x-x-x---10---12-12~-----x-------10-10~-----x-|
D|---------12------12------x-x-x-x---10---12-12~-----x---7---10-10~-----x-|
G|-------------------------x-x-x-x---10---12-12~-----x---7~-------------x-|
D|--12---------12------12--x-x-x-x---10---10-10~-----x---7~-------------x-|

Chorus
e|------------------------------------------------------------------|
B|-------------x-----------x-------------------x------------------x-|
G|--12-12-12---x---7-7-7---x---10---12-12~-----x-------10-10~-----x-|
D|--12-12-12---x---7-7-7---x---10---12-12~-----x---7---10-10~-----x-|
G|--12-12-12---x---7-7-7---x---10---12-12~-----x---7~-------------x-|
D|--12-12-12---x---0-0-0---x---10---10-10~-----x---7~-------------x-|
   Shame,         shame,    throw yourself away, give me little bits of

e|-----------------------------------------------------------------|
B|-----------------x--------------x-----------x------------------x-|
G|--10--12-12~-----x---12-12-12---x---7-7-7---x---10--12-12~-----x-|
D|--10--12-12~-----x---12-12-12---x---7-7-7---x---10--12-12~-----x-|
G|--10--12-12~-----x---12-12-12---x---7-7-7---x---10--12-12~-----x-|
D|--10--10-10~-----x---12-12-12---x---0-0-0---x---10--10-10~-----x-|
  More than I can take, if it sits upon your tongue, or naked in your eyes

e|-----------------------------------------|
B|-----------------x------------------x-x--|
G|------10-10~-----x---10--12-12~-----x-x--|
D|--7---10-10~-----x---10--12-12~-----x-x--|
G|--7~-------------x---10--12-12~-----x-x--|
D|--7~-------------x---10--10-10~-----x-x--|
  Give me little bits of, more than I can try

Bridge
e|---------------------------------|---------------------------------|
B|---------------------------------|---------------------------------|
G|--7---7-10-7-10-7---7-10-7-10-7--|--7---7-10-7-10-7---7-10-7-10-7--|
D|--7---7-10-7-10-7---7-10-7-10-7--|--7---7-10-7-10-7---7-10-7-10-7--|
G|--7---7-10-7-10-7---7-10-7-10-7--|--7---7-10-7-10-7---7-10-7-10-7--|
D|--0---0--0-0--0-0---0--0-0--0-0--|--0---0--0-0--0-0---0--0-0--0-0--|
   Throw yourself away,              throw yourself away

Guitar 2                           Guitar 1
e|--------------------------------|---------------------------------|
B|--------------------------------|---------------------------------|
G|--------------------------------|--7---7-10-7-10-7---7-10-7-10-7--|
D|--------------------------------|--7---7-10-7-10-7---7-10-7-10-7--|
G|--12~-----10~-----9~-----7~-----|--7---7-10-7-10-7---7-10-7-10-7--|
D|--------------------------------|--0---0--0-0--0-0---0--0-0--0-0--|

Guitar 2                           Guitar 1
e|--------------------------------|---------------------------------|
B|--------------------------------|---------------------------------|
G|--------------------------------|--7---7-10-7-10-7---7-10-7-10-7--|
D|--------------------------------|--7---7-10-7-10-7---7-10-7-10-7--|
G|--12~-----10~-----9~-----7~-----|--7---7-10-7-10-7---7-10-7-10-7--|
D|--------------------------------|--0---0--0-0--0-0---0--0-0--0-0--|
  Throw yourself away

Guitar 2                           Guitar 1
e|--------------------------------|---------------------------------|
B|--------------------------------|---------------------------------|
G|--------------------------------|--7---7-10-7-10-7---7-10-7-10-7--|
D|--------------------------------|--7---7-10-7-10-7---7-10-7-10-7--|
G|--12~-----10~-----9~-----7~-----|--7---7-10-7-10-7---7-10-7-10-7--|
D|--------------------------------|--0---0--0-0--0-0---0--0-0--0-0--|
  Throw yourself away

Guitar 2                          
e|--------------------------------|
B|--------------------------------|
G|--------------------------------|
D|--------------------------------|
G|--12~-----10~-----9~-----7~-----|
D|--------------------------------|
  Throw yourself away

Solo Guitar 2
e|---------------------------------------------------------------------|
B|---------------------------------------------------------------------|
G|------5-7-7-7b--7-5h7p5-5~-----5h7-7---5h7-7--5h7-7--5h7-7--5h7-7-7--|
D|--5h7------------------------7-------7-------------------------------|
G|---------------------------------------------------------------------|
D|---------------------------------------------------------------------|

e|-----------------------------------------|
B|-----------------------------------------|
G|--5h7-7--5h7-7--5h7-7--5h7-7--5h7--7--7--|
D|-----------------------------------------|
G|-----------------------------------------|
D|-----------------------------------------|

e|----------------------------------------|
B|----------------------------------------|
G|--5----7------7----5h7--7-7------0h2----|
D|--0--0---0--0------0--------0--0-----0--|
G|----------------------------------------|
D|----------------------------------------|

Rythm Guitar 1
e|---------------------------------|---------------------------------|
B|---------------------------------|---------------------------------|
G|--7---7-10-7-10-7---7-10-7-10-7--|--7---7-10-7-10-7---7-10-7-10-7--|
D|--7---7-10-7-10-7---7-10-7-10-7--|--7---7-10-7-10-7---7-10-7-10-7--|
G|--7---7-10-7-10-7---7-10-7-10-7--|--7---7-10-7-10-7---7-10-7-10-7--|
D|--0---0--0-0--0-0---0--0-0--0-0--|--0---0--0-0--0-0---0--0-0--0-0--|
                                     Throw yourself away

e|---------------------------------|------------------------------------|
B|---------------------------------|------------------------------------|
G|--7---7-10-7-10-7---7-10-7-10-7--|--7---7-10-7-10-7---7-10-7-10-7---7-|
D|--7---7-10-7-10-7---7-10-7-10-7--|--7---7-10-7-10-7---7-10-7-10-7---7-|
G|--7---7-10-7-10-7---7-10-7-10-7--|--7---7-10-7-10-7---7-10-7-10-7---7-|
D|--0---0--0-0--0-0---0--0-0--0-0--|--0---0--0-0--0-0---0--0-0--0-0---0-|
  Throw yourself away,               throw yourself away

Outro
e|-------------------------------------|
B|-------------------------------------|
G|-------------------------------------|
D|------12---12------12---0--12\11-----|
G|---------------------------12\11--7--|
D|--12-----------12-----------------0--|
 |
Guitar 2
e|-------------------------------------|
B|------------------------7--8p7-------|
G|----------------------------------7--|
D|-------------------------------------|
G|-------------------------------------|
D|-------------------------------------|
 
e|-------------------------------------|
B|-------------------------------------|
G|-------------------------------------|
D|------12---12------12---0--12\11-----|
G|---------------------------12\11--7--|
D|--12-----------12-----------------0--|
 |
e|----------------------------------8--|
B|------------------------7--8p7-------|
G|-------------------------------------|
D|-------------------------------------|
G|-------------------------------------|
D|-------------------------------------|
 
e|-------------------------------------|
B|-------------------------------------|
G|-------------------------------------|
D|------12---12------12---0--12\11-----|
G|---------------------------12\11--7--|
D|--12-----------12-----------------0--|
 |
e|-------------------------------------|
B|------------------------7--8p7-------|
G|----------------------------------7--|
D|-------------------------------------|
G|-------------------------------------|
D|-------------------------------------|

e|-------------------------------------|
B|-------------------------------------|
G|-------------------------------------|
D|------12---12------12---0--12\11-----|
G|---------------------------12\11--7--|
D|--12-----------12-----------------0--|
 |
e|----------------------------------8--|
B|------------------------7--8p7-------|
G|-------------------------------------|
D|-------------------------------------|
G|-------------------------------------|
D|-------------------------------------|

e|-------------------------------------|
B|-------------------------------------|
G|-------------------------------------|
D|------12---12------12---0--12\11-----|
G|---------------------------12\11--7--|
D|--12-----------12-----------------0--|
 |
e|-------------------------------------|
B|------------------------7--8p7-------|
G|----------------------------------7--|
D|-------------------------------------|
G|-------------------------------------|
D|-------------------------------------|

e|-------------------------------------|
B|-------------------------------------|
G|-------------------------------------|
D|------12---12------12---0--12\11-----|
G|---------------------------12\11--7--|
D|--12-----------12-----------------0--|
 |
e|----------------------------------8--|
B|------------------------7--8p7-------|
G|-------------------------------------|
D|-------------------------------------|
G|-------------------------------------|
D|-------------------------------------|

e|-------------------------------------|
B|-------------------------------------|
G|-------------------------------------|
D|------12---12------12---0--12\11-----|
G|---------------------------12\11--7--|
D|--12-----------12-----------------0--|
 |
e|-------------------------------------|
B|------------------------7--8p7-------|
G|----------------------------------7--|
D|-------------------------------------|
G|-------------------------------------|
D|-------------------------------------|

e|-----------------------------------------------------------||
B|-----------------------------------------------------------||
G|-----------------------------------9/10-10-10-10-10--7-----||
D|------12---12------12------12\11---9/10-10-10-10-10--7-----||
G|---------------------------12\11---9/10-10-10-10-10--7-----||
D|--12-----------12------------------------------------0-----||

Hope you like the tab. Soundgarden ROCK!!



























































comments
print report bad tab
2 comments total.
0 reply
foo_benyiri wrote on July 27 2007, 07:02 pm

Yeah ... Soundgarden Rocks..!!!... great Tab..

0 reply
COCHISE 90 wrote on October 29 2007, 10:45 pm

Whoohoo! awesome tab rock on!

I want to post or [tab]
guest
You may want to rate the tab now too:
select rating
Please do not post tabs as comments. Select "correction" instead!