Oops, an error
Loading. Please wait.

Fresh Tendrils Bass Tab

ver3
ver3

Whole song

Interactive

More versions @911Tabs.com
120 views 1 this week
no commentswrite comment
1 2 3 4 5
please rate
Autoscroll
+/-
esc
set tempo
stop
Contributor
Hey! There's an official Ultimate Guitar app which is ideal
for learning songs when you're away from computer. Get the app
WARNING: You are trying to view
                                    content from Ultimate-Guitar.com
                                    in an unauthorized application,
                                    which is prohibited.

                                    Please use an official Ultimate
                                    Guitar Tabs application for iPhone,
                                    iPad or Android to access legitimate
                                    chords, guitar, bass, and drum tabs
                                    from Ultimate-Guitar.com database.

                                    Type "ultimate guitar tabs" in Apple
                                    App Store's or Android Market's
                                    search to find the application.
Song: Fresh Tendrils
Artist: Soundgarden
Album: Superunknown
Tabbed by: Jase Warner (www.erikk.co.uk)

Tuning is drop-D: (D,A,D,G)

Intro:

G|----------|-------|-------|-----|----------|-------|-------|-----|
D|*---------|-------|-------|-----|----------|-------|-------|-----|
A|*---------|-------|-------|-----|----------|-------|-------|-----|
D|-0--0-0-0-|-0-0-0-|-0-0-0-|-0-0-|-3--3-3-3-|-3-3-3-|-3-3-3-|-3-3-|

G|----------|-------|-------|-----|----------|-------|-------|-----|
D|----------|-------|-------|-----|----------|-------|-------|-----|
A|----------|-------|-------|-----|----------|-------|-------|-----|
D|-5--5-5-5-|-5-5-5-|-5-5-5-|-5-5-|-0--0-0-0-|-0-0-0-|-0-0-0-|-0-0-|

G|----------|-------|-------|-----|----------|-------|-------|-----|
D|----------|-------|-------|-----|----------|-------|-------|----*|
A|----------|-------|-------|-----|----------|-------|-------|----*|
D|-3--3-3-3-|-3-3-3-|-3-3-3-|-3-3-|-5--5-5-5-|-5-5-5-|-5-5-5-|-5-5-|

First Verse:

G|-----------------|--------|--------|--------|--------|
D|*----------------|--------|3-------|--------|--3h5---|
A|*8-8-8-8-8-8-8/--|----3p5-|---5---0|-3---5--|--------|
D|---------------0-|--------|--------|--------|--------|

G|-----------------|--------|--------|--------|--------|
D|-----------------|--------|3-------|--------|--3h5--*|
A|-8-8-8-8-8-8-8/--|----3p5-|---5---0|-3---5--|-------*|
D|---------------0-|--------|--------|--------|--------|

G|-----------------|--------|--------|--------|--------|
D|*----------------|--------|3-------|--------|--3h5---|
A|*8-8-8-8-8-8-8/--|----3p5-|---5---0|-3---5--|--------|
D|---------------0-|--------|--------|--------|--------|

G|-----------------|--------|--------|--------|--------|
D|-----------------|--------|3-------|--------|--3h5--*|
A|-8-8-8-8-8-8-8/--|----3p5-|---5---0|-3---5--|-------*|
D|---------------0-|--------|--------|--------|--------|

G|-----------------|--------|--------|--------|--------|
D|*----------------|--------|3-------|--------|--3h5---|
A|*8-8-8-8-8-8-8/--|----3p5-|---5---0|-3---5--|--------|
D|---------------0-|--------|--------|--------|--------|

G|-----------------|--------|--------|--------|--------|
D|-----------------|--------|3-------|--------|--3h5--*|
A|-8-8-8-8-8-8-8/--|----3p5-|---5---0|-3---5--|-------*|
D|---------------0-|--------|--------|--------|--------|

Break:

G|-----------------|
D|*----------------|
A|*8-8-8-8-8-8-8/--|
D|-----------------|

G|----------|-------|-------|-----|----------|-------|-------|-----|
D|*---------|-------|-------|-----|----------|-------|-------|-----|
A|*---------|-------|-------|-----|----------|-------|-------|-----|
D|-0--0-0-0-|-0-0-0-|-0-0-0-|-0-0-|-3--3-3-3-|-3-3-3-|-3-3-3-|-3-3-|

G|----------|-------|-------|-----|----------|-------|-------|-----|
D|----------|-------|-------|-----|----------|-------|-------|----*|
A|----------|-------|-------|-----|----------|-------|-------|----*|
D|-5--5-5-5-|-5-5-5-|-5-5-5-|-5-5-|-0--0-0-0-|-0-0-0-|-0-0-0-|-0-0-|

Second Verse:

G|-----------------|--------|--------|--------|--------|
D|*----------------|--------|3-------|--------|--3h5---|
A|*8-8-8-8-8-8-8/--|----3p5-|---5---0|-3---5--|--------|
D|---------------0-|--------|--------|--------|--------|

G|-----------------|--------|--------|--------|--------|
D|-----------------|--------|3-------|--------|--3h5--*|
A|-8-8-8-8-8-8-8/--|----3p5-|---5---0|-3---5--|-------*|
D|---------------0-|--------|--------|--------|--------|

G|-----------------|--------|--------|--------|--------|
D|*----------------|--------|3-------|--------|--3h5---|
A|*8-8-8-8-8-8-8/--|----3p5-|---5---0|-3---5--|--------|
D|---------------0-|--------|--------|--------|--------|

G|-----------------|--------|--------|--------|--------|
D|-----------------|--------|3-------|--------|--3h5--*|
A|-8-8-8-8-8-8-8/--|----3p5-|---5---0|-3---5--|-------*|
D|---------------0-|--------|--------|--------|--------|

G|-----------------|--------|--------|--------|--------|
D|*----------------|--------|3-------|--------|--3h5---|
A|*8-8-8-8-8-8-8/--|----3p5-|---5---0|-3---5--|--------|
D|---------------0-|--------|--------|--------|--------|

G|-----------------|--------|--------|--------|--------|
D|-----------------|--------|3-------|--------|--3h5--*|
A|-8-8-8-8-8-8-8/--|----3p5-|---5---0|-3---5--|-------*|
D|---------------0-|--------|--------|--------|--------|

Break:

G|-----------------|--------|--------|--------|--------|
D|*----------------|--------|--------|--------|-------*|
A|*8-8-8-8-8-8-8/--|--------|--------|--------|-------*|
D|---------------0~|--------|--------|--------|--------|

Chorus:

G|-----------------|--------|-----10-|-9------|--------|-----------------|
D|*-3--------5~----|-5-5--0~|--------|----10~-|-------*|*5-5-5----------*|
A|*-------5--------|--------|--------|--------|-------*|*--------5-5-5--*|
D|-----------------|--------|--------|--------|--------|-----------------|

G|-----------------|--------|-----10-|-9------|--------|-----------------|
D|*-3--------5~----|-5-5--0~|--------|----10~-|-------*|*-3--------5~---*|
A|*-------5--------|--------|--------|--------|-------*|*-------5-------*|
D|-----------------|--------|--------|--------|--------|-----------------|

G|-----------------|-----------------|--------|-----10-|-9------|
D|*---------------*|*-3--------5~----|-5-5--0~|--------|----10~*|
A|*--------5-5-5--*|*-------5--------|--------|--------|-------*|
D|-5-5-5-----------|-----------------|--------|--------|--------|

G|-10\-------------|
D|*----3---5~-----*|
A|*---------------*|
D|-----------------|

Chorus-outro:

G|--------10---10---|---10---10---|--------10---10---|---10---10---|------|
D|*0#---0----0----0-|-0----0----0-|-0#---0----0----0-|-0----0----0-|-0#--*|
A|*-----------------|-------------|------------------|-------------|-----*|
D|------------------|-------------|------------------|-------------|------|

Break:

G|----------|-------|-------|-----|----------|-------|-------|-----|
D|*---------|-------|-------|-----|----------|-------|-------|-----|
A|*---------|-------|-------|-----|----------|-------|-------|-----|
D|-0--0-0-0-|-0-0-0-|-0-0-0-|-0-0-|-3--3-3-3-|-3-3-3-|-3-3-3-|-3-3-|

G|----------|-------|-------|-----|----------|-------|-------|-----|
D|----------|-------|-------|-----|----------|-------|-------|-----|
A|----------|-------|-------|-----|----------|-------|-------|-----|
D|-5--5-5-5-|-5-5-5-|-5-5-5-|-5-5-|-0--0-0-0-|-0-0-0-|-0-0-0-|-0-0-|

G|----------|-------|-------|-----|----------|-------|-------|-----|
D|----------|-------|-------|-----|----------|-------|-------|----*|
A|----------|-------|-------|-----|----------|-------|-------|----*|
D|-3--3-3-3-|-3-3-3-|-3-3-3-|-3-3-|-5--5-5-5-|-5-5-5-|-5-5-5-|-5-5-|

Third Verse:

G|-----------------|--------|--------|--------|--------|
D|*----------------|--------|3-------|--------|--3h5---|
A|*8-8-8-8-8-8-8/--|----3p5-|---5---0|-3---5--|--------|
D|---------------0-|--------|--------|--------|--------|

G|-----------------|--------|--------|--------|--------|
D|-----------------|--------|3-------|--------|--3h5--*|
A|-8-8-8-8-8-8-8/--|----3p5-|---5---0|-3---5--|-------*|
D|---------------0-|--------|--------|--------|--------|

G|-----------------|--------|--------|--------|--------|
D|*----------------|--------|3-------|--------|--3h5---|
A|*8-8-8-8-8-8-8/--|----3p5-|---5---0|-3---5--|--------|
D|---------------0-|--------|--------|--------|--------|

G|-----------------|--------|--------|--------|--------|
D|-----------------|--------|3-------|--------|--3h5--*|
A|-8-8-8-8-8-8-8/--|----3p5-|---5---0|-3---5--|-------*|
D|---------------0-|--------|--------|--------|--------|

G|-----------------|--------|--------|--------|--------|
D|-----------------|--------|3-------|--------|--3h5--*|
A|-8-8-8-8-8-8-8/--|----3p5-|---5---0|-3---5--|-------*|
D|---------------0-|--------|--------|--------|--------|
                   <-------------- REST --------------->
G|-----------------|--------|--------|--------|--------|
D|-----------------|--------|--------|--------|-------*|
A|-8-8-8-8-8-8-8/--|--------|--------|--------|-------*|
D|---------------0-|--------|--------|--------|--------|

Break:

G|-----------------|--------|--------|--------|--------|
D|*----------------|--------|--------|--------|-------*|
A|*8-8-8-8-8-8-8/--|--------|--------|--------|-------*|
D|---------------0~|--------|--------|--------|--------|

Chorus:

G|-----------------|--------|-----10-|-9------|--------|-----------------|
D|*-3--------5~----|-5-5--0~|--------|----10~-|-------*|*5-5-5----------*|
A|*-------5--------|--------|--------|--------|-------*|*--------5-5-5--*|
D|-----------------|--------|--------|--------|--------|-----------------|

G|-----------------|--------|-----10-|-9------|--------|-----------------|
D|*-3--------5~----|-5-5--0~|--------|----10~-|-------*|*-3--------5~---*|
A|*-------5--------|--------|--------|--------|-------*|*-------5-------*|
D|-----------------|--------|--------|--------|--------|-----------------|

G|-----------------|-----------------|--------|-----10-|-9------|
D|*---------------*|*-3--------5~----|-5-5--0~|--------|----10~*|
A|*--------5-5-5--*|*-------5--------|--------|--------|-------*|
D|-5-5-5-----------|-----------------|--------|--------|--------|

G|-10\-------------|
D|*----3---5~-----*|
A|*---------------*|
D|-----------------|

Chorus-outro:

G|--------10---10---|---10---10---|--------10---10---|---10---10---|
D|*0#---0----0----0-|-0----0----0-|-0#---0----0----0-|-0----0----0*|
A|*-----------------|-------------|------------------|------------*|
D|------------------|-------------|------------------|-------------|

Solo:

G|-----------------|--------10---10---|---10-----------|
D|*-3--------5~----|-0#---0----0----0-|-0----12-10-----|
A|*-------5--------|------------------|------------12\-|
D|-----------------|------------------|----------------|

G|-----------------|--------10---10---|---10-----------|
D|--3--------5~----|-0#---0----0----0-|-0----12-10-----|
A|--------5--------|------------------|------------12\-|
D|-----------------|------------------|----------------|

G|-----------------|--------10---10---|---10-----------|
D|--3--------5~----|-0#---0----0----0-|-0----12-10----*|
A|--------5--------|------------------|------------12\*|
D|-----------------|------------------|----------------|

G|-----------------|
D|*-3--------5~---*|
A|*-------5-------*|
D|-----------------|

Interlude:

G|--------10---10---|---10---10---|--------10---10---|---10---10---|
D|*0#---0----0----0-|-0----0----0-|-0#---0----0----0-|-0----0----0*|
A|*-----------------|-------------|------------------|------------*|
D|------------------|-------------|------------------|-------------|

G|--------10---10---|---10---10---|--------10---10---|---10---10---|
D|*0#---0----0----0-|-0----0----0-|-0#---0----0----0-|-0----0----0*|
A|*-----------------|-------------|------------------|------------*|
D|------------------|-------------|------------------|-------------|

Break:

G|----------|-------|-------|-----|----------|-------|-------|-----|
D|*---------|-------|-------|-----|----------|-------|-------|----*|
A|*---------|-------|-------|-----|----------|-------|-------|----*|
D|-0--0-0-0-|-0-0-0-|-0-0-0-|-0-0-|-0--0-0-0-|-0-0-0-|-0-0-0-|-0-0-|

G|----------|-------|-------|-----|----------|-------|-------|-----|
D|*---------|-------|-------|-----|----------|-------|-------|-----|
A|*---------|-------|-------|-----|----------|-------|-------|-----|
D|-0--0-0-0-|-0-0-0-|-0-0-0-|-0-0-|-3--3-3-3-|-3-3-3-|-3-3-3-|-3-3-|

G|----------|-------|-------|-----|----------|-------|-------|-----|
D|----------|-------|-------|-----|----------|-------|-------|-----|
A|----------|-------|-------|-----|----------|-------|-------|-----|
D|-5--5-5-5-|-5-5-5-|-5-5-5-|-5-5-|-0--0-0-0-|-0-0-0-|-0-0-0-|-0-0-|

G|----------|-------|-------|-----|----------|-------|-------|-----|
D|----------|-------|-------|-----|----------|-------|-------|----*|
A|----------|-------|-------|-----|----------|-------|-------|----*|
D|-3--3-3-3-|-3-3-3-|-3-3-3-|-3-3-|-5--5-5-5-|-5-5-5-|-5-5-5-|-5-5-|

Ending:

G|-----------------|
D|*---------------*|
A|*8-8-8-8-8-8-8/-*|
D|---------------0-|
comments
We did not receive enough feedback on this tab! Please rate:
print report bad tab
1 2 3 4 5
I want to post or [tab]
guest
You may want to rate the tab now too:
select rating
Please do not post tabs as comments. Select "correction" instead!