Oops, an error
Loading. Please wait.

Let Me Drown Bass Tab

ver1
ver1

Whole song

Interactive

More versions @911Tabs.com
2,926 views 15 this week
no commentswrite comment
1 2 3 4 5
excellent!
x 2
Autoscroll
+/-
esc
set tempo
stop
Contributor
Hey! There's an official Ultimate Guitar app which is ideal
for learning songs when you're away from computer. Get the app
WARNING: You are trying to view
                                    content from Ultimate-Guitar.com
                                    in an unauthorized application,
                                    which is prohibited.

                                    Please use an official Ultimate
                                    Guitar Tabs application for iPhone,
                                    iPad or Android to access legitimate
                                    chords, guitar, bass, and drum tabs
                                    from Ultimate-Guitar.com database.

                                    Type "ultimate guitar tabs" in Apple
                                    App Store's or Android Market's
                                    search to find the application.
Song: Let Me Drown
Artist: Soundgarden
Album: Superunknown
Tabbed by Jase Warner (www.erikk.co.uk)

Tuning is: D,A,D,G

Intro

G|-------------------------|-------------------------|
D|-------------------------|------------------------*|
A|-------------------------|------------------------*|
D|--------------------15\--|--------------------15\--|

G|-------------------------|-------------------------|
D|-------------------------|------------------------*|
A|-------------------------|------------------------*|
D|--------------------15\--|-------------------------|

Verse

G|-------------------------|-------------------------|
D|*------------------------|-------------------------|
A|*------------------------|-------------------------|
D|-3-4-5-0-3--0-3--0-3-3-0-|-3-4-5-0-3--0-3--0-3-3-0-|

G|-------------------------|-------------------------|
D|-------------------------|-------------------------|
A|-------------------------|-------------------------|
D|-3-4-5-0-3--0-3--0-3-3-0-|-3-4-5-0-3--0-3--0-3-3-0-|

G|-------------------------|
D|------------------------*|
A|-----------------/-88888*|
D|-3-4-5-0-3--0-3----------|

G|-------------------------|-------------------------|
D|*------------------------|-------------------------|
A|*------------------------|-------------------------|
D|-3-4-5-0-3--0-3--0-3-3-0-|-3-4-5-0-3--0-3--0-3-3-0-|

G|-------------------------|-------------------------|
D|-------------------------|-------------------------|
A|-------------------------|-------------------------|
D|-3-4-5-0-3--0-3--0-3-3-0-|-3-4-5-0-3--0-3--0-3-3-0-|

G|-------------------------|
D|------------------------*|
A|------------------------*|
D|-3-4-5-0-3--0-3--0-3-3-0-|

Chorus

G|-------------------------|-------------------------|
D|*------------------------|-------------------------|
A|*3p5-----5-----3p5---5---|---------3------------3~-|
D|-------0-----0-----0---0-|-3p5-5-3----0-3--5--3----|

G|-------------------------|-------------------------|
D|*------------------------|-------------------------|
A|*3p5-----5-----3p5---5---|---------3------------3~-|
D|-------0-----0-----0---0-|-3p5-5-3----0-3--5--3----|

G|-------------------------|-------------------------|
D|*------------------------|-------------------------|
A|*3p5-5-5-5p3-------------|-3p5-5-5-5p3-------------|
D|-------------5-3~-----3p5|-------------5-3~-----3p5|

G|-------------------------|-------------------------|
D|------------------------*|*-----------------------*|
A|-3p5-5-5-5p3------------*|*--3----3---------------*|
D|-------------5-3~-----3p5|-4----4----4-3~----------|

Break


G|-------------------------|-------------------------|
D|*------------------------|-------------------------|
A|*------------------------|-------------------------|
D|-3-4-5-0-3--0-3--0-3--15\|-3-4-5-0-3--0-3--0-3-3-0-|

G|-------------------------|-------------------------|
D|-------------------------|-------------------------|
A|-------------------3-----|-------------------------|
D|-3-4-5-0-3--0-3--0---5-3-|-3-4-5-0-3--0-3--0-3-3-0-|

Verse

G|-------------------------|-------------------------|
D|*------------------------|-------------------------|
A|*------------------------|-------------------------|
D|-3-4-5-0-3--0-3--0-3-3-0-|-3-4-5-0-3--0-3--0-3-3-0-|

G|-------------------------|-------------------------|
D|-------------------------|-------------------------|
A|-------------------------|-------------------------|
D|-3-4-5-0-3--0-3--0-3-3-0-|-3-4-5-0-3--0-3--0-3-3-0-|

G|-------------------------|
D|------------------------*|
A|------------------------*|
D|-3-4-5-0-3--0-3--0-3-3-0-|

Chorus

G|-------------------------|-------------------------|
D|*------------------------|-------------------------|
A|*3p5-----5-----3p5---5---|---------3------------3~-|
D|-------0-----0-----0---0-|-3p5-5-3----0-3--5--3----|

G|-------------------------|-------------------------|
D|*------------------------|-------------------------|
A|*3p5-----5-----3p5---5---|---------3------------3~-|
D|-------0-----0-----0---0-|-3p5-5-3----0-3--5--3----|

G|-------------------------|-------------------------|
D|*------------------------|-------------------------|
A|*3p5-5-5-5p3-------------|-3p5-5-5-5p3-------------|
D|-------------5-3~-----3p5|-------------5-3~-----3p5|

G|-------------------------|-------------------------|
D|------------------------*|*-----------------------*|
A|-3p5-5-5-5p3------------*|*--3----3---------------*|
D|-------------5-3~-----3p5|-4----4----4-3~----------|

Break

G|-------------------------|-------------------------|
D|*------------------------|-------------------------|
A|*3p5-5-5-5p3-------------|-3p5-5-5-5p3-------------|
D|-------------5-3~-----3p5|-------------5-3~-----3p5|

G|-------------------------|-------------------------|
D|-------------------------|------------------------*|
A|-3p5-5-5-5p3-------------|-3p5-5-5-5p3------------*|
D|-------------5-3~-----3p5|-------------5-3~-----3p5|

G|-------------------------|-------------------------|
D|*------------------------|-------------------------|
A|*3p5-5-5-5p3-------------|-3p5-5-5-5p3-------------|
D|-------------5-3~-----3p5|-------------5-3~-----3p5|

G|-------------------------|-------------------------|
D|-------------------------|------------------------*|
A|-3p5-5-5-5p3-------------|-3p5-5-5-5p3------------*|
D|-------------5-3~-----3p5|-------------5-3~-----3p5|

G|-------------------------|-------------------------|
D|*------------------------|-------------------------|
A|*3p5-5-5-5p3-------------|-3p5-5-5-5p3-------------|
D|-------------5-3~-----3p5|-------------5-3~-----3p5|

G|-------------------------|-------------------------|
D|-------------------------|------------------------*|
A|-3p5-5-5-5p3-------------|-3p5-5-5-5p3------------*|
D|-------------5-3~-----3p5|-------------5-3~-----3p5|

Interlude

G|--------------------------------------|
D|*10p12-12-12-12p10--------10---------*|
A|*------------------10-8------10-8p10-*|
D|--------------------------------------|

G|--------------------------------------|
D|*10p12-12-12-12p10--------10---------*|
A|*------------------10-8------10-8p10-*|
D|--------------------------------------|

G|--------------------------------------|
D|*10p12-12-12-12p10--------10---------*|
A|*------------------10-8------10-8p10-*|
D|--------------------------------------|

G|--------------------------------------|
D|*10p12-12-12-12p10--------10---------*|
A|*------------------10-8------10-8p10-*|
D|--------------------------------------|

G|--------------------------------------|
D|*10p12-12-12-12p10--------10---------*|
A|*------------------10-8------10-8p10-*|
D|--------------------------------------|

G|--------------------------------------|
D|*10p12-12-12-12p10--------10---------*|
A|*------------------10-8------10-8p10-*|
D|--------------------------------------|

G|--------------------------------------|
D|*10p12-12-12-12p10--------10---------*|
A|*------------------10-8------10-8p10-*|
D|--------------------------------------|

G|--------------------------------------|
D|*10p12-12-12-12p10--------10---------*|
A|*------------------10-8------10-8p10-*|
D|--------------------------------------|

Guitar Solo

G|-------------------------|-------------------------|
D|*------------------------|-------------------------|
A|*------------------------|-------------------------|
D|-3-3-/7-(7)\0~-----------|-3-3-/7-(7)\0~-----------|

G|-------------------------|-------------------------|
D|-------------------------|------------------------*|
A|-------------------------|------------------------*|
D|-3-3-/7-(7)\0~-----------|-3-3-/7-(7)\0~-----------|

G|-------------------------|-------------------------|
D|*------------------------|-------------------------|
A|*------------------------|-------------------------|
D|-3-3-/7-(7)\0~-----------|-3-3-/7-(7)\0~-----------|

G|-------------------------|-------------------------|
D|-------------------------|------------------------*|
A|-------------------------|------------------------*|
D|-3-3-/7-(7)\0~-----------|-3-3-/7-(7)\0~-----------|

Break

G|-------------------------|-------------------------|
D|*------------------------|-------------------------|
A|*------------------------|-------------------------|
D|3-3-3-3-3--3-3--3-3--3--3|3-3-3-3-3--3-3--3-3--3--3|

G|-------------------------|-------------------------|
D|*------------------------|-------------------------|
A|*------------------------|-------------------------|
D|3-3-3-3-3--3-3--3-3--3--3|3-3-3-3-3--3-3--3-3--3--3|

G|-------------------------|
D|*-----------------------*|
A|*-----------------------*|
D|3-3-3-3-3--3-3--x-3--xx-3|

Chorus

G|-------------------------|-------------------------|
D|*------------------------|-------------------------|
A|*3p5-----5-----3p5---5---|---------3------------3~-|
D|-------0-----0-----0---0-|-3p5-5-3----0-3--5--3----|

G|-------------------------|-------------------------|
D|*------------------------|-------------------------|
A|*3p5-----5-----3p5---5---|---------3------------3~-|
D|-------0-----0-----0---0-|-3p5-5-3----0-3--5--3----|

G|-------------------------|-------------------------|
D|*------------------------|-------------------------|
A|*3p5-5-5-5p3-------------|-3p5-5-5-5p3-------------|
D|-------------5-3~-----3p5|-------------5-3~-----3p5|

G|-------------------------|-------------------------------|
D|------------------------*|*-----------------------------*|
A|-3p5-5-5-5p3------------*|*--3----3----3----------------*|
D|-------------5-3~-----3p5|-4----4----4---0-3-4-5-3~------|

Outro

G|-------------------------|-------------------------|
D|*------------------------|-------------------------|
A|*3p5-5-5-5p3-------------|-3p5-5-5-5p3-------------|
D|-------------5-3~-----3p5|-------------5-3~-----3p5|

G|-------------------------|-------------------------|
D|-------------------------|------------------------*|
A|-3p5-5-5-5p3-------------|-3p5-5-5-5p3------------*|
D|-------------5-3~-----3p5|-------------5-3~-----3p5|

G|-------------------------|-------------------------|
D|*------------------------|-------------------------|
A|*3p5-5-5-5p3-------------|-3p5-5-5-5p3-------------|
D|-------------5-3~-----3p5|-------------5-3~-----3p5|

G|-------------------------|-------------------------|
D|-------------------------|------------------------*|
A|-3p5-5-5-5p3-------------|-3p5-5-5-5p3------------*|
D|-------------5-3~-----3p5|-------------5-3~--3-3-3\|
comments
We did not receive enough feedback on this tab! Please rate:
print report bad tab
1 2 3 4 5
I want to post or [tab]
guest
You may want to rate the tab now too:
select rating
Please do not post tabs as comments. Select "correction" instead!