Oops, an error
Loading. Please wait.

My Wave Tab

ver1
ver1

Whole song

Interactive

More versions @911Tabs.com
15,317 views 26 this week
3 commentsread comments
1 2 3 4 5
excellent!
x 11
Autoscroll
+/-
esc
set tempo
stop
Contributor
Hey! There's an official Ultimate Guitar app which is ideal
for learning songs when you're away from computer. Get the app
WARNING: You are trying to view
                                    content from Ultimate-Guitar.com
                                    in an unauthorized application,
                                    which is prohibited.

                                    Please use an official Ultimate
                                    Guitar Tabs application for iPhone,
                                    iPad or Android to access legitimate
                                    chords, guitar, bass, and drum tabs
                                    from Ultimate-Guitar.com database.

                                    Type "ultimate guitar tabs" in Apple
                                    App Store's or Android Market's
                                    search to find the application.
-----------------------------------------------------------------
MY WAVE - Soundgarden
-----------------------------------------------------------------
Tabbed by: Kevin Kihlander
Email: ceresz.k@gmail.com

Tuning: E E B B B B

Intro
B|----------|----------|----------|
B|----------|----------|----------|
B|----------|----------|----------|
B|-3--5--5--|-3--5--5--|-3--5--5--|
E|-3--5--5--|-3--5--5--|-3--5--5--|
E|-3--5--5--|-3--5--5--|-3--5--5--|

B|-3------------|-3------------|-3------------|
B|-3------------|-3------------|-3------------|
B|-3------------|-3------------|-3------------|
B|-----3--5--5--|-----3--5--5--|-----3--5--5--|
E|-----3--5--5--|-----3--5--5--|-----3--5--5--|
E|-----3--5--5--|-----3--5--5--|-----3--5--5--|

B|--------------------|--------------------|--------------------|--------------5--5--|
B|--------------------|--------------------|--------------------|--------------5--5--|
B|-0------------------|-0------------------|-0------------------|-0---3--3--3--5--5--|
B|-0---3--3--3--5--5--|-0---3--3--3--5--5--|-0---3--3--3--5--5--|-0---3--3--3--5--5--|
E|-0---3--3--3--5--5--|-0---3--3--3--5--5--|-0---3--3--3--5--5--|-0---3--3--3--------|
E|-0---3--3--3--5--5--|-0---3--3--3--5--5--|-0---3--3--3--5--5--|-0---3--3-----------|

B|-0---3--3--3--5--5--|-0---3--3--3--5--5--|-0---3--3--3--5--5--|-0------------------|
B|-0---3--3--3--5--5--|-0---3--3--3--5--5--|-0---3--3--3--5--5--|-0------------------|
B|-0---3--3--3--5--5--|-0---3--3--3--5--5--|-0---3--3--3--5--5--|-0---3--3-----------|
B|-0---3--3--3--5--5--|-0---3--3--3--5--5--|-0---3--3--3--5--5--|-0---3--3--3--5--5--|
E|--------------------|--------------------|--------------------|-----3--3--3--5--5--|
E|--------------------|--------------------|--------------------|-----3--3--3--5--5--|

Verse
B|--------------------|--------------------|--------------------|--------------------|
B|--------------------|--------------------|--------------------|--------------------|
B|-0------------------|-0------------------|-0------------------|-0------------------|
B|-0---3--3--3--5--5--|-0---3--3--3--5--5--|-0---3--3--3--5--5--|-0---3--3--3--5--5--|
E|-0---3--3--3--5--5--|-0---3--3--3--5--5--|-0---3--3--3--5--5--|-0---3--3--3--5--5--|
E|-0---3--3--3--5--5--|-0---3--3--3--5--5--|-0---3--3--3--5--5--|-0---3--3--3--5--5--|

B|--------------------|--------------------|--------------------|--------------------|
B|--------------------|--------------------|--------------------|--------------------|
B|-0------------------|-0------------------|-0------------------|-0------------------|
B|-0---3--3--3--5--5--|-0---3--3--3--5--5--|-0---3--3--3--5--5--|-0---3--3--3--5--5--|
E|-0---3--3--3--5--5--|-0---3--3--3--5--5--|-0---3--3--3--5--5--|-0---3--3--3--5--5--|
E|-0---3--3--3--5--5--|-0---3--3--3--5--5--|-0---3--3--3--5--5--|-0---3--3--3--5--5--|

B|--------------------|--------------------|--------------------|--------------------|
B|--------------------|--------------------|--------------------|--------------------|
B|-0------------------|-0------------------|-0------------------|-0------------------|
B|-0---3--3--3--5--5--|-0---3--3--3--5--5--|-0---3--3--3--5--5--|-0---3--3--3--5--5--|
E|-0---3--3--3--5--5--|-0---3--3--3--5--5--|-0---3--3--3--5--5--|-0---3--3--3--5--5--|
E|-0---3--3--3--5--5--|-0---3--3--3--5--5--|-0---3--3--3--5--5--|-0---3--3--3--5--5--|

Chorus
B|-3------------|-3------------|-3------------|-3------------|
B|-3------------|-3------------|-3------------|-3------------|
B|-3------------|-3------------|-3------------|-3------------|
B|-----3--5--5--|-----3--5--5--|-----3--5--5--|-----3--5--5--|
E|-----3--5--5--|-----3--5--5--|-----3--5--5--|-----3--5--5--|
E|-----3--5--5--|-----3--5--5--|-----3--5--5--|-----3--5--5--|

Interlude
B|-0---3--3--3--5--5--|-0---3--3--3--5--5--|-0---3--3--3--5--5--|-0------------------|
B|-0---3--3--3--5--5--|-0---3--3--3--5--5--|-0---3--3--3--5--5--|-0------------------|
B|-0---3--3--3--5--5--|-0---3--3--3--5--5--|-0---3--3--3--5--5--|-0---3--3-----------|
B|-0---3--3--3--5--5--|-0---3--3--3--5--5--|-0---3--3--3--5--5--|-0---3--3--3--5--5--|
E|--------------------|--------------------|--------------------|-----3--3--3--5--5--|
E|--------------------|--------------------|--------------------|-----3--3--3--5--5--|

Verse
B|--------------------|--------------------|--------------------|--------------------|
B|--------------------|--------------------|--------------------|--------------------|
B|-0------------------|-0------------------|-0------------------|-0------------------|
B|-0---3--3--3--5--5--|-0---3--3--3--5--5--|-0---3--3--3--5--5--|-0---3--3--3--5--5--|
E|-0---3--3--3--5--5--|-0---3--3--3--5--5--|-0---3--3--3--5--5--|-0---3--3--3--5--5--|
E|-0---3--3--3--5--5--|-0---3--3--3--5--5--|-0---3--3--3--5--5--|-0---3--3--3--5--5--|

Chorus
B|-3------------|-3------------|-3------------|-3---------7--|
B|-3------------|-3------------|-3------------|-3---------7--|
B|-3------------|-3------------|-3------------|-3---------7--|
B|-----3--5--5--|-----3--5--5--|-----3--5--5--|-----------7--|
E|-----3--5--5--|-----3--5--5--|-----3--5--5--|-----------7--|
E|-----3--5--5--|-----3--5--5--|-----3--5--5--|-----------7--|


Bridge
B|------------2p0--|------------------2p0--|------------------2p0--|------------------2p0--|
B|-4p0-----0-------|-0-----4p0-----0-------|-0-----4p0-----0-------|-0-----4p0-----0-------|
B|------0----------|----5-------0----------|----5-------0----------|----5-------0----------|
B|-----------------|-----------------------|-----------------------|-----------------------|
E|-----------------|-----------------------|-----------------------|-----------------------|
E|-----------------|-----------------------|-----------------------|-----------------------|

B|------------------2p0--|------------------2p0--|------------------2p0--|------------------2p0--------|
B|-0-----4p0-----0-------|-0-----4p0-----0-------|-0-----4p0-----0-------|-0-----4p0-----0-------0-----|
B|----5-------0----------|----5-------0----------|----5-------0----------|----5-------0-------------0--|
B|-----------------------|-----------------------|-----------------------|-----------------------------|
E|-----------------------|-----------------------|-----------------------|-----------------------------|
E|-----------------------|-----------------------|-----------------------|-----------------------------|

B|-------------------|-----------------|
B|-----5^--5--5--5---|-----8^--8--6----|
B|-----5^--5--5--5---|-----8^--8--6p5--|
B|-3-----------------|-6---------------|
E|-3-----------------|-6---------------|
E|-3-----------------|-6---------------|

B|------------2p0-------|------------2p0-------|
B|-4p0-----0------0-----|-4p0-----0------0-----|
B|------0------------0--|------0------------0--|
B|----------------------|----------------------|
E|----------------------|----------------------|
E|----------------------|----------------------|

B|-10-10-10-10-10--9---|--------------|-------------------------|-------------------------|
B|-10-10-10-10-10--9---|-------3--5^--|-3h5---3--3---3--3--5^---|-3h5---3--3---3--3--5^---|
B|-10-10-10-10-10--9---|-------3--5^--|-3h5---3--3---3--3--5^---|-3h5---3--3---3--3--5^---|
B|-5--5--5--5--5---0---|--------------|-------------------------|-------------------------|
E|-5--5--5--5--5---0---|--------------|-------------------------|-------------------------|
E|-5--5--5--5--5---0---|--------------|-------------------------|-------------------------|

Verse
B|--------------------|--------------------|--------------------|--------------------|
B|--------------------|--------------------|--------------------|--------------------|
B|-0------------------|-0------------------|-0------------------|-0------------------|
B|-0---3--3--3--5--5--|-0---3--3--3--5--5--|-0---3--3--3--5--5--|-0---3--3--3--5--5--|
E|-0---3--3--3--5--5--|-0---3--3--3--5--5--|-0---3--3--3--5--5--|-0---3--3--3--5--5--|
E|-0---3--3--3--5--5--|-0---3--3--3--5--5--|-0---3--3--3--5--5--|-0---3--3--3--5--5--|

B|--------------------|--------------------|--------------------|--------------------|
B|--------------------|--------------------|--------------------|--------------------|
B|-0------------------|-0------------------|-0------------------|-0------------------|
B|-0---3--3--3--5--5--|-0---3--3--3--5--5--|-0---3--3--3--5--5--|-0---3--3--3--5--5--|
E|-0---3--3--3--5--5--|-0---3--3--3--5--5--|-0---3--3--3--5--5--|-0---3--3--3--5--5--|
E|-0---3--3--3--5--5--|-0---3--3--3--5--5--|-0---3--3--3--5--5--|-0---3--3--3--5--5--|

B|--------------------|--------------------|--------------------|--------------------|
B|--------------------|--------------------|--------------------|--------------------|
B|-0------------------|-0------------------|-0------------------|-0------------------|
B|-0---3--3--3--5--5--|-0---3--3--3--5--5--|-0---3--3--3--5--5--|-0---3--3--3--5--5--|
E|-0---3--3--3--5--5--|-0---3--3--3--5--5--|-0---3--3--3--5--5--|-0---3--3--3--5--5--|
E|-0---3--3--3--5--5--|-0---3--3--3--5--5--|-0---3--3--3--5--5--|-0---3--3--3--5--5--|

Chorus
B|-3------------|-3------------|-3------------|-3---------7--|
B|-3------------|-3------------|-3------------|-3---------7--|
B|-3------------|-3------------|-3------------|-3---------7--|
B|-----3--5--5--|-----3--5--5--|-----3--5--5--|-----------7--|
E|-----3--5--5--|-----3--5--5--|-----3--5--5--|-----------7--|
E|-----3--5--5--|-----3--5--5--|-----3--5--5--|-----------7--|

Bridge
B|------------2p0--|------------------2p0--|------------------2p0--|------------------2p0--|
B|-4p0-----0-------|-0-----4p0-----0-------|-0-----4p0-----0-------|-0-----4p0-----0-------|
B|------0----------|----5-------0----------|----5-------0----------|----5-------0----------|
B|-----------------|-----------------------|-----------------------|-----------------------|
E|-----------------|-----------------------|-----------------------|-----------------------|
E|-----------------|-----------------------|-----------------------|-----------------------|

B|------------------2p0--|------------------2p0--|------------------2p0--|------------------2p0--------|
B|-0-----4p0-----0-------|-0-----4p0-----0-------|-0-----4p0-----0-------|-0-----4p0-----0-------0-----|
B|----5-------0----------|----5-------0----------|----5-------0----------|----5-------0-------------0--|
B|-----------------------|-----------------------|-----------------------|-----------------------------|
E|-----------------------|-----------------------|-----------------------|-----------------------------|
E|-----------------------|-----------------------|-----------------------|-----------------------------|

B|-------------------|-----------------|
B|-----5^--5--5--5---|-----8^--8--6----|
B|-----5^--5--5--5---|-----8^--8--6p5--|
B|-3-----------------|-6---------------|
E|-3-----------------|-6---------------|
E|-3-----------------|-6---------------|

B|------------2p0-------|------------2p0-------|
B|-4p0-----0------0-----|-4p0-----0------0-----|
B|------0------------0--|------0------------0--|
B|----------------------|----------------------|
E|----------------------|----------------------|
E|----------------------|----------------------|

Outro
B|-------------------|-----------------|
B|-----5^--5--5--5---|-----8^--8--6----|
B|-----5^--5--5--5---|-----8^--8--6p5--|
B|-3-----------------|-6---------------|
E|-3-----------------|-6---------------|
E|-3-----------------|-6---------------|

B|------------2p0-------|------------2p0-------|
B|-4p0-----0------0-----|-4p0-----0------0-----|
B|------0------------0--|------0------------0--|
B|----------------------|----------------------|
E|----------------------|----------------------|
E|----------------------|----------------------|

B|-10-10-10-10-10--9---|-9------|
B|-10-10-10-10-10--9---|-9------|
B|-10-10-10-10-10--9---|-9---5--|
B|-5--5--5--5--5---0---|-0------|
E|-5--5--5--5--5---0---|-0------|
E|-5--5--5--5--5---0---|-0------|

B|------------2p0-------|------------2p0-------|
B|-4p0-----0------0-----|-4p0-----0------0-----|
B|------0------------5--|------0------------5--|
B|----------------------|----------------------|
E|----------------------|----------------------|
E|----------------------|----------------------| x12

B|------------0-------|
B|-4p0-----0----------|
B|------0-------------|
B|--------------------|
E|--------------------|
E|--------------------|

| h  hammer-on
| p  pull-off
| ^  Bend note

Good luck!
comments
print report bad tab
3 comments total. show 1 bad comment
0 reply
salazar wrote on September 30 2008, 09:24 pm

this is the correct version
looks identical to the version in the tab book.
probly is.

0 reply
fongs wrote on January 13 2010, 10:57 pm

bang on, man what a weird tuning

I want to post or [tab]
guest
You may want to rate the tab now too:
select rating
Please do not post tabs as comments. Select "correction" instead!