Oops, an error
Loading. Please wait.

Superunknown Tab

ver1
ver1

Album

Whole song

Interactive

More versions @911Tabs.com
9,613 views 16 this week
5 commentsread comments
1 2 3 4 5
not so good
x 5
Autoscroll
+/-
esc
set tempo
stop
Difficulty
advanced
Hey! There's an official Ultimate Guitar app which is ideal
for learning songs when you're away from computer. Get the app
WARNING: You are trying to view
                                    content from Ultimate-Guitar.com
                                    in an unauthorized application,
                                    which is prohibited.

                                    Please use an official Ultimate
                                    Guitar Tabs application for iPhone,
                                    iPad or Android to access legitimate
                                    chords, guitar, bass, and drum tabs
                                    from Ultimate-Guitar.com database.

                                    Type "ultimate guitar tabs" in Apple
                                    App Store's or Android Market's
                                    search to find the application.
OKay so i just took other people's tabs and made them iton one wholesome tab!

1. Let Me Drown
2. My Wave
3. Fell On Black Days
4. Mailman
5. Superunknown
6. Head Down
7. Black Hole Sun
8. Spoonman
9. Limo Wreck
10. The Day I Tried To Live
11. Kickstand
12. Fresh Tendrils  There was no tab for this that I could find SORRY!
13. 4th Of July
14. Half
15. Like Suicide

Let Me Drown

Tuning(low to high:D,A,D,G,B,E)

E---------------------------------------|
B---------------------------------------|
G---------------------------------------|
D---------------------------------------|
A---------------------------------------|
D--3h4h5--0--3b---0--3b---0--3b---3b--0-|


E---------------------------------------|
B---------------------------------------|
G---------------------------------------|
D---------------------------------------|
A---------------------------------------|
D--7h8h9--0--3b---0--3b---0--3b---3b--0-|


E------------------------------------------|
B------------------------------------------|
G------------------------------------------|
D------------------------------------------|
A------------------------------------------|
D--10h11h12--0--3b---0--3b---0--3b---3b--0-|


E---------------------------------------|
B---------------------------------------|
G---------------------------------------|
D--3/4/5--------------------------------|
A---------------------------------------|
D--3/4/5--0--3b---0--3b---0--3b---3b--0-|


Chorus

E----------------------------------------------------------|
B----------------------------------------------------------|
G----------------------------------------------------------|
D--10h-12--12--12--12--10--7-/15----15--15--15--15--12--10-| X 3
A--10h-12--12--12--12--10--7-/15----15--15--15--15--12--10-|
D--10h-12--12--12--12--10--7-/15----15--15--15--15--12--10-|

then this little riff

E--------------------|
B--------------------|
G--------------------|
D--------------------|
A-----2b----2b-------|
D--5-----5------5--3-|


after outro chorus comes this riff

E-------------------------------------|
B-------------------------------------|
G-------------------------------------|
D--------------------------3h-5-----3-|
A-----2b-----2b-----2b--------------3-|
D--5------5------5------5--------0--3-|

-----------------------------------------------------------------------------
			     My Wave - Soundgarden
-----------------------------------------------------------------------------
Tabbed by: Alex
Email: axleskate@gmail.com

Tuning:EADGBE


E|---------------------------------------------------------------0~--------|
B|---------------------------------------------------------------0~--------|
G|-------------------------7(b)---------7(b)---------7(b)--------1~--------|
D|--5-7-7---5-7-7---5-7-7--------5-7-7--------5-7-7--------5-7-7-2~--------|
A|--5-7-7---5-7-7---5-7-7--------5-7-7--------5-7-7--------5-7-7-2~--------|
E|--3-5-5---3-5-5---3-5-5--------3-5-5--------3-5-5--------3-5-5-0~--------|

^The Intro

E|-0--------------|
B|-0--------------|
G|-1--------------|
D|-2--5-5-5-7-7---|
A|-2--5-5-5-7-7---|
E|-0--3-3-3-5-5---|

^After Intro

E|-0--------------|
B|-0--------------|
G|-1--------------|
D|-2--5-5-5-7-7---|
A|-2--5-5-5-7-7---|
E|-0--3-3-3-5-5---|

^Verse

E|------------------------|
B|------------------------|
G|--7(b)7(b)7(b)----------|
D|----------------5-7-7---|
A|----------------5-7-7---|
E|----------------3-5-5---|

^Chorus

E|-----------------|
B|-5-4-------------|
G|------4--4--6-4--|
D|-----------------|
A|-----------------|
E|-----------------|

^”Keep It Off My Wave” Riff

E|------------------------------------|
B|-----------------------7-9(b)-9-7---|
G|-----7-9(b)-9-7---------------------|
D|-5-5--------------7-7---------------|
A|-5-5--------------7-7---------------|
E|-3-3--------------5-5---------------|

^”My Wave, My Wave…!” Riff

E|--0--0-0-0--0—-0~----|--------------------------------|
B|-10-101010-10—-9~----|--------------------------------|
G|---------------------|-7-7--7—9(b)--7-7--7-9(b)-9(b)--|
D|---------------------|--------------------------------|
A|---------------------|--------------------------------|
E|---------------------|--------------------------------|
   ^Before Verse After     ^Play this part 3x, then start the verse right after
My Wave Part (Riff #6)              the last note    (Riff #7)

The Order
---------------
Intro (1x)
After Intro (8x)
Verse (12x) (For 3 verses)
Chorus (4x)
Verse (4x) (No Vocals)
Verse (12x) (For 3 verses w/vocals)
Chorus (4x)
“Keep It Off My Wave” Riff (8x)
“My Wave, My Wave…!” Riff (1x)
“Keep It Off My Wave” Riff (2x)
Riff # 6 (1x)
Riff # 7 (3x)
Verse (12x) (For 3 verses)
Chorus (4x)
“Keep It Off My Wave” Riff (8x)
“My Wave, My Wave…!” Riff (1x)
“Keep It Off My Wave” Riff (2x)
“My Wave, My Wave…!” Riff (1x)
“Keep It Off My Wave” Riff (4x)
Riff # 6 (1x)
“Keep It Off My Wave” Riff Till The End



FELL ON BLACK DAYS
                           As recorded by Soundgarden
                       (From the 1994 Album SUPERUNKNOWN)

Words and Music by Chris Cornell


         Cmaj7                  E                    B                    A
      x 3 2 0 0 0          x 7 9 9 9 x          7 9 9 8 7 x          5 7 7 6 5 x

        Dsus2/A
      5 5 7 7 5 x

Gtr I (E A D G B E) - 'Dist Gtr. I (Chris Cornell)'
Gtr II (E A D G B E) - 'Dist. Gtr II (Kim Thayil)'
Gtr III (E A D G B E) - 'Dist. Lead Gtr (Kim Thayil)'
Gtr IV (E A D G B E) - 'Dist. Gtr III (Kim Thayil)'

   Intro
    Moderately Slow Rock Q=108
    E5   B5           C               E5   B5                   Cmaj7
   4/4                   2/4         4/4
    Gtr I
                      PM--------|
    Q  E E    +E  E E E   E E E E  3x Q  E E    +E  E E E        W
||----------------------|----------||-------------------------|---------------||
||o---------------------|---------o||-------------------------|--0------------||
||--9-------------------|----------||-9-----------------------|--0------------||
||--9----9b10r(9)-7-0---|----------||-9----9b10r(9)-7-0-------|--x------------||
||o-7--x-9b10r(9)-7-0-7-|-7-7-7---o||-7--x-9b10r(9)-7-0-7-----|--7------------||
||-----x-7----(7)-----8-|-8-8-8-0--||----x-7----(7)-----8-----|--8------------||
|
|   Gtr II
|   W                     H        3x H          Q    E E       +H     +H
||----------------------|----------||-------------------------|---------------||
||o---------------------|---------o||-------------------------|---------------||
||----------------------|----------||-------------------7pb9==|=(7)r===(7)----||
||----------------------|----------||-------------------------|---------------||
||o---------------------|---------o||-------------------------|---------------||
||----------------------|----------||-------------------------|---------------||


   Verse I
    E5        B5      C               B5
   4/4                   2/4         4/4
                      PM--------|
    Q  E E    +E  E E E   E E E E  9x E. S E E  E  E E E
||----------------------|----------||---------------------|
||o---------------------|---------o||---------------------|
||--9-------------------|----------||---------------------|
||--9----9b10r(9)-7-0---|----------||-9--9-9-9--x--9-x-9s=|
||o-7--x-9b10r(9)-7-0-7-|-7-7-7---o||-9--9-9-9--x--9-x-9s=|
||-----x-7----(7)-----8-|-8-8-8-0--||-7--7-7-7--x--7-x-7s=|
|
|   Gtr II
|                     PM--------|
|   Q  E E    +E  E E E   E E E E  9x H        +E  Q   E
||----------------------|----------||---------------------|
||o---------------------|---------o||---------------------|
||--9-------------------|----------||---------------------|
||--9----9b10r(9)-7-0---|----------||-9--------(9)-9---9s=|
||o-7--x-9b10r(9)-7-0-7-|-7-7-7---o||------------------9s=|
||-----x-7----(7)-----8-|-8-8-8-0--||-7--------(7)-7---7s=|


  A5          Cmaj7
  E E E   E E E Q    +W
|---------------0--|-(0)----||
|---------------0--|-(0)----||
|---------------0--|-(0)----||
|-7-7-7-/12---x-x--|-(x)----||
|-7-7-7---x---7-7--|-(7)----||
|-5-5-5-/10---8-8--|-(8)----||
|
| E E E   Q   E Q    +W
|---------------0--|-(0)----||
|---------------0--|-(0)----||
|---------------0--|-(0)----||
|-7-7-7-/12---x-x--|-(x)----||
|-7-7-7---x---7-7--|-(7)----||
|-5-5-5-/10---8-8--|-(8)----||


   Chorus I
    E5   B5           C               E5   B5               Cmaj7
   4/4                   2/4         4/4
    Gtrs I, II
                      PM--------|
    Q  E E    +E  E E E   E E E E  3x Q  E E    +E  E E E   W
||----------------------|----------||---------------------|------||
||o---------------------|---------o||---------------------|-0----||
||--9-------------------|----------||-9-------------------|-0----||
||--9----9b10r(9)-7-0---|----------||-9----9b10r(9)-7-0---|-x----||
||o-7--x-9b10r(9)-7-0-7-|-7-7-7---o||-7--x-9b10r(9)-7-0-7-|-7----||
||-----x-7----(7)-----8-|-8-8-8-0--||----x-7----(7)-----8-|-8----||


   Verse II
    E5   B5           C               B5
   4/4                   2/4         4/4
    Gtr I
                      PM--------|
    Q  E E    +E  E E E   E E E E  9x E. S E E E        E   E  E
||----------------------|----------||----------------------------|
||o---------------------|---------o||----------------------------|
||--9-------------------|----------||----------------------------|
||--9----9b10r(9)-7-0---|----------||-9--9-9-9-x--------9---x--9-|
||o-7--x-9b10r(9)-7-0-7-|-7-7-7---o||-9--9-9-9-x--------9---x--9-|
||-----x-7----(7)-----8-|-8-8-8-0--||-7--7-7-7-x--------7---x--7-|
|
|   Gtr II                            Gtr III
|                     PM--------|     ~~
|   Q  E E    +E  E E E   E E E E  9x Q.     Q   a     +E  +E  E
||----------------------|----------||----------------------------|
||o---------------------|---------o||----------------------------|
||--9-------------------|----------||-7----------9b11==(9)r(9)-7-|
||--9----9b10r(9)-7-0---|----------||--------9-------------------|
||o-7--x-9b10r(9)-7-0-7-|-7-7-7---o||----------------------------|
||-----x-7----(7)-----8-|-8-8-8-0--||----------------------------|


  B5   A5       D5        Cmaj7
  +E    E     E   E  E      E  Q    +W
|------------------------------0--|-(0)------------||
|------------------------------0--|-(0)------------||
|------------------------------0--|-(0)------------||
|-(9)\--7-----7-/12---------x--x--|-(x)------------||
|-(9)\--7-----7---x---------7--7--|-(7)------------||
|-(7)\--5-----5-/10---------8--8--|-(8)------------||
|
|             ~~               ~~~~~~~~~
| +E    E     Q      E     +E  Q    +H.      +Q
|---------------------------------|----------------||
|------10b12-10-----10b12r(10)----|----------------||
|-(7)--------------------------9--|-(9)------(9)\--||
|---------------------------------|----------------||
|---------------------------------|----------------||
|---------------------------------|----------------||


   Chorus II
    E5   B5           C                   E5   B5           C       D5
   4/4                   2/4         4/4                       2/4
    Gtrs I, II
                      PM--------|                           PM
    Q  E E    +E  E E E   E E E E  3x     Q  E E    +E  E E E   +E  E E E
||----------------------|----------||-||----------------------|-----------|
||o---------------------|---------o||-||o---------------------|-----------|
||--9-------------------|----------||-||--9-------------------|-----7-7-7-|
||--9----9b10r(9)-7-0---|----------||-||--9----9b10r(9)-7-0---|-----7-7-7-|
||o-7--x-9b10r(9)-7-0-7-|-7-7-7---o||-||o-7--x-9b10r(9)-7-0-7-|-(7)-5-5-5-|
||-----x-7----(7)-----8-|-8-8-8-0--||-||-----x-7----(7)-----8-|-(8)-------|


  E5   B5           C               E5   B5           C
 4/4                   2/4         4/4                   2/4
                    PM--------|                       PM      PM|
  Q  E E    +E  E E E   E E E E     Q  E E    +E  E E E   +E  E Q
|---------------------|----------||---------------------|----------||
|---------------------|---------o||---------------------|----------||
|-9-------------------|----------||-9-------------------|----------||
|-9----9b10r(9)-7-0---|----------||-9----9b10r(9)-7-0---|----------||
|-7--x-9b10r(9)-7-0-7-|-7-7-7---o||-7--x-9b10r(9)-7-0-7-|-(7)-7-7--||
|----x-7----(7)-----8-|-8-8-8-0--||----x-7----(7)-----8-|-(8)-8-8--||


   Bridge
    N.C.                 (D)
   4/4
    E. S e E +E   E  +E   E
||--------------------------|
||o-------------------------|
||---------9-(9)S13-(13)S14-|
||--9--9-9-x-(x)--x--(x)--0-|
||o-x--x-x-7-(7)S11-(11)S12-|
||--7--7-7------------------|


                                                   ~~
          |--3---|
   +E  E  S  S   S   E  E  E   E   E    +E   E  E  Q    E   Q
|------------------------------------|---------------------------||
|------------------------------------|--------------------------o||
|-(14)---16h17p=16--14-16-17-(17)S19-|-(19)-17-16-14--(14)-14\---||
|--(0)-0--0-(0)-(0)--0--0--0---0---0-|--(0)--0--0--0----0---0----||
|-(12)-------------------------------|--------------------------o||
|------------------------------------|---------------------------||


  N.C.                      (D)
                                    |--3---|
  E. S e E +E   E  +E   E    +E  E  S  S   S   E  E  E   E   E
|-------------------------|------------------------------------|
|-------------------------|------------------------------------|
|--------9-(9)S13-(13)S14-|-(14)---16h17p=16--14-16-17-(17)S19-|
|-9--9-9-x-(x)--x--(x)--0-|--(0)-0--0-(0)-(0)--0--0--0---0---0-|
|-x--x-x-7-(7)S11-(11)S12-|-(12)-------------------------------|
|-7--7-7------------------|------------------------------------|


          |--3---|
   +E  E  S  S   S   E  E  E   E   E
|------------------------------------|
|------------------------------------|
|-(19)---16h17p=16--14-16-17-(17)-16-|
|--(0)-0--0-(0)-(0)--0--0--0---0---0-|
|------------------------------------|
|------------------------------------|


                                                   ~~
          |--3---|
   +E  E  S  S   S   E  E  E   E   E    +E   E  E  Q   E  Q
|------------------------------------|-----------------------||
|------------------------------------|-----------------------||
|-(16)---16h17p=16--14-16-17-(17)S19-|-(19)-17-16-14--12-11--||
|--(0)-0--0-(0)-(0)--0--0--0---0---0-|--(0)--0--0--0---0--0--||
|------------------------------------|-----------------------||
|------------------------------------|-----------------------||


   Verse III
                         2/4         4/4                    2/4
    Gtrs I, II
                      PM--------|                        PM----------|
    Q  E E    +E  E E E   E E E E  6x Q  E E    +E  E  E E    E  E E E
||----------------------|----------||----------------------|-----------|
||o---------------------|---------o||----------------------|-----------|
||--9-------------------|----------||-9--------------------|-----------|
||--9----9b10r(9)-7-0---|----------||-9----9b10r(9)-7--0---|-----------|
||o-7--x-9b10r(9)-7-0-7-|-7-7-7---o||-7----9b10r(9)-7--0-7-|--7--7-7---|
||-----x-7----(7)-----8-|-8-8-8-0--||----x-7----(7)------8-|--8--8-8-0-|
|
|   Gtr III
|------------------------------------------------------------|TP
|   W                     W        6x H          E  Q.       +H
||----------------------|----------||----------------------|-----------|
||o---------------------|---------o||----------------------|-----------|
||----------------------|----------||---------------x------|-(x)-------|
||----------------------|----------||----------------------|-----------|
||o---------------------|---------o||----------------------|-----------|
||----------------------|----------||----------------------|-----------|


  E5     B5           C
 4/4                     2/4
                      PM----------|
   Q   E E    +E  E E E    E  E E E
|-----------------------|-----------||
|-----------------------|-----------||
|--9--------------------|-----------||
|--9-----9b10r(9)-7-0---|-----------||
|--7---x-9b10r(9)-7-0-7-|--7--7-7---||
|------x-7----(7)-----8-|--8--8-8-0-||
|
|  <
|-------------------------|TP
| +W                      +H
|-----------------------|-----------||
|-----------------------|-----------||
|-(x)-------------------|-(x)-------||
|-----------------------|-----------||
|-----------------------|-----------||
|-----------------------|-----------||


 Guitar Solo
  E            B         E       B         A       Dsus2/A   Em/C
 4/4
  E.     S E   E   +E    Q       E     +E  E   E   E    +E    E       Q
|------------------------------------|------------------------0-------0----|
|-9------9-9---7---(7)---9-------7---|-(7)S5---5---5----(5)---0-------0----|
|-9------9-9---8---(8)---9-------8---|-(8)S6---6---7----(7)---0-------0----|
|-9------9-9---9---(9)---9-------9---|-(9)S7---7---7----(7)---2-------2----|
|-7------7-7---9---(9)---7-------9---|-(9)S7---7---5----(5)---3-------3----|
|--------------7---(7)-----------7---|-(7)S5---5---5----(5)----------------|
|
| S  S S S S S S S  S  S S S S S S S    E  S S S S S  S  S S +S     S Q
|------------------------------------|-------------------------------------|
|------------------------------------|-------------------------------------|
|-9--9-9---------------------7-7-7-7-|--7----------7-----7h9-(9)b11r9-7----|
|--------9-9-9-7-7h=9--9-9-9---------|-----7-7h9-9---h9--------------------|
|------------------------------------|-------------------------------------|
|------------------------------------|-------------------------------------|


  Cmaj7        E                 B               E         B
 2/4          4/4
  Gtr II
   H            E.      S E       E       +E     Q         E
   |            |       | |       |        |     |         |
   /            /       / /       /        /     /         /

  Gtr III
                      ~~
                          |-3--|  |--3--|  |----6----|
  +Q   +Q       E     E   S  S S  T T S S  S S S S S S S S E
|------------|-10b12-10---7-10p7--------------------------------|
|------------|-------------------10p7---7-10p7------------------|
|-(7)--(7)/--|------------------------9--------8-7-9p7---7h9b10r|
|------------|-----------------------------------------9--------|
|------------|--------------------------------------------------|
|------------|--------------------------------------------------|


      A         Dsus2/A Cmaj7
  +E  E     E   E  +E   E Q
   |  |     |   |   |   | |
   /  /     /   /   /   / /

                ~~            ~
      |-3-|
  +E  S S S S S E.    S E S S E
|-------------------------------|
|-------------------------------|
|-(9)-7h9p7---7-7-----x-7---7-7-|
|-----------9-------------9-----|
|-------------------------------|
|-------------------------------|


                      E                      B        E            B
 2/4                 4/4
  +H                   E.           S  E     E     +E  Q           E
   |                   |            |  |     |      |  |           |
   /                   /            /  /     /      /  /           /

       ~                                                     ~~~~~~~~~
                                       |----6----|
   S S E E      S S   +S   S S     +S  S S S S S S  E  E     Q
|-------------------|------------------------------------------------|
|--------------10---|-----10------------------------7-10b12-10b12====|
|----7-7-9b11=====9r|=(9)----9pb11r(9)-7h9p7--------7----------------|
|--9----------------|------------------------9p7h9-------------------|
|-------------------|------------------------------------------------|
|-------------------|------------------------------------------------|


     A               Dsus2/A   Cmaj7
  +E   E     E       E +E        E  Q
   |   |     |       |  |        |  |
   /   /     /       /  /        /  /

 ~~~~~~~~~~                 ~~~~~~~~
   E  +S   S S  E.      S  +S   +Q.
|--------------10b12---10-(10)-(10)-----|
|-10-(10)r10-x--------------------------|
|------------7--------------------------|
|---------------------------------------|
|---------------------------------------|
|---------------------------------------|


  Cmaj7         E             B         E            B
 2/4           4/4
   +H           E.   S  E     E      +E Q            E
    |           |    |  |     |       | |            |
    /           /    /  /     /       / /            /

    <
    ~~~~~~~~~
    Q    +Q     E.   S  E.       +S   E E  S     +S  E
|-(10)--(10)--|--------10b12====(10)r10-7--------------|
|--(9)---(9)--|---------------------------10b12r(10)-7-|
|-------------|-9b11-7---------------------------------|
|-------------|-9b11-----------------------------------|
|-------------|----------------------------------------|
|-------------|----------------------------------------|


             A            Dsus2/A     Cmaj7
  +E         E  E         E +E        E Q
   |         |  |         |  |        | |
   /         /  /         /  /        / /

                                        ~
   S     +S  E  S     +S  E  S    +S  E Q
|-10b12r(10)-7-----------------------------|
|--------------10b12r(10)-7----------------|
|----------------------------9b11r(9)-7----|
|---------------------------------------9--|
|------------------------------------------|
|------------------------------------------|


  Cmaj7
                           2/4
  +W           +W           +H
   |            |            |
   /            /            /

   ~~~~~~~~~~~~~~~~~~~~~~~~~~~~~
  +W           +W           +H
|------------|------------|--------||
|------------|------------|--------||
|------------|------------|--------||
|-(9)--------|-(9)--------|-(9)----||
|------------|------------|--------||
|------------|------------|--------||


 Chorus III
  E5      B5            C
 4/4                        2/4
  Gtrs I, II
                         PM--------------|
  Q     E E    +E  E  E  E     E  E   E  E
|--------------------------|---------------|
|--------------------------|---------------|
|-9------------------------|---------------|
|-9-------9b10r(9)-7--0----|---------------|
|-7-------9b10r(9)-7--0--7-|---7--7---7----|
|-------x-7----(7)-------8-|---8--8---8--0-|
|
| Gtr IV
| E +E  E Q        E  E  E    +Q     +Q
|--------------------------|---------------|
|--------------------------|---------------|
|-4-(4)s9-9--------9s12-12-|-(12)---(12)S==|
|-x-(x)---x--------x-----x-|--(x)----(x)---|
|-2-(2)s7-7--------7s10-10-|-(10)---(10)S==|
|--------------------------|---------------|


  E5      B5            C
 4/4                        2/4
                         PM-----------|
  Q     E E    +E  E  E  E     E  E E E
|--------------------------|------------|
|--------------------------|------------|
|-9------------------------|------------|
|-9-------9b10r(9)-7--0----|------------|
|-7-------9b10r(9)-7--0--7-|---7--7-7---|
|-------x-7----(7)-------8-|---8--8-8-0-|
|
| E +E  E Q        E  E  E    +H
|--------------------------|------------|
|--------------------------|------------|
|-4-(4)s9-9--------9s12-12-|-(12)-------|
|-x-(x)---x--------x-----x-|--(x)-------|
|-2-(2)s7-7--------7s10-10-|-(10)-------|
|--------------------------|------------|


  E5        B5             C
 4/4                          2/4
                           PM----------|
   Q      E E    +E   E  E E    E  E E E
|----------------------------|-----------|
|----------------------------|-----------|
|--9-------------------------|-----------|
|--9--------9b10r(9)--7--0---|-----------|
|--7--------9b10r(9)--7--0-7-|--7--7-7---|
|---------x-7----(7)-------8-|--8--8-8-0-|
|
|  E  +E  E Q        +E  E E   +H
|----------------------------|-----------|
|----------------------------|-----------|
|-13-(13)s7-7--------(7)s9-9-|-(9)-------|
|--x--(x)---x--------(x)---x-|-(x)-------|
|-11-(11)s5-5--------(5)s7-7-|-(7)-------|
|----------------------------|-----------|


  E5     B5            C          D5
 4/4                       2/4
   Q   E E    +E  E  E  E    +E   E E E
|-------------------------|-------------|
|-------------------------|-------------|
|--9----------------------|-------7-7-7-|
|--9-----9b10r(9)-7--0----|-------7-7-7-|
|--7-----9b10r(9)-7--0--7-|--(7)--5-5-5-|
|------x-7----(7)-------8-|--(8)--------|
|
|  Q.    Q        E  E  E    +E   E E E
|-------------------------|-------------|
|-------------------------|-------7-7-7-|
|-13-----9--------9s14-14-|-(14)\-7-7-7-|
|--x-----x--------x-----x-|--(x)--7-7-7-|
|-11-----7--------7s12-12-|-(12)\-5-5-5-|
|-------------------------|-------------|


    E5   B5              C
   4/4                         2/4
                           PM------------|
    Q  E E    +E   E   E   E      E  E E E
||----------------------------|------------|
||o---------------------------|------------|
||--9-------------------------|------------|
||--9----9b10r(9)--7---0------|------------|
||o-7----9b10r(9)--7---0---7--|---7--7-7---|
||-----x-7----(7)----------8--|---8--8-8-0-|
|
|   Q  E Q        +E   E  +E     +H
||----------------------------|------------|
||o-9-------------------------|------------|
||--9----9--------(9)s12-(12)-|-(12)-------|
||--9----x--------(x)---------|------------|
||o-7----7--------(7)s10-(10)-|-(10)-------|
||----------------------------|------------|


  E5      B5              C          D5
 4/4                          2/4
   Q    E E    +E   E   E  E     E   E E E  3x
|----------------------------|--------------||
|----------------------------|-------------o||
|--9-------------------------|-------7-7-7--||
|--9------9b10r(9)--7---0----|-------7-7-7--||
|--7------9b10r(9)--7---0--7-|---7---5-5-5-o||
|-------x-7----(7)---------8-|---8----------||
|
|  E  E E Q        +E   E  E    +E   E E E  3x
|----------------------------|--------------||
|----------------------------|-------7-7-7-o||
|-13-13s7-7--------(7)s14-14-|-(14)\-7-7-7--||
|--x--x---x--------(x)-----x-|--(x)--7-7-7--||
|-11-11s5-5--------(5)s12-12-|-(12)\-5-5-5-o||
|----------------------------|--------------||


  E5   B5              C
 4/4                         2/4
                         PM------------|
  Q  E E    +E   E   E   E      E  E E E
|---------------------------|------------|
|---------------------------|------------|
|-9-------------------------|------------|
|-9----9b10r(9)--7---0------|------------|
|-7----9b10r(9)--7---0---7--|---7--7-7---|
|----x-7----(7)----------8--|---8--8-8-0-|
|
| Q  E Q        +E   E  +E     +H
|---------------------------|------------|
|-9-------------------------|------------|
|-9----9--------(9)s12-(12)-|-(12)-------|
|-9----x--------(x)---------|------------|
|-7----7--------(7)s10-(10)-|-(10)-------|
|---------------------------|------------|


  E5      B5              C
 4/4                          2/4
                           PM-----------|
   Q    E E    +E   E   E  E     E  E E E
|----------------------------|------------||
|----------------------------|------------||
|--9-------------------------|------------||
|--9------9b10r(9)--7---0----|------------||
|--7------9b10r(9)--7---0--7-|---7--7-7---||
|-------x-7----(7)---------8-|---8--8-8-0-||
|
|  E  E E Q        +E   E  E    +H
|----------------------------|------------||
|----------------------------|------------||
|-13-13s7-7--------(7)s14-14-|-(14)-------||
|--x--x---x--------(x)-----x-|--(x)-------||
|-11-11s5-5--------(5)s12-12-|-(12)-------||
|----------------------------|------------||


 Outro
  B5                        A5     D5      Cmaj7
 4/4                                                 2/4
  Gtrs I, II
  E. S E E E E   E E   E     E  E  Q       E  Q       +H
|--------------------|---------------------0--0-----|-(0)----|
|--------------------|---------------------0--0-----|-(0)----|
|--------------------|-------------7-------0--0-----|-(0)----|
|-9--9-9-9-x-9---x-9-|-9\----7--7--7-------2--2-----|-(2)----|
|-9--9-9-9-x-9---x-9-|-9\----7--7--5-------3--3-----|-(3)----|
|-7--7-7-7-x-7---x-7-|-7\----5--5-------------------|--------|
|
| Gtr III
| ~~             ~                                     ~~~
| Q.     Q   S S E E   E    +E  E.   S S S E  Q        H
|--------------------|------------------------------|--------|
|--------------------|-----------------------10b12--|-10-----|
|-7----------7-7-7---|-9b11-(9)-9----x-7h9p7--------|--------|
|--------9---------9-|------------------------------|--------|
|--------------------|------------------------------|--------|
|--------------------|------------------------------|--------|


 4/4
   +W            +W            +W
|--(0)--------|--(0)--------|--(0)----*|
|--(0)--------|--(0)--------|--(0)----*|
|--(0)--------|--(0)--------|--(0)----*|
|--(2)--------|--(2)--------|--(2)----*|
|--(3)--------|--(3)--------|--(3)----*|
|-------------|-------------|---------*|
|
|   ~~~~~~~~~~~~~~~~~~~~~~~~~~~~~~~
|  +W            +W            +W
|-------------|-------------|---------*|
|-(10)--------|-(10)--------|-(10)----*|
|-------------|-------------|---------*|
|-------------|-------------|---------*|
|-------------|-------------|---------*|
|-------------|-------------|---------*|


Duration Legend
---------------
W - whole; H - half; Q - quarter; E - 8th; S - 16th; T - 32nd; X - 64th; a - acciaccatura
+ - note tied to previous; . - note dotted; .. - note double dotted
Uncapitalized letters represent notes that are staccato (1/2 duration)
Irregular groupings are notated above the duration line
Duration letters will always appear directly above the note/fret number it represents the
duration for.  Duration letters with no fret number below them represent rests.  Multi-
bar rests are notated in the form Wxn, where n is the number of bars to rest for.  Low
melody durations appear below the staff



MAILMAN by Soundgarden
from Superunknown


Tuning(low to high:C,G,D,G,B,E)


  Intro

E--10--10--10--10--10--10--10\---|
B--10--10--10--10--10--10--10\---|
G--12--12--12--12--12--12--12\sl-|
D--13--13--13--13--13--13--13\---|
G--10--10--10--10--10--10--10\---|
C--10--10--10--10--10--10--10\---|


E-------------------------------------------------|
B-------------------------------------------------|
G-------------------------------------------------|
D--5------------5------------5-----------10--9--8-|
G--5------------5------------5-----------10--9--8-|
C-----0------0-----0------0-----0-----0-----------|


E-------------------------------------------------|
B-------------------------------------------------|
G-------------------------------------------------|
D--5------------5------------5------------3-------|
G--5------------5------------5------------3-------|
C-----0------0-----0------0-----0-----0------4--3-|


on second chorus there is this variation

E-------------------------------------------------|
B-------------------------------------------------|
G-------------------------------------------------|
D--5------------5------------5------------3--2--1-| X 4
G--5------------5------------5------------3--2--1-|
C-----0------0-----3------3-----5-----5-----------|


E----------------------------8--8--------------|
B----------------------------8--8--------------|
G---------------------------10-10--------------|
D--5------------5------------8--8--------------| X 3
G--5------------5------------8--8---4--4-------|
C-----0------0-----0------0--8--8---4--4--3--3-|


Superunknown Tab by Soundgarden, www.Ultimate-Guitar.Com

song: Superunknown
artist: Soundgarden
album: Superunknown

tuning: drop D (D A D G B E)

this is basically all parts to the song except the lead stuff

intro
-------------------------|
-3h5p3p0------0------0---|
------------3------0-----|
----------5------3-------|
-------------------------|
-------------------------|

verse                                         1st              2nd
----------------------       ---------------------|------------|
----------------------       ---------------------|------------|
----------------------       -----0-----0---------|------------|
-----0-----0----------       ---0-----0---3h5p3p0-|------------|
---0-----0----3h5p3p0-       -5-----3-------------|---3h5p3p0--|
-5-----3-------------- 23x   ---------------------|------------|

pre-chorus   (play 3x)
----------------------------------------------------|
----------------------------------------------------|
----------------------------------------------------|
-5--5--5-----9--9--9----5\3---3~--7~--7p5---5----5--|
-0--0--0-----0--0--0----x-----x-----------0----0----|
------------------------5\3---3~--------------------|

pre-chorus 2 (let all notes ring)
------------------------------------------|
------------------------------------------|
-----0-----0-----0-----0------------------|
---0-----0-----0-----0-------0-----0------|
-5-----3-----2-----3-------0-----0--------|
-------------------------3-----2------0---|

chorus
----------------------------------------------------------------------------|
----------------------------------------------------------------------------|
----------------------------------------------------------------------------|
-6----5~---5--3-----5--6--5---3~----3----5--6--5---3~---3-----5--6--5---3~--|
-x----x~---x--x-----x--x--x---x~----x----x--x--x---x~---x-----x--x--x---x~--|
-6----5~---5--3-----5--6--5---3~----3----5--6--5---3~---3-----5--6--5---3---|—

------------------------------------------------------------------------|
------------------------------------------------------------------------|
------------------------------------------------------------------------|
-6----5~---5--3----5--6--5---3~---3---6----5~--5--3---5--6--5---3~--3---|
-x----x~---x--x----x--x--x---x~---x---x----x~--x--x---x--x--x---x~--x---|
-6----5~---5--3----5--6--5---3~---3---6----5~--5--3---5--6--5---3~--3---|

-------------------------------------------------------------------|
-------------------------------------------------------------------|
-------------------------------------------------------------------|
-5--5--5--5--5--5--5--5----3---3--3--3--3--3-----------------------|
-x--x--x--x--x--x--x--x----x---x--x--x--x--x-----------------------|
-5--5--5--5--5--5--5--5----3---3--3--3--3--3--0---3-2-—0--3-2--0---|


SOUNDGARDEN "Head Down"

tuning (low to high) : CACGCE

       fig 1                   fig 2              fig 3

E--1/2\1p0-0----1/2\1p0-0- |------------------|-12xx12-12-12-|
C----------0------------0- | --7-6b-0-5-5h7-0-|-12xx12-12-12-|
G--1/2\1p0-0----1/2\1p0-0- | -----------------|-12xx12-12-12-|
C--------------------------|------------------|--------------|
A--------------------------|------------------|--------------|
C--------------------------|-0----------------|--------------|
      fig 4                                              fig 5
E--------------------------- | ---------------- |
C--------------------------- | ---------------- |
G--5-7-8-7h8-8-7-1-1h3p1-0---| ---------------- |
C--------------------------- | ---------------- |
A--------------------------- | --3333-33-333--- |
C--------------------------- | --5555-55-555--- |
                                 ^^^^ ^^ ^v^

repeat figs 2,3 & 4 three times then play fig 5 to lead into
vocals
( fig 5 can also be played as an F in standard tuning)

     fig 6

    I see that smile . . .
E---------------------------------------------------------|
C---------------------------------------------------------|
G--------------------------------------------0-00-0-0000--|
C-333-3-3333----222-2-2222----555-5-5555-7-8\0-00-0-0000--|
A-xxx-x-xxxx----xxx-x-xxxx----xxx-x-xxxx-x-x-3-33-3-3333--|
C-333-3-3333----222-2-2222----555-5-5555-7-8\0-00-0-0000--|
  ^^^ ^ ^v^^

play fig 6 twice then return to fig 2 and 3 and play twice
return to fig 6  for "I see you laugh . . . " play six times

fig 7

   Bow down . . .
E------------------------------------------|
C------------------------------------------|
G-8~-------7~-------5~-------3-2-3p2p0-----|
C------------------------------------------|
A------------------------------------------|
C------------------------------------------|

play fig 7 twice over fig 6

     fig 8

     Head  high . . .
E------------------------------------------|
C------------------------------------------|
G-13~------12~------10~-----8-7-5----------|
C------------------------------------------|
A------------------------------------------|
E------------------------------------------|

play fig 8 twice over fig 6 then return to fig 1 and play
twice


  fig 9
E----------------------|
C----------------------|
G----------------------|
C--023--578--000-000---|
A--3xx--xxx--333-333---|
C--023--578--000-000---|

repeat fig 9 four times

fig 10

E------------------------- |
C------------------------- |
G-9-12-9--7~---7-10-7-5~-- |
C------------------------- |
A------------------------- |
E--------------------------|

return to figures 2 to 4  play twice then fig 5 followed by
fig 6 four times with figs 7 and 8 overdubbing

     fig 11                 fig 12
E---------5-5-------0-0-|------------------|
C-----------------------|------------------|
G--0-2-3/5-5-5-3p2-0-0--|--3-2-0-2-3bp2p0--|
C-----------------------|------------------|
A-----------------------|------------------|
C-----------------------|------------------|

Black Hole Sun
                         Soundgarden
                    as heard on Superunknown
                 words and music by Chris Cornell
		   Transcribed by Drew Atkinson
                  e-mail drewatkinson@hotmail.com

Legend: h= Hammer on
        p= Pull off
        /= Slide Down
        \= Slide up
        ^= Bend
        ~= Vibrato
       ()= Ghost Note


Drop D Tuning

Intro (Clean)
e-----------------|-----------------|-----------------|----------------|
B-----------------|-----------------|-----------------|----------------|
G-------5---------|-------5---------|-------5---------|-------4--------|
D-----5-----5-----|-----5-----------|-----3-----3-----|-----2----------|
A---5---------5---|---5-------------|---3---------3---|---2------------|
D-5-------------5-|-8---------------|-3-------------0-|-2------------0-|

e-----------------|-----------------|
B-----------------|-----------------|
G-------1---------|-------2---------|
D-----1-----1-----|-----0-----------|
A---1---------1---|---3-------------|
D-1-------------1-|-0---------------|

Verse w/Leslie Effect

e-------12--------|-------10--------|-------13--------|-------12------|
B-----12----12--12|-----11----------|-----13----13--13|-----12--------|
G---12--------12--|---12------------|---10--------10--|---12----------|
D-----------------|-----------------|-----------------|---------------|
A-----------------|-----------------|-----------------|---------------|
D-----------------|-----------------|-----------------|---------------|

e-------11--------|-------10--------|-----12-------10--|-----11-------|
B-----11----11--11|-----10----10--10|---12-------12----|---13---------|
G---12--------12--|---12--------12--|-12----12-10----10|-13-----------|
D-----------------|-----------------|------------------|--------------|
A-----------------|-----------------|------------------|--------------|
D-----------------|-----------------|------------------|--------------|


First chorus w/ Distortion
e-----------------|-----------------|-----------------|----------------|
B-----------------|-----------------|-----------------|-------3--------|
G-------1---------|-------2---------|-----------------|-----3-----3--3-|
D-----1-----1-----|-----0-----0-----|-----5-------5---|---3---------3--|
A---1---------1---|---3---------3---|---5---5---5---5-|-1--------------|
D-1-------------1-|-0-------------0-|-5-------3-------|----------------|

e-----------------|-----------------|-----------------|---------------|
B-----------------|-----------------|-5------5h7p5----|---------------|
G-------1---------|-------2---------|-5------5----5---|-7-------------|
D-----1-----1-----|-----0-----0-----|-5------5------5-|-7-------------|
A---1---------1---|---3---------3---|-3------3--------|-5-------------|
D-1-------------1-|-0-------------0-|-----------------|-0-------------|

Second and third chorus W/ Distortion
e-----------------|-----------------|-----------------|----------------|
B-----------------|-----------------|-----------------|----------------|
G-------1---------|-------2---------|-----------------|-------7--------|
D-----1-----1-----|-----0-----0-----|-----5-------5---|-----8-----8--8-|
A---1---------1---|---3---------3---|---5---5---5---5-|---8---------8--|
D-1-------------1-|-0-------------0-|-5-------3-------|-8--------------|

e-----------------|-----------------|-----------------|----------------|
B-----------------|-----------------|-5------5h7p5----|-3------3h4p3---|
G-------1---------|-------2---------|-5------5----5---|-3------3----3--|
D-----1-----1-----|-----0-----0-----|-5-------------5-|-3--------------|
A---1---------1---|---3---------3---|-3---------------|-1--------------|
D-1-------------1-|-0-------------0-|-----------------|-0------------0-|

e-----------------|-----------------|-----------------|
B-5------5h7p5----|-3------3h4p3----|-7------7h8p7----|
G-5------5----5---|-3------3----3---|-7------7----7---|
D-5-------------5-|-3-------------3-|-7-------------7-|
A-3---------------|-1---------------|-5---------------|
D-----------------|-----------------|-0---------------|

 play this under the solo (6 times)

e-------------------------------------||-------------|
B-------------------------3-----------||-------------|
G-------------------------4-----------||-------------|
D-------------------------3-----------||-3/5-5-------|
A-3-2---0---3-------------5-----------||-3/5-5-------|
D-------------------------------------||-------------|

Guitar Solo: w/ wah (timing isnt exact but all the notes are there)

e---------------------------------------------17-(17)\15--15-(15)\--|
B-------------------------------------------/-----------------------|
G--7--7^--7----7^--7------7------------(7)--------------------------|
D-------------------------------------------------------------------|
A-------------------------------------------------------------------|
D-------------------------------------------------------------------|

e-----------------------------------------------12h15-12h15p12-12-12-|
B-8h10p8-\6-h8p6-\5h6p5-\3-h5-p3----5p3------------------------------|
G--------------------------------------------------------------------|
D--------------------------------------------------------------------|
A--------------------------------------------------------------------|
D--------------------------------------------------------------------|

e-(12)\--------------------------------------------------------------|
B-------------13-13-13-----------------------------------------------|
G-------12h14----------14-12-----12^---(12)^------14-14~~~~~~~~~~~~~-|
D----------------------------14--------------------------------------|
A--------------------------------------------------------------------|
D--------------------------------------------------------------------|

e-------5h7^-----5h8^---5h8p5---5---5h8p5-----------------------------|
B-----8-----------------------8---8-------6-------6-------------------|
G-14\---------------------------------------7-(7)^---5h7p5-7p5-7^--7\-|
D---------------------------------------------------------------------|
A---------------------------------------------------------------------|
D---------------------------------------------------------------------|


e------8---10-10\12-12-10-12^-(12)p10h12--10-10-12-(12)^--10-|
B-8h10--10---------------------------------------------------|
G------------------------------------------------------------|
D------------------------------------------------------------|
A------------------------------------------------------------|
D------------------------------------------------------------|

e10-12-13-12-10-10--10-12-13-12-10-10-10-15-13-12-10-13-12-|
B----------------------------------------------------------|
G----------------------------------------------------------|
D----------------------------------------------------------|
A----------------------------------------------------------|
D----------------------------------------------------------|


e---8h10p8--7h8p7--(7)----------------|
B----------------------10-8h10p8-(8)\-|
G-------------------------------------|
D-------------------------------------|
A-------------------------------------|
D-------------------------------------|

________________
   / Soundgarden   /  The inspiration for this song came from the weird musician called
  / Spoonman      /  Artis the Spoonman, which Cornell met once. He literally played with
 / Superunknown  /  spoons on strings. The background ticking in the Interlude is actually
/_______________/  spoons! But I really don't what this song is about deeper than that.


Tuning: Drop D (D A D G B E)
Gtr I - Distorted (lead, left speaker)
Gtr II - Distorted (lead, right speaker)
Gtr III - Lightly Overdriven (pre-solo)
Gtr IV - Distorted (solo)


 Intro:
 Q=90 bpm
 7/4
 Gtrs I, II
                                                                      PM--|
     S  S  S  S  e   S  S  +S   S  a E    S a E   S a E   S S S S S S S S E    4x
||-----------------------------------------------------------------------------||
||o---------------------------------------------------------------------------o||
||-----------------------------------------------------------------------------||
||--10h12-12-12-12---x-10-(10)-12p10S7---10p7S5---7p5S3---0-0-3h5-5-5-0-0-0----||
||o-10h12-12-12-12---x-10-(10)-12p10S7---10p7S5---7p5S3---0-0-3h5-5-5-0-0-0---o||
||--10h12-12-12-12---x-10-(10)-12p10S7---10p7S5---7p5S3---0-0-3h5-5-5-0-0-0----||
 |-Rhy Fig 1                                                     end Rhy Fig 1-|


 1st Verse:
 4/4
 Gtrs I, II
     S  S  S  S  e   S  S  +S   S Q.            +H                +Q.           +E
||--------------------------------------------|----------------------------------------|
||o-------------------------------------------|----------------------------------------|
||--------------------------------------------|----------------------------------------|
||--10h12-12-12-12---x-10-(10)-12-5-----------|-(5)---------------(5)-----------(5)/---|
||o-10h12-12-12-12---x-10-(10)-12-5-----------|-(5)---------------(5)-----------(5)/---|
||--10h12-12-12-12---x-10-(10)-12-5-----------|-(5)---------------(5)-----------(5)/---|
...feel the rhythm with your hands...


 7/4
                                                                    PM--|
   S  S  S  S  e   S  S  +S   S  a E    S a E   S a E   S S S S S S S S E
|----------------------------------------------------------------------------||
|---------------------------------------------------------------------------o||
|----------------------------------------------------------------------------||
|-10h12-12-12-12---x-10-(10)-12p10S7---10p7S5---7p5S3---0-0-3h5-5-5-0-0-0----||
|-10h12-12-12-12---x-10-(10)-12p10S7---10p7S5---7p5S3---0-0-3h5-5-5-0-0-0---o||
|-10h12-12-12-12---x-10-(10)-12p10S7---10p7S5---7p5S3---0-0-3h5-5-5-0-0-0----||


Rhy Fig 1 x1


 Chorus:
 4/4
 Gtr I
    S S S S S S S S +S  S S S S S E    4x
||-------------------------------------||
||o-----------------------------------o||
||-------------------------------------||
||------------------------5p3----------||
||o---------------------------5p3-0---o||
||--5p3-5p3-5p3-0-5-(5)-3--------------||
||-Rhy Fig 2             end Rhy Fig 2-|
|
|Gtr II
|   S S S S S S S S +S  S e   Q        4x
||-------------------------------------||
||o-----------------------------------o||
||-------------------------------------||
||-------------------------------------||
||o-----------------------------------o||
||--5p3-5p3-5p3-0-5-(5)-3-5------------||
 |-Rhy Fig 2             end Rhy Fig 2-|
...spoonman, come together with your hands...


Rhy Fig 1 x2


 2nd Verse:
similar to 1st Verse


 Chorus:
Rhy Fig 2 x4

Rhy Fig 1 x4


 C'mon-Interlude:
 4/4
    W                                4x
||-----------------------------------||
||o---------------------------------o||
||-----------------------------------||
||-----------------------------------||
||o---------------------------------o||
||-----------------------------------||
...come on, come on, come on...


 Pre-Solo:
 2/4               4/4
 Gtrs I, II
  S S S S S S S S   +W
|-----------------|---------------------------------------------|
|-----------------|---------------------------------------------|
|-----------------|---------------------------------------------|
|-----------------|---------------------------------------------|
|-5p3-5p3-5p3-0-3-|-(3)-----------------------------------------|
|---------------3-|-(3)-----------------------------------------|
|
|Gtr III
| H                  S  S S  E     +S   S  S  S  S  Q.
|-----------------|---------------------------------------------|
|-----------------|---------10----------------------------------|
|-----------------|---------12b14r(12)-10h12--------------------|
|-----------------|-10h12--------------------10h12--------------|
|-----------------|--------------------------------10-----------|
|-----------------|---------------------------------------------|

 2/4                4/4
 Gtrs I, II
   S S S S S S S S   +W
|------------------|---------------------------------------------|
|------------------|---------------------------------------------|
|------------------|---------------------------------------------|
|------------------|---------------------------------------------|
|--5p3-5p3-5p3-0---|---------------------------------------------|
|----------------5-|-(5)-----------------------------------------|
|
|Gtr III
|                                                    ~~~~
|  +H                 S  S S  E     +S   S  S  S  S  Q.
|------------------|---------------------------------------------|
|------------------|---------10---------------10h13-13b15--------|
|------------------|---------12b14r(12)-10h12--------------------|
|------------------|-10h12---------------------------------------|
|-(10)-------------|---------------------------------------------|
|------------------|---------------------------------------------|
|
|Gtr IV
|                                                   ~~~
|   H                 H                        E     Q.
|------------------|--------------------------------10-----------|
|------------------|--------------------------------13-----------|
|------------------|---------------------------------------------|
|------------------|---------------------------------------------|
|------------------|---------------------------------------------|
|------------------|---------------------------------------------|


 Solo:
w/Rhy Fig 1 x4 (I've split the 7/4 bars to let you assess the situation)
 4/4
 Gtr III
   ~~~
    Q              Q               H
|--10\-------------------------------------------------------------------------|
|--13\-------------------------------------------------------------------------|
|------------------------------------------------------------------------------|
|------------------------------------------------------------------------------|
|------------------------------------------------------------------------------|
|------------------------------------------------------------------------------|
|
|Gtr IV
|  ~~~~~~
|                                   |-------6-------|
|  +E.       T  T  E     +S   +S   +S   S  S  S  S  S  T  T  T  T  T  T  T  T
|-(10)------10h13-13b15=(13)r(13)-(13)-13p10-13-10-----------------------------|
|-(13)b15------------------------------------------13-10h13p10h13p10-----------|
|--------------------------------------------------------------------12-10h12p=|
|------------------------------------------------------------------------------|
|------------------------------------------------------------------------------|
|------------------------------------------------------------------------------|


 3/4
 Gtr IV
   T  T  T  T  S     +T   S    T      T  T      T  T      T  T      T  T      T  T      T      +T   T  T
|--------------------------------------------------------------------------------------------------------|
|------------------------13----------13--------13--------13--------13--------13--------------------------|
|-10----10-10-12b14=(12)------12pb14----12pb14----12pb14----12pb14----12pb14----12pb14-12pb14r(12)-12-10-|
|----12--------------------------------------------------------------------------------------------------|
|--------------------------------------------------------------------------------------------------------|
|--------------------------------------------------------------------------------------------------------|


 4/4
        ~~~                                     ~~~~~~~~~~~~~~~~~~
                  |-------6------|
   T  T  Q        T  T  T  T  T  T  T  T  T  T  S  +E      +E.  +S
|-------------------------------------------------------------------|
|-------------------------------------------------------------------|
|-12-10-10----------------------------------------------------------|
|----------------12-12-10-12-12-10-------10-10-12-(12)b14=(12)r(12)-|
|----------------------------------12-12----------------------------|
|-------------------------------------------------------------------|


 3/4
   T  T  T  T  E.    +E   +T   +T      +T      +T    T  T  T  T  S
|---------------------------------------------------------------------|
|---------------------------------------------------------------------|
|-------10-10-12b14=(12)-(12)r(12)b14r(12)b14=(12)r-12-12-10-10-12b14-|
|-12-12---------------------------------------------------------------|
|---------------------------------------------------------------------|
|---------------------------------------------------------------------|


 4/4
   +S       E.   Q           +S       Q        E       T  T
|---------------13----------(13)-----13-------13b15---13p10-|
|----------13---13b15-------(13)pb15-----------x------------|
|-(12)pb14------------------------------------13b14---------|
|-----------------------------------------------------------|
|-----------------------------------------------------------|
|-----------------------------------------------------------|


 3/4
                                                ~~~~~~~~~~~~~~~~~~~~~~~
   |--3--|              |--3--|
   T  T  T  T  T  T  T  T  T  T  T  T  T  T  S  S      +E      +S   +S
|-13p10------------------------------------------------------------------|
|-------13-13p10----10-13p10-10------------------------------------------|
|----------------12-------------12p10-12p10-12-12b13r=(12)b13=(12)-(12)\-|
|------------------------------------------------------------------------|
|------------------------------------------------------------------------|
|------------------------------------------------------------------------|


 4/4
                                                       ~~~
           |-------6-------|              |----3----|
  S T  T   S   S  S  S  S  S  T  T  T  T  S  S  E   E   Q
|---------------------------------------------------------------|
|---------------------------------------------------------------|
|-4-7-14-[14]-14-14-12p11h14-14p12p11h14-14p12p11---------------|
|--------------------------------------------------12--10-------|
|---------------------------------------------------------------|
|---------------------------------------------------------------|


 3/4
   S  S     E       E      +E     T  T  +E.
|--------------------------------10--------------|
|----12b13-13------13---------------13-(13)b17---|
|-10-------12b14---12pb14r(12)-------------------|
|------------------------------------------------|
|------------------------------------------------|
|------------------------------------------------|


 Interlude:
 3/4
 Gtr IV
   +E       +S   +S   H                   H.                       7x
|-------------------------------------||---------------------------||
|-(13)pb17r(13)-(13)\-----------------||o-------------------------o||
|-------------------------------------||---------------------------||
|-------------------------------------||---------------------------||
|-------------------------------------||o-------------------------o||
|-------------------------------------||---------------------------||


 4/4
    W                                8x
||-----------------------------------||
||o---------------------------------o||
||-----------------------------------|| (bass goes on here)
||-----------------------------------||
||o---------------------------------o||
||-----------------------------------||


    W                                3x H.                      E.    S
||-----------------------------------||---------------------------------|
||o---------------------------------o||---------------------------------|
||-----------------------------------||---------------------------------|
||-----------------------------------||---------------------------------|
||o---------------------------------o||---------------------------------|
||-----------------------------------||-------------------------------0-|
...come on, we like it all...


 Gtr I
    S S S S S S S S +S  S S S S S E    4x
||-------------------------------------||
||o-----------------------------------o||
||-------------------------------------||
||----------------5-(5)-3--------------||
||o-5p3-5p3-5p3-0---------5p3---------o||
||----------------------------5p3-0----||


 Chorus:
similar to previous


 Outro:
 4/4
 Gtrs I, II
   S  S  S  S  e   S  S  +S   S Q.            +H                +Q.           +E
|-------------------------------------------|----------------------------------------|
|-------------------------------------------|----------------------------------------|
|-------------------------------------------|----------------------------------------|
|-10h12-12-12-12---x-10-(10)-12-5-----------|-(5)---------------(5)-----------(5)/---|
|-10h12-12-12-12---x-10-(10)-12-5-----------|-(5)---------------(5)-----------(5)/---|
|-10h12-12-12-12---x-10-(10)-12-5-----------|-(5)---------------(5)-----------(5)/---|
...feel the rhythm with your hands...


   S  S  S  S  E    +E     H
|------------------------------------------|
|------------------------------------------|
|------------------------------------------|
|-10h12-12-12-12---(12)\-------------------|
|-10h12-12-12-12---(12)\-------------------|
|-10h12-12-12-12---(12)\-------------------|
...spoonman...



/ Soundgarden    /  I think this song is about how the human being is consuming
  / Limo Wreck     /  the world and it's resources and how it'll eventually be
 / Superunknown   /  the death of ourselves. It's about how we've got so much,
/________________/  but yet our greediness blinds us.


Gtrs I, II, III (C G D G B E) - Heavily Overdriven

 Intro:
 Q=70 bpm
 6/8
 Gtrs I, III
    E   S S E   E   S S E     E   S S E   E   S S E    2x
||--------------------------|--------------------------||
||o-------------------------|-------------------------o||
||--------5-----------5-----|-------5-----------5------||
||----------3---2-------0---|---------3---2-------0----||
||o-----5-----------5-------|-----5-----------5-------o||
||--0-----------------------|-0------------------------||

 6/8                                                           3/8
     E    S   S   E   E   S  S  E     E   S S E   S S S S E     E   S S E    4x
||----------------------------------|-------------------------|--------------||
||o---------------------------------|-------------------------|-------------o||
||--------------<12>-----------<5>--|---------0-----------0---|---------0----||
||----------<12>------------<5>-----|-------5-----------0-----|-------0------||
||o-----<12>-------------<5>--------|-----5-----------0-------|-----0-------o||
||--10----------------4-------------|-3----------/8-7---------|-7------------||
     *                *
 Slide out sligthly upwards on these two notes


 1st Verse:
                                                     1.,2.,3.
 6/8                                                 3/8
    Q.          Q.            Q.      S E   +E.       Q       +E
||--------------------------|-----------------------|-----------------||
||o-------------------------|-----------------------|----------------o||
||--------------------------|-----------------------|-----------------||
||--------------------------|-----------------------|-----------------||
||o-7-----------------------|---------7-4---(4)-----|-3-------(3)/---o||
||--------------8-----------|-7---------------------|-----------------||

 4.
 6/8
  S S S S E   E   S S E
|-------------------------|
|-------------------------|
|---------0-----------0---|
|-------0-----------0-----|
|-----0-----------0-------|
|-8-7---------7-----------|


  " Tears of the feeble, hands of the slaves
    Skin of the mothers, mouths of the babes
    Building the towers, belongs to the sky
    When the whole thing comes crashing down
    Don't ask me why
    Don't ask me why "

 Interlude:
 6/8                                                           3/8
     E    S   S   E   E   S  S  E     E   S S E   S S S S E     E   S S E
||----------------------------------|-------------------------|--------------||
||o---------------------------------|-------------------------|-------------o||
||--------------<12>-----------<5>--|---------0-----------0---|---------0----||
||----------<12>------------<5>-----|-------5-----------0-----|-------0------||
||o-----<12>-------------<5>--------|-----5-----------0-------|-----0-------o||
||--10----------------4-------------|-3----------/8-7---------|-7------------||


 2nd Verse:
 6/8                                                 3/8
    Q.          Q.            Q.      S E   +E.       Q       +E      4x
||--------------------------|-----------------------|-----------------||
||o-------------------------|-----------------------|----------------o||
||--------------------------|-----------------------|-----------------||
||--------------------------|-----------------------|-----------------||
||o-7-----------------------|---------7-4---(4)-----|-3-------(3)/---o||
||--------------8-----------|-7---------------------|-----------------||


  " Under the shelf, the shelf of the sky
    Two eyes, two suns, too heavenly blinds
    Swallowing rivers, belongs to the sea
    When the whole thing washes away
    Don't run to me "

 Pre-Chorus:
 Gtrs I, III
 6/8                                                        3/8
  Q.                    Q.          Q.      S E   +E.        Q       +E
|---------------------------------|------------------------|----------------|
|---------------------------------|------------------------|----------------|
|---------------------------------|------------------------|----------------|
|---------------------------------|------------------------|----------------|
|-7-------------------------------|---------7-4---(4)------|-3-------(3)/---|
|-----------------------8---------|-7----------------------|----------------|
|
| Gtr II
| S    S  E   S S    S  E  +E.      Q.      Q         E      E.     E.
|---------------------------------|------------------------|----------------|
|-7-------------7----------(7)----|-7-------7---------7----|-x\-----7-------|
|-9b11r9b11-----9b11r9b11==(9)----|-9b12----9b11------9b11-|-x\-----9b11----|
|---------------------------------|------------------------|----------------|
|---------------------------------|------------------------|----------------|
|---------------------------------|------------------------|----------------|
 *note that these bends are rhythmically fucked on purpose, it is about
  improsvising and make it weird, so these indications are just simplifications


 6/8                                                          3/8
  Q.          Q.            Q.          S    E      S E        E       S  S  E
|-------------------------|----------------------------------|-------------------|
|-------------------------|----------------------------------|-------------------|
|-------------------------|----------------------------------|-------------------|
|-------------------------|---------------------------4------|-3-------3--3--3---|
|-7-----------------------|-------------7----4------4-4------|-3-------3--3--3---|
|-------------8-----------|-7--------------------------------|-------------------|
|
| E  E    E   Q.            E   Q       S    S S    S S    S   S    S S +S   E
|-------------------------|----------------------------------|-------------------|
|----7--------7-----------|-----7------------7------7------7-|------7---(7)\-----|
|----9b11-----9b12--------|-----9b11----9b11---9b11---9b11---|-9b11===9r(9)\-----|
|-------------------------|----------------------------------|-------------------|
|-------------------------|----------------------------------|-------------------|
|-------------------------|----------------------------------|-------------------|


  " I'll be going down for the rest of the slide
    While the rest of you harvest the gold "


 Chorus:
 Gtrs I, III
 6/8                                                    3/8
     Q       E    Q      E      Q.          S E.   E     Q            E           3x
||---------------------------|-------------------------|--------------------------||
||o--------------------------|-------------------------|-------------------------o||
||---------------------------|-------------------------|--------------------------||
||----------------4------4---|--2----------------------|--------------------------||
||o--6-------6----4------4---|--2-----------6-3----3---|-2------------2----------o||
||---6-------6---------------|--------------6-3----3---|-2------------2-----------||
|
| Gtr II
|    E   S  E  S  E  S  E  S    E  S  E  S  E  S  E  S    E     E     S     T  T  3x
||---------------------------|-------------------------|--------------------------||
||o--------14-14-------14-14-|-------14-14-------14-14-|-12b14-12b14-12b14r12p10-o||
||--11--11-------11-11-------|-11-11-------11-11-------|--------------------------||
||---------------------------|-------------------------|--------------------------||
||o--------------------------|-------------------------|-------------------------o||
||---------------------------|-------------------------|--------------------------||


 6/8
   Q       E    Q     E      Q.          S E.   E      Q           E           Q.
|-------------------------|-------------------------|------------------------------|
|-------------------------|-------------------------|------------------------------|
|-------------------------|-------------------------|------------------------------|
|---------------4-----4---|--2----------------------|------------------------------|
|--6-------6----4-----4---|--2-----------6-3----3---|--2-----------2-----------7---|
|--6-------6--------------|--------------6-3----3---|--2-----------2-----------7---|
|
|  E  S  E  S  E  S  E  S    E  S  E  S  E  S  E  S    E      E    S      T T  Q.
|-------------------------|-------------------------|------------------------------|
|-------14-14-------14-14-|-------14-14-------14-14-|-11b13-11b13-11pb13r11p9------|
|-11-11-------11-11-------|-11-11-------11-11-------|-------------------------10---|
|-------------------------|-------------------------|------------------------------|
|-------------------------|-------------------------|------------------------------|
|-------------------------|-------------------------|------------------------------|


  " And the wreck of you
    Is the death of you all
    And the wreck of you
    Is the break and the fall
    I'm the wreck of you
    I'm the death of you all
    I'm the wreck of you
    I'm the break and the fall "


 Interlude:
 Gtrs I, III
 6/8                                                           3/8
     E    S   S   E   E   S  S  E     E   S S E   S S S S E     E   S S E    4x
||----------------------------------|-------------------------|--------------||
||o---------------------------------|-------------------------|-------------o||
||--------------<12>-----------<5>--|---------0-----------0---|---------0----||
||----------<12>------------<5>-----|-------5-----------0-----|-------0------||
||o-----<12>-------------<5>--------|-----5-----------0-------|-----0-------o||
||--10----------------4-------------|-3----------/8-7---------|-7------------||


 3rd Verse:
similar to 2nd Verse


  " Under the red break of the lights
    Heroes in stretches inch to the site
    Blowing the pieces, belong to the wind
    When the whole thing blows away
    I won't pretend "


 Pre-Chorus:
 Gtrs I, III play as previous
 Gtr II
 6/8                                                    3/8
  Q       E   Q.           E   Q       E   Q            +E   E   E
|------------------------|----------------------------|--------------|
|-7-----------7----------|-----7-----------7----------|-(7)----------|
|-9b11--------9b12-------|-----9b12--------9b11-------|-(9)------9---|
|------------------------|----------------------------|--------------|
|------------------------|----------------------------|--------------|
|------------------------|----------------------------|--------------|


 6/8                                                            3/8
  Q.         +Q      E     S  E    S E    S    S S    S S    S   S    S S +S   E
|------------------------|-------------------------------------|-------------------|
|-7----------(7)---------|----7------7---------7------7------7-|------7---(7)\-----|
|-9b11-------(9)---------|----9b11---9b11-9b11---9b11---9b11---|-9b11===9r(9)\-----|
|------------------------|-------------------------------------|-------------------|
|------------------------|-------------------------------------|-------------------|
|------------------------|-------------------------------------|-------------------|


  " I'll be going down for the rest of the slide
    While the rest of you harvest the souls "


 Chorus:
the first 3 repeated bars are similar to previous, then end on this:

 Gtrs I, III
 6/8                                                 9/8
   Q       E    Q     E      Q.          S E.   E      Q.                H.
|-------------------------|-------------------------|------------------------------|
|-------------------------|-------------------------|------------------------------|
|-------------------------|-------------------------|------------------------------|
|---------------4-----4---|--2----------------------|------------------------------|
|--6-------6----4-----4---|--2-----------6-3----3---|--2-----------------1---------|
|--6-------6--------------|--------------6-3----3---|--2-----------------1---------|
|
| Gtr II
|  E  S  E  S  E  S  E  S    E  S  E  S  E  S  E  S    E      E    S. T  H.
|-------------------------|-------------------------|------------------------------|
|-------14-14-------14-14-|-------14-14-------14-14-|-12b14-12b14-12-10------------|
|-11-11-------11-11-------|-11-11-------11-11-------|-------------------10---------|
|-------------------------|-------------------------|------------------------------|
|-------------------------|-------------------------|------------------------------|
|-------------------------|-------------------------|------------------------------|


 Interlude:
 6/8
 Gtrs I, III
    E   S S E   E   S S E     E   S S E   E   S S E    2x
||--------------------------|--------------------------||
||o-------------------------|-------------------------o||
||--------5-----------5-----|-------5-----------5------||
||----------3---2-------0---|---------3---2-------0----||
||o-----5-----------5-------|-----5-----------5-------o||
||--0-----------------------|-0------------------------||


 Gtrs I, III repeat the riff
 Gtr II
   E  S  S  E   E  S  S  E     E    S   S   E   E  S  S  E
|---------------------------|-------------------------------|
|---------------------------|-------------------------------|
|----------<5>----------<7>-|-------------<12>----------<5>-|
|-------<5>----------<7>----|---------<12>-----------<5>----|
|----<5>----------<7>-------|-----<12>------------<5>-------|
|-<5>----------<7>----------|-<12>-------------<5>----------|

   E  S  S  E   E  S  S  E     E  S  S  E   E  S  S  E
|---------------------------|---------------------------|
|---------------------------|---------------------------|
|----------<7>----------<7>-|----------<5>----------<5>-|
|-------<7>----------<7>----|-------<5>----------<5>----|
|----<7>----------<7>-------|----<5>----------<5>-------|
|-<7>----------<7>----------|-<5>----------<5>----------|

 Gtr II
     E    S   S   E  E   S  S  E     E   S S E   S S  S  S  E    4x
||---------------------------------|-----------------------------||
||o--------------------------------|----------------------------o||
||--------------<12>----------<5>--|---------0-------------<7>---||
||----------<12>-----------<5>-----|-------5------------<7>------||
||o-----<12>------------<5>--------|-----5-------1-0-<7>--------o||
||--10---------------4-------------|-3-----------1-0-------------||
|
| Gtr I
|    Q.              Q.              Q.          Q.              4x
||---------------------------------|-----------------------------||
||o-15--------------12-------------|-5----------13--------------o||
||--17b19r17b19-----14b16r14b16----|-7b9--------15b17r15b17------||
||---------------------------------|-----------------------------||
||o--------------------------------|----------------------------o||
||---------------------------------|-----------------------------||


 Bridge:
                                                   1.
 Gtrs I, III
    Q.                 Q.      Q.     S E   +E.     Q.
||---------------------------|--------------------|--------------||
||o--------------------------|--------------------|-------------o||
||---------------------------|--------------------|--------------||
||--7------------------------|----------4---(4)---|-3------------||
||o-7------------------8-----|-7------7-4---(4)---|-3-----------o||
||---------------------8-----|-7------------------|--------------||
|
| Gtr II
|   E    E    S    T T Q.      +H.                  +Q.
||---------------------------|--------------------|--------------||
||o-7----7-------------------|--------------------|-------------o||
||--9b11-9b11-9b11r9p7-7-----|-(7)----------------|-(7)----------||
||---------------------------|--------------------|--------------||
||o--------------------------|--------------------|-------------o||
||---------------------------|--------------------|--------------||


 2.
 Gtrs I, II, III
  <
  PM--------------------|
  S S S S S S S S S S S S
|-------------------------||
|-------------------------||
|-------------------------||
|-3-3-3-3-3-3-3-3-3-3-3-3-||
|-3-3-3-3-3-3-3-3-3-3-3-3-||
|-------------------------||


  " Behind the blood red break of the lights
    Lies the wreck of you for the rest of your life "


 Final Chorus:
 Gtrs I, III play their chorus riff 6x

 6/8                                                   3/8
  Gtr II
     E  S  E  S  E  S  E  S    E  S  E  S  E  S  E  S    E     E     S     T  T
||--------------------------|-------------------------|--------------------------||
||o-------14-14-------14-14-|-------14-14-------14-14-|-12b14-12b14-12b14r12p10-o||
||--11-11-------11-11-------|-11-11-------11-11-------|--------------------------||
||--------------------------|-------------------------|--------------------------||
||o-------------------------|-------------------------|-------------------------o||
||--------------------------|-------------------------|--------------------------||


 6/8                                                                   3/8
   E  S  E.     E.     E.      S      S  E  E  S S  S     S T  T T  T   S  S a  E  a  E
|---------------------------|-----------------------------------------|------------------|
|----10-12b14--12b14--12b14-|-12pb14r12-10----------------------------|------------------|
|-11------------------------|--------------11----9-11b13r11-9h11p9----|-9-11-9h11--9h11--|
|---------------------------|-----------------11-------------------11-|------------------|
|---------------------------|-----------------------------------------|------------------|
|---------------------------|-----------------------------------------|------------------|


 6/8                                                                        3/8
   S     S  S  S  S     S  S  S  S  S  E    +S  S  E     E    E  S     S E     S S  S     S S  S
|----------------------------------------|------9-12b14-12b14-9------------|---------------------|
|-12b14r12-10----12b14r12-10----10-12-12-|-(12)-----------------12b14r12---|---------------------|
|-------------11-------------11----------|-------------------------------9-|-----9-11b13r11-9\-2-|
|----------------------------------------|---------------------------------|-/11-----------------|
|----------------------------------------|---------------------------------|---------------------|
|----------------------------------------|---------------------------------|---------------------|


 6/8                                                                            3/8
                                              |-3-|           |-3-| |-3-| |-3-|
  E   S S E   S   S T T T T S S   T T T T T T T T T T T T T S S S S S S S S S S   a E  a E  a E
|-------------------------------|-----------------------------------------------|----------------|
|-------------------------------|-----------------------------------------------|----------------|
|-2-----2-4b6-4b6r4-2h4p2---2-4-|-2h4p2h4p2h4p2h4p2-4p2---2-4-4p2h4p2-----------|----------------|
|----/4-------------------4-----|-----------------------4-------------4p2h4p2h4-|-2h4--2h4--2h4--|
|-------------------------------|-----------------------------------------------|----------------|
|-------------------------------|-----------------------------------------------|----------------|


 6/8                                                          3/8
  a E   S S S S E    E   T T S   S S a E   e   E    E   T S.   Q.
|------------------------------|---------------7b9--7--------|-----------|
|---------5---5-7b9--7---5h7p5-|-5h7-5h7---7---x--------5h7--|-5---------|
|------/6---6------------------|-----------------------------|-----------|
|-2h4--------------------------|-----------------------------|-----------|
|------------------------------|-----------------------------|-----------|
|------------------------------|-----------------------------|-----------|


 Gtrs I, III
  W                  +W
|------------------|-----------------||
|------------------|-----------------||
|------------------|-----------------||
|------------------|-----------------||
|-1----------------|-(1)-------------||
|-1----------------|-(1)-------------||
|
| Gtr II
| W                  +W
|------------------|-----------------||
|-2----------------|-(2)-------------||
|-4b6--------------|-(4)-------------||
|------------------|-----------------||
|------------------|-----------------||
|------------------|-----------------||


The Day I Tried To Live -- Soundgarden
>From "Superunknown"
Tabbed by Jeeves (philipe@basix.com)

Intro, Guitar 1 (Slight Distortion)

e |-10-9-7-10\4-4-4/7-7---------------------------|
B |-----------------------------------------------|
G |-----------------------------------------------|
D |-----------------------------------------------|
A |-----------------------------------------------|
E |-----------------------------------------------|

Intro, Guitar 2 (Clear Tone)

Begin halfway through first cycle of guitar 1's riff.
Listen to the song to get the exact rhythm.

e |-10\4--7-9-9\7---------------------------------|
B |-----------------------------------------------|
G |-----------------------------------------------|
D |-----------------------------------------------|
A |-----------------------------------------------|
E |-----------------------------------------------|

after 2 cycles of guitar 1, do this instead:

e |-15\10--15\10-15\10-15\7-----------------------|
B |-----------------------------------------------|
G |-----------------------------------------------|
D |-----------------------------------------------|
A |-----------------------------------------------|
E |-----------------------------------------------|

Bass comes in here. This riff is doubled by one guitar
when the vocals start.

e |-----------------------------------------------|
B |-----------------------------------------------|
G |-----------------------------------------------|
D |-----------------------------------------------|
A |-77777-765433333-3-2-00000---------------------|
E |---------------------------0-------------------|

Play the above riff until the vocal line before the
chorus, and then do:

e |-----------------7644444-----------------------|
B |-----------------7644444-----------------------|
G |-----------------8755555-----------------------|
D |-----------------9866666-----------------------|
A |-77777-765433333-9866666-----------------------|
E |-----------------7644444-----------------------|
   (...and watch the rolling heads)


Now start playing bar chords on the twelfth fret,
loud and distorted.

e |-12-12-12-12-12--12-11-10-9--8--8--8--8--8-----|
B |-12-12-12-12-12--12-11-10-9--8--8--8--8--8-----|
G |-13-13-13-13-13--13-12-11-10-9--9--9--9--9-----|
D |-14-14-14-14-14--14-13-12-11-10-10-10-10-10----|
A |-14-14-14-14-14--14-13-12-11-10-10-10-10-10----|
E |-12-12-12-12-12--12-11-10-9--8--8--8--8--8-----|

e |-8--7-55555------------------------------------|
B |-8--7-55555------------------------------------|
G |-9--8-66666------------------------------------|
D |-10-9-77777------------------------------------|
A |-10-9-77777------------------------------------|
E |-8--7-55555------------------------------------|

Depending on which verse you are on, the above riff
will repeat either two or four times.

Now, guitar one will play this:

e |-10-9-7-10\4-4-4-6-6---10-9-7-10\5-5-5-7-7-----|
B |-----------------------------------------------|
G |-----------------------------------------------|
D |-----------------------------------------------|
A |-----------------------------------------------|
E |-----------------------------------------------|

And guitar two will play this, rather quietly:

e |-7-7-7-7-8--8--8--8--8--12-12-12-12------------|
B |-7-7-7-7-8--8--8--8--8--12-12-12-12------------|
G |-8-8-8-8-9--9--9--9--9--13-13-13-13------------|
D |-9-9-9-9-10-10-10-10-10-14-14-14-14------------|
A |-9-9-9-9-10-10-10-10-10-14-14-14-14------------|
E |-7-7-7-7-8--8--8--8--8--12-12-12-12------------|

e |-9--9--9--9--9---------------------------------|
B |-9--9--9--9--9---------------------------------|
G |-10-10-10-10-10--------------------------------|
D |-11-11-11-11-11--------------------------------|
A |-11-11-11-11-11--------------------------------|
E |-9--9--9--9--9---------------------------------|

Repeat twice (...one more time around might do it)


Then this little line, in the same style as the
one above (all the repeats of the first two
chords omitted for brevity):

	    Guitar 1 joins here
	   v
e |-12--7--9--9--9--9--9----9--8--7-6-55555-5422222-|
B |-12--7--9--9--9--9--9----9--8--7-6-55555-5422222-|
G |-13--8--10-10-10-10-10---10-9--8-7-66666-6533333-|
D |-14--9--11-11-11-11-11---11-10-9-8-77777-7644444-|
A |-14--9--11-11-11-11-11---11-10-9-8-77777-7644444-|
E |-12--7--9--9--9--9--9----9--8--7-6-55555-5422222-|

Kickstand -- Soundgarden
From: Keith Barron 

I don't remember if I already posted this.
Here's a song about a kickstand, I think. :)

Verse:
G|-------------|-------------|-7--5-5-5--7-|-5--5-5-5-5--7-7-|
D|-5--5--5-5-5-|-8--8--8-8-8-|-7--5-5-5--7-|-5--5-5-5-5--7-7-|
A|-5--5--5-5-5-|-8--8--8-8-8-|-5--5-5-5--5-|-5--5-5-5-5--5-5-|
D|-5--5--5-5-5-|-8--8--8-8-8-|-------------|-----------------|

G|-------------|-------------|-7--5-5-5--7-|-5--5-5-5-5--7-7-|
D|-5--5--5-5-5-|-8--8--8-8-8-|-7--5-5-5--7-|-5--5-5-5-5--7-7-|
A|-5--5--5-5-5-|-8--8--8-8-8-|-5--5-5-5--5-|-5--5-5-5-5--5-5-|
D|-5--5--5-5-5-|-8--8--8-8-8-|-------------|-----------------|

G|-------------|-------------|-------------|-----------------|
D|-5--5--5-5-5-|-8--8--8-8-8-|-7--9-9-9--7-|-9--9-9-9-9--7-7-|
A|-5--5--5-5-5-|-8--8--8-8-8-|-7--7-7-7--7-|-7--7-7-7-7--7-7-|
D|-5--5--5-5-5-|-8--8--8-8-8-|-7--7-7-7--7-|-7--7-7-7-7--7-7-|


G|-------------|------------------|
D|-5--5--5-5-5-|-10--10--10-10-10-|
A|-5--5--5-5-5-|-10--10--10-10-10-|
D|-5--5--5-5-5-|-10--10--10-10-10-|

G|-------------|------------------||
D|-7--7--7-7-7-|-10--10--10-10-10-||
A|-7--7--7-7-7-|-10--10--10-10-10-||
D|-7--7--7-7-7-|-10--10--10-10-10-||

Pre-chorus (so do it right)
G|-7--5-5-5-7-|-5--5-5-5-5-7-7-|-7--5-5-5-7-|-5--5-5-5-5-7-7-||
D|-7--5-5-5-7-|-5--5-5-5-5-7-7-|-7--5-5-5-7-|-5--5-5-5-5-7-7-||
A|-5--5-5-5-5-|-5--5-5-5-5-5-5-|-5--5-5-5-5-|-5--5-5-5-5-5-5-||
D|------------|----------------|------------|----------------||


Chorus: (Come stand me up)      Play 3 times
G||------------------------------||
D||o-12\---7--7--5-----10-10-10-o||
A||o-12\---7--7--5-----10-10-10-o||
D||--12\---7--7--5-----10-10-10--||

Last verse:
G|-------------|-------------|-----------------|---------------|
D|-5--5--5-5-5-|-8--8--8-8-8-|------9h10p9---9-|---9h10p9---9--|
A|-5--5--5-5-5-|-8--8--8-8-8-|----8--------8---|-8--------8----|
D|-5--5--5-5-5-|-8--8--8-8-8-|-0---------------|---------------|

G|-------------|-------------|-----------------|---------------|
D|-5--5--5-5-5-|-8--8--8-8-8-|------9h10p9---9-|---9h10p9---9--|
A|-5--5--5-5-5-|-8--8--8-8-8-|----8--------8---|-8--------8----|
D|-5--5--5-5-5-|-8--8--8-8-8-|-0---------------|---------------|


G||--------------|-------------|
D||o-5--5--5-5-5-|-8--8--8-8-8-|
A||o-5--5--5-5-5-|-8--8--8-8-8-|
D||--5--5--5-5-5-|-8--8--8-8-8-|


                                          Play 3 times
E||------------------|-------------------------||
B||------------------|---------------10-10-10--||
G||o-----------------|---------------10-10-10-o||
D||o------9h10p9---9-|---9h10p9---9--9--9--9--o||
A||-----8--------8---|-8--------8----8--8--8---||
D||------------------|-------------------------||


B||--10-10-10---10-10-10--|-------------||
G||--10-10-10---10-10-10--|-------------||
D||--9--9--9----9--9--9---|--12\--------||
A||--8--8--8----8--8--8---|--12\--------||
D||-----------------------|--12\--------||

Tabbed by: S/ash

Tuning: E-E
        B-B
        G-G
        D-C
        A-F
        E-C
Intro:


E||------------------------------------------|--------------|
B||------------------------------------------|--------------|
G||------------------------------------------|--------------|
C||------------------------------------------|--------------|
F||---3---3--3------3--3--3-----2--2--2--2---|--2--2--2--2--|
C||---3---3--3--2---1--1--1--0--2--2--2--2---|--2--2--2--2--|

Verse:
lets call this riff a.

E||-----------------------------------------------------------------|
B||-----------------------------------------------------------------|
G||-----------------------------------------------------------------|
C||-----------------------------------------------------------------|
F||--3---3--3------3--3---3-----2--2---2--2--5--5--5--4~~~3---3--3--|
C||--3---3--3--2---1--1---1--0--2--2---2--2--3--3--3------3---3--3--|

E||----------------------------------|
B||----------------------------------|
G||----------------------------------|
C||----------------------------------|
F||------3---3---3------2---2--2--2--|
C||--2---1---1---1---0--2---2--2--2--|

Chorus riff:
lets call this riff b

E||-------------------------------------------------------------|
B||-------------------------------------------------------------|
G||-------------------------------------------------------------|
C||-------------------------------------------------------------|
F||--5---5---5---4-----1---1-----1--------------------7P5--5----|
C||--3---3---3---------1---1-----1-----2-----0----0-------------|

E||--------------------------------------------------------------------|
B||--------------------------------------------------------------------|
G||--------------------------------------------------------------------|
C||--------------------------------------------------------------------|
F||--7P5--7\5---5---5---5---4---1---1-----1--------------------7P5--5--|
C||-------------3---3---3-------1---1-----1-----2-----0----0-----------|

and this will be riff c:


E||-----------------------------------|
B||-----------------------------------|
G||-----------------------------------|
C||-----------------------------------|
F||--2--------2--------2--------5b----|
C||--2--------2--------2--------------|

and riff d:
E||--------------------------------------------------------|
B||--------------------------------------------------------|
G||----------------------|---------------------------------|
C||--2------2--2P0-------|---------------------------------|
F||--2------2--2P0--5----|-----------------------------5B--|
C||-----------------5----|----5--4----3B--3B--3B-----------|

E||----------------------------------------------------------|
B||----------------------------------------------------------|
G||----------------------|-----------------------------------|
C||---2------2--2P0------|-----------------------------------|
F||---2------2--2P0--5---|-----------------7B-----7B-----5B--|
C||------------------5---|-----5--4---3B---------------------|

And then it goes back to the verse and chorus some more

here is that little thing before the guitar solo:

E||----------------------|
B||----------------------|
G||----------------------|
C||----------------------|
F||---------7B--7--------|
C||--3-------------------|

The high part of the guitar solo:

E||-------------------------------23---23---23---23--20-------|
B||--22B-----20---23B-----------------------------------------|
G||--------------------------22-------------------------------|
C||-----------------------------------------------------------|
F||-----------------------------------------------------------|
C||-----------------------------------------------------------|

E||---------------------------------------------------------------------------|
B||--22B-----20---23B--------23P20----22B-------20^22P20--20-----20--22B--20--|
G||-----------------------------------------------------------22--------------|
C||---------------------------------------------------------------------------|
F||---------------------------------------------------------------------------|
C||---------------------------------------------------------------------------|

E||----------------------------------------------------------------------|
B||--22B-----20---23B---------------20--20---20----20---18---20---18\15--|
G||----------------------------------------------------------------------|
C||----------------------------------------------------------------------|
F||----------------------------------------------------------------------|
C||----------------------------------------------------------------------|

E||----------------------------------------------------------------------|
B||------------------------------23--------------------------------------|
G||--14B-----12------15B-------------22B----20^22P20-------22--20^22P20--|
C||----------------------------------------------------------------------|
F||----------------------------------------------------------------------|
C||----------------------------------------------------------------------|


E||-----------------------------|
B||----------------11-----------|
G||--19----19\------------------|
C||-----------------------------|
F||-----------------------------|
C||-----------------------------|


outro type thing:
E||-------------------------------20------18------------------|
B||--22---------20---23------------------------20-------------|
G||-----------------------------------------------------------|
C||-----------------------------------------------------------|
F||-----------------------------------------------------------|
C||-----------------------------------------------------------|

Done!

Song: Half
Band: Soundgarden
Music/Lyrics: Ben Shepherd
Album: Superunknown
Tuning: CGCGGE

Here is a really trippy song. It may be tuned to open C# instead of C...I
can't remember. This song is easy. Have fun with it.

Intro: Play twice
E|----------------------------|--------------------------------|
G|----10p9----9h10--9---0-----|-(0)-0--10p9----9h10--9---9-----|
G|----10p9----9h10--9---0-----|-(0)-0--10p9----9h10--9---9-----|
C|-0--------------------------|--------------------------------|
G|----------------------------|--------------------------------|
C|----------------------------|--------------------------------|


  Verses: Play twice
E|----------------------------|--------------------------------|
G|----10p9----9h10--9---0-----|-(0)-0--10p9----9h10---9--------|
G|----10p9----9h10--9---0-----|-(0)-0--10p9----9h10---9--------|
C|-0--------------------------|-----------------------------0--|
G|----------------------------|-----------------------------0--|
C|----------------------------|-----------------------------0--|

E|--------------------------------------------------|
G|----10------5-----5--5--5-----5--5--5-----5--5----|
G|----10------5-----5--5--5-----5--5--5-----5--5----|
C|----10---0--5-----5--5--5-----5--5--5-----5--5p0--|
G|----10---0--5-----5--5--5-----5--5--5-----5--5p0--|
C|----10---0--5-----5--5--5-----5--5--5-----5--5p0--|


  Chorus: Play twice
E|------------------------------------------|
G|-----8p7---8p7----/10--8p7---8----7--5----|
G|-----8p7---8p7----/10--8p7---8----7--5----|
C|---0-----0-----0--------------------------|
G|---0--------------------------------------|
C|---0--------------------------------------|

E|-----------------------------------------|
G|-(5)-8p7---8p7---/10----8p7--5-----------|
G|-(5)-8p7---8p7---/10----8p7--5-----0-----|
C|---------0-----0-------------------0-----|
G|-----------------------------------0-----|
C|-----------------------------------0-----|


E|--------------------------------------------------|
G|---10-------5-----5--5--5-----5--5--5-----5--5----|
G|---10-------5-----5--5--5-----5--5--5-----5--5----|
C|---10---0---5-----5--5--5-----5--5--5-----5--5p0--|
G|---10---0---5-----5--5--5-----5--5--5-----5--5p0--|
C|---10---0---5-----5--5--5-----5--5--5-----5--5p0--|


   Outro: Play 6 times
E||------------------------|-----------------------||----------|
G||------------------------|-----------------------||----------|
G||o-----7-----------------|---------5------------o||----------|
C||o---------4---5---4-----|-----2-------3---2----o||----------|
G||--5------------------5--|-3------------------3--||----------|
C||------------------------|-----------------------||--0--0----|


Song: Like Suicide
Band: Soundgarden
Album: Superunknown
Music/Lyrics: Cornell
Tuning: DGDGBC

This is an addition to the previous tab by:
domenico suppappola 

Intro Riff:

C---------0-------0-|-------0--------0-|
B-------0-------0---|----0--------0----|
G-----2------2------|-2--------2-------|
D--0----------------|------------------|


(Verse Riff)

G--7\6/9-|-7--|--6b(8)r6--|--\2--|--/4b(6)r4-|
D--------|----|-----------|------|-----------|
G--7\6/9-|-7--|--6b(8)r6--|--\2--|--/4b(6)r4-|
D--------|----|-----------|------|-----------|

C------0-----|------------|
B-----0---0--|------------|
G----0-----0-|------------|
D--5---------|-3-/5--5----|
G------------|------------|
D--5---------|-3-/5--5----|


  Prechorus

G--11/12-/14-12-11--|-/17--16/17--14-12--|
D-------------------|--------------------|(Three times)
G--11/12-/14-12-11--|-/17--16/17--14-12--|
D-------------------|--------------------|


G--/17--16--14\12-11--|-9--/11-11----|
D---------------------|--------------|
G--/17--16--14\12-11--|-9--/11-11----|
D---------------------|--------------|


Chorus

C------------0--------|----------0-------|------------------|---------------|
B----------0---0------|--------0---0-----|------------------|---------------|
G--------0-------0----|------0-------0---|-------0----------|---------------|
D-----12--------------|---12-------------|----12----------0-|---------------|
G--10--------------10-|-9--------------9-|-10---------------|-9----11-11----|
D---------------------|------------------|---------9---10---|-10---12-12----|
                   She lived like a murder how she'd fly..so sweet----ly

After you play that twice, strum the four highest strings lightly and let ring.


Riff after second chorus:

G--7--6--/9-|-7--------|-6br6----\-|-2-----|-4br4----------|---------------|
D--7--6--/9-|-7--------|-6br6----\-|-------|-----------5---|-7-7----x--5---|
G--7--6--/9-|-7--------|-6br6----\-|-2-----|-4br4------5---|-7-7----x--5---|
D--7--6--/9-|-7----(0)-|-6br6----\-|-0-----|-3-------3-3---|-5-5----x--3---|

G----------------|------|
D--7-7----x--5---|-7-7--|
G--7-7----x--5---|-7-7--|
D--5-5----x--5---|-7-7--|


Pre-Solo Riff

G--11-/12-14--17--|-16--14-12-/17--|-12-11-12-/14-12-11--|
D-----------------|----------------|---------------------|
G--11-/12-14--17--|-16--14-12-/17--|-12-11-12-/14-12-11--|
D-----------------|----------------|---------------------|

Play this 4 times.


If you want me to waste 10 minutes of my life email me at jjearl@sympatico.ca!
comments
print report bad tab
5 comments total. Showing first comments.
+1 reply
Maitinin wrote on January 18 2007, 08:10 am

well, i'd've been nice if you'd ask me before using my tabs for Spoonman and Limo Wreck, but anyways... 2/3 of the tabs are quite lacking of almost anything like time signatures, and a lot of riffs and solos, so sorry buddy, what's the point in collecting a lots of bad tabs in one even bigger pile of shit?

0 reply
slashfan414 wrote on November 10 2008, 06:18 pm

i agree

0 reply
s0undch4ser wrote on April 27 2009, 05:06 am

dude 1st thing the tuning for superunknown 6=d,5=g,4=d,3=g,2=b,1=e. a is tuned to g for kims thayil comfort. didn't need the a note,make it a g note.it should be pointed out to fans and musicians a like.the first bar of the intro starts 3rd string g 3,5,3,0 hpp bar. i thought i saw tab written were it shouldn't be. if i'm wrong sorry my bad. i admire your effort. i think you should have done one song at a time checked ,checked,checked and keep checking until it good enough for the band.

I want to post or [tab]
guest
You may want to rate the tab now too:
select rating
Please do not post tabs as comments. Select "correction" instead!