Oops, an error
Loading. Please wait.

Love Of My Life Tab

ver2
ver2

Whole song

More versions @911Tabs.com
11,921 views 27 this week
1 commentread comment
1 2 3 4 5
excellent!
x 2
Autoscroll
+/-
esc
set tempo
stop
Hey! There's an official Ultimate Guitar app which is ideal
for learning songs when you're away from computer. Get the app
WARNING: You are trying to view
                                    content from Ultimate-Guitar.com
                                    in an unauthorized application,
                                    which is prohibited.

                                    Please use an official Ultimate
                                    Guitar Tabs application for iPhone,
                                    iPad or Android to access legitimate
                                    chords, guitar, bass, and drum tabs
                                    from Ultimate-Guitar.com database.

                                    Type "ultimate guitar tabs" in Apple
                                    App Store's or Android Market's
                                    search to find the application.
love of my life
south border
tabbed by: mark lavalle
mark_des22@yahoo.com
           H                                 NH                  H
E-----------------|-6---5---3---1-3-|-0-----<12>-|-------------------------|
B-5---6---5^6-6---|-----------1-----|-5-----<12>-|-10----11----10^11-11----|
G---5---5-------5-|---5---5---------|-0-----<12>-|----10----10----------10-|
D-8---7---8---7---|-5---3---2---0---|-5----------|-13----12----13----12----|
A-----------------|-----------------|-3----------|-------------------------|
E-----------------|-----------------|------------|-------------------------|
        tr                      H
E-10----8^10----13-------|-------------------|-3---5---7---10----|
B------------11----10----|---6-6^8-6---6-8-6-|-3---6---8---6-----|
G----10---------------10-|-7---------5-------|-0---5---0---0-----|
D-8-----7----------------|-8-----------------|-0---0---0---(0)---|
A------------10----8-----|-8---------0-------|-2-----------------|
E------------------------|-6-----------------|-3-----------------|

E-------0-------0-|-----------------|-------1-----1---|-3-3-3-3-3-3-3-3-|
B-1---1---1-------|-------1-0---0---|-----3---3-----3-|-3---3---3---3---|
G---0-------0-----|-----2-----2---2-|---2-------2-----|-----------------|
D-------------2---|---2-------------|-0---------------|-------------0---|
A-3-------------3-|-0---------------|-----------------|-----0---2-------|
E-----------------|-----------------|-----------------|-3---------------|

E-0---------0-----|---------1-------|-----1-1-----0---|-----------------|
B---1---------1---|-----------------|-----3-3-----1---|-3---------------|
G-----0-3-------3-|-------2---------|---2-------------|---3---3-------2-|
D-------2---------|-----3-----------|-0---------2-----|-----3-------3---|
A-3-----3---------|---3-------------|---------0-----0-|-1---------3-----|
E-----------------|-1---------------|-----------------|---------1-------|

                                                                 H
E---------1---3---3---|-----0-----------|-10--8---6-8-----|-------------------|
B-3---1-----3-3-----3-|-1-----1-------10|-------------10--|---6-6^8-6---6-8-6-|
G---3---2-----0-------|---0---------10--|---10--10------10|-7---------5-------|
D---------0---0-------|-----------10----|-8---7---5-------|-8-----------------|
A-1---0---------------|-3-------8-------|-------------8---|-8---------0-------|
E---------------------|-----------------|-----------------|-6-----------------|

                                              tr         P
E-3---5---7---10--|-------0---------|-----------------|-1^0-1-------1---|
B-3---6---8---6---|-1---1---1-----3-|-1-----1-0^1---0-|-------3-------3-|
G-0---5---0---0---|---0-------0-----|---2--------2----|---------2-------|
D-0---0---0---(0)-|-------------2---|-----2-------2---|-0---------0-----|
A-2---------------|-3-------------2-|-0---------------|-----------------|
E-3---------------|-----------------|-----------------|-----------------|

E-3-3-3-3-3-3-3-3-|-0---------0-----|---------1-----1-|---1-1-1---0-0-0-|
B-3---3---3---3---|---3-1-1-----1---|-------1---1-----|---3-3-3---1-1-1-|
G-----------------|-------3-------3-|-----2-------2---|---2-2-2---------|
D-------------0---|-------2---------|-----3-----------|-0---------2-2-2-|
A-----0---2-------|-3-----3---------|---3-------------|---------0-------|
E-3---------------|-----------------|-1---------------|-----------------|

E---------1-----1-|---------1---3---3---|-0-0-----------1-1---1---|
B-3-----3-1-1---1-|-3---1-----3-3---3-3-|-1---1---------1-1---1---|
G---3---------2---|---3---2-----0-------|-0-----0-----------------|
D-----3-----------|---------0---0-------|-2-----------3-----------|
A-1---------------|-1---0---------------|-3---------3-------------|
E---------1-------|---------------------|---------1---------------|

E-----1-------1---|-------0---------|-----------------|-1-----1---1-----|
B-------3-------3-|-----1-----1-----|-------3-----3---|-1-----1---1---1-|
G---2-------2-----|-----------------|-----3---------3-|-2-----2---2---1-|
D-0---------------|---2---------2---|---3-------3-----|-3---------------|
A-----------------|-0-------------0-|-1---------------|-3-------0---4---|
E-----------------|-----------------|-----------------|-1---3-----------|

            H P
E-------1--0^1^0--|-------5-------|-----------------|---------3-----3-|
B-----3---3-----3-|-------5-------|-1-----1-------1-|-------3---3-----|
G---2------------2|-----5-----5---|-2---2-----2-----|-----3-------3---|
D-0---------------|---7---------7-|---0---------0---|---5-------------|
A-----------------|-0-------------|-----------------|-----------------|
E-----------------|---------------|-2---------------|-3---------------|

                                       H                              H
E-8---8---8---8---|-----------------|-----------------|------------0-0^2-|
B-8---8---8---8---|-8-----8-7---8---|-7^8-8---7---7---|-7---7-----3------|
G-9---9---9---9---|---7-------7---7-|-------7---7---7-|---7---7--2-------|
D-10--10--10--10--|-9---9---10--9---|-10--9---10------|---------0--------|
A-10--X---X---10--|-----------------|-----------------|------------------|
E-8---10--12--8---|-----------------|-----------------|------------------|

E-----8---7-------|-----8-10-7------|---7-7---8-8---10-10--8-7-|
B-------7---8-----|---7--------8----|---8-8---8-8---7--7---7-8-|
G-0-------0-------|-0--------0------|-0-----0-----0------0-----|
D-----------------|-----------------|--------------------------|
A-----------------|-----------------|--------------------------|
E-----------------|-----------------|--------------------------|

                   H P        H
E-7-----7-----|-8-7^8^7----------|-------------|---------X---|
B---7-----7---|---------10-8-7^8-|-8-------8---|-7-------X---|
G-6---6-----6-|------------------|---7---7-----|---9-----X---|
D-------------|------------------|-----9-------|-----9---X---|
A-------------|------------------|-7-----------|-7-------X---|
E-------------|------------------|-------------|---------X---|

E---------5---|-----------5-|-------------|-------0-----|-------------|
B-7-----8-----|-5-----5-7---|-5-----5-7-8-|-8-------8---|-7-----------|
G---7---------|---5---------|---6---------|---7-------7-|---5---------|
D-----7-------|-----5-------|-----7-------|-----7-------|-----7-------|
A-5-----------|-3-----------|-------------|-5-----------|-5-----------|
E-------------|-------------|-------------|-------------|-------------|
         S
E-----------3-3-|-------------|-------0-----|-------3-----|-------------|
B-7-7-7-7/8-3-3-|-0---1---3---|-5-------5---|-3-------3---|-1-----3-1---|
G-----------0-0-|-------------|---5---------|---0---------|---2---------|
D---------------|-------------|-----5-------|-----0-------|-----2-------|
A---------------|-----0---2---|-3-----------|-2-----------|-0-----------|
E-----------3-3-|-3-----------|-------------|-------------|-------------|

E-------------|-------0-----|-------3-----|-------0-----|-------0-----|
B-0---1---3---|-5-------5---|-3-------3---|-3-------3---|-3-------3---|
G-------------|---5---------|---0---------|---0-------0-|---0-------0-|
D-------------|-----5-------|-----0-------|-----2-------|-----2-------|
A-----0---2---|-3-----------|-2-----------|-0-----------|-0-----------|
E-3-----------|-------------|-------------|-------------|-------------|

   H P P   H P P   H P P
E--------------------------------|----------------------|
B-2^3^2^0-2^3^2^0-2^3^2^0--2-3-5-|-End solo-------------|
G--------------------------------|----------------------|
D--------------------------------|----------------------|
A--------------------------------|----------------------|
E--------------------------------|----------------------|

E-------2-----|-------2-----|-------5-----|-------------|-------3-----|
B---------2---|---------3---|---------5---|-------7-----|-5-------5---|
G-------------|-----4-------|-------------|-----7---7---|---5-------5-|
D-----4-------|---4---------|-----7-------|---7-------7-|-----5-------|
A---4---------|-2-----------|---7---------|-5-----------|-3-----------|
E-2-----------|-------------|-5-----------|-------------|-------------|

E-3---3---3---3---|-1-----1---------|---------1-----1-|---------1---3---3---|
B-3-----3---2---2-|---3-----------1-|-------3---1-----|-3---1-----3-3-----3-|
G-4---------------|-----2-------2---|-----3-------2---|---3---2-----0-------|
D-5---------------|-0---------2-----|---3-------------|---------0---0-------|
A-5-------0-------|---------0-------|-1---------------|-1---0---------------|
E-3---------------|-----------------|---------1-------|---------------------|

                   S                                     S
E-----0-----------|-----0---|-------1-----1---|---------3/5-3-1-0-----|
B-1-----1---------|/8-6---2-|-3---3-----3-----|-------1-----------3-1-|
G---0-----------2-|-----0---|---2-----2-----2-|-----2-----------------|
D-------------3---|/8-7---2-|-0---------------|---2-------------------|
A-3---------3-----|---------|-----------------|-0---------------------|
E---------1-------|---------|-----------------|-----------------------|

E-----3-------1---|---------1---2---|---3---3---3--3--3--------------|
B-3-----3-2-----2-|-1---------1---3-|---3---3---3--3--3--------------|
G-3-------3-------|-2---------------|---0---0---0--0--0--------------|
D-5-------3-------|-3-----------0---|--------------------------------|
A-5-------1-------|-0---------------|-------2------3-----------------|
E-3---------------|-----------------|-3------------------------------|
comments
We did not receive enough feedback on this tab! Please rate:
print report bad tab
1 2 3 4 5
1 comment total.
0 reply
karmatilya wrote on January 30 2011, 03:04 am

ayos 'to! sna nilagyan mo din ng mga chords para mas ok. good job though... thanks

I want to post or [tab]
guest
You may want to rate the tab now too:
select rating
Please do not post tabs as comments. Select "correction" instead!