Oops, an error
Loading. Please wait.

Porcelain Tab

1,093 views 1 this week
no commentswrite comment
1 2 3 4 5
accurate
x 2
Autoscroll
+/-
esc
set tempo
stop
Contributor
Hey! There's an official Ultimate Guitar app which is ideal
for learning songs when you're away from computer. Get the app
WARNING: You are trying to view
                                    content from Ultimate-Guitar.com
                                    in an unauthorized application,
                                    which is prohibited.

                                    Please use an official Ultimate
                                    Guitar Tabs application for iPhone,
                                    iPad or Android to access legitimate
                                    chords, guitar, bass, and drum tabs
                                    from Ultimate-Guitar.com database.

                                    Type "ultimate guitar tabs" in Apple
                                    App Store's or Android Market's
                                    search to find the application.
s the tab of the album porcelain by sparta(2004). each song will be tabbed out and each guitar part.
Jim is guitar 1 which is the left speaker. Paul is guitar 2 which is the right. Enjoy.


                       -Porcelain -by- Sparta-

-------------------------------------------------------------------------------
1. Guns of Memorial Park
-------------------------------------------------------------------------------
Guitar 1 - Jim -
Dropped D tuning

Intro

e-----------------------------------------|
b-----------------------------------------|
g-----------------------------------------|
d-----------------------------------------|
a---3---3---3---3---2---2---2---2---2-----|
D-5---5---5---5---5---5---5---5---5---5---|

Verses

e-------------------|
b-------------------|
g---5---5---4---4---|
d-------------------|
a-5---5---5---5-----|
D-------------------|

this part "and when the moon lifts off"

e---------------------|
b---------------------|
g---------------------|
d-3-3-3-3-3-5-5-5-5---|
a-3-3-3-3-3-5-5-5-5---|
D-3-3-3-3-3-5-5-5-5---|
PM...................

2nd part of verse

e--------------------------|
b-6~-------------6~--------|
g-x~--7---5--4---x~---7----|
d-7~--x---x--x---7~---x----|
a-5~--5---3--2---5~---5----|
D--------------------------|

Pre Chorus

e---------------------|
b---------------------|
g-14---xx-14----14----|
d-x----xx-x-----x-----|
a-12---xx-12----12----|
D---------------------|

Chorus

e-----------------------------|
b-----------------------------|
g-777777-77777-55555-44444----| (x1)
d-777777-77777-55555-44444----|
a-555555-55555-33333-22222----|
D--------55555-33333-22222----|

e---------------------|
b---------------------|
g-777777-12---17-16---|
d-777777-x----x--x----| (x1)
a-555555-10---15-14---|
D---------------------|

End with


e---------------------|
b---------------------|
g-14---xx-14----14----|
d-x----xx-x-----x-----|
a-12---xx-12----12----|
D---------------------|

Guitar 2 - Paul -
Dropped D tuning

Intro

e---10---10--10-|
b-8----8----8---|
g---------------|
d---------------|
a---------------|
D---------------|

Verses

e--------------|
b-------6------|
g-------x------|
d-0~----7------|
a-0~----5------|
D-0~-----------|

this part "and when the moon lifts off"

e-171717--------151515-----------------------|
b--------181818--------171717-17-18-17-15----|
g--------------------------------------------|
d--------------------------------------------|
a--------------------------------------------|
D--------------------------------------------|

2nd part of verse..flemming boys tab seemed pretty correct
so the credit for this part goes to him

e-10---5-----8---------10---5-----8---12--15-13------|
b-x----x-----x---8-6---x----x-----x---x---x--x--15---|
g-7----7---7-7---7-7-7-7----7---7-7---9---12-12-12---|
d----------0---------0----------0--------------------|
a----------------------------------------------------|
D----------------------------------------------------|

pre chorus

e-----
b-----
g-7---  strum fast
d-x---
a-5---
D-0---

Chorus - listen for exact strumming

e----------------------------|
b----------------------------|
g-14-12-14-12-10-9--10-------|
d-x--x--x--x--x--x--x--------|
a-12-10-12-10-8--7--8--------|
D----------------------------|
play this last time

e---8--8--8-8/1010101010---|
b-6--6--6------------------|
g--------------------------|
d--------------------------|
a--------------------------|
D--------------------------|

the rest repeats

----------------------------------------------------------------------------
2. Hiss the Villain
----------------------------------------------------------------------------

Guitar 1 - Jim -
Standard Tuning

Verses

e--------------------|
b-9------------------|
g-9------------------|
d-x--------2--4--2---|
a-7--------2--4--2---|
E----------0--2--0---|

Chorus

e--------------------------|
b--------------------------|
g-12--7--------------5-----|
d-12--7-x5-x5-x5-x5--5-----|
a-10--5-x5-x5-x5-x5--3-----|
E-------x3-x3-x3-x3--------|

Interlude

e-------------------|
b-------------------|
g---5---5-----------|
d-2-5-2-5-5----7----|
a-2-3-2-3-5----7----|
E-0---0---3----5----|

Bridge

e---------------------------------|
b---------------------------------|
g-12~--12-11~--11-12~--12-14~-16~-|
d-x-~--x--x-~--x--x-~--x--x-~-x-~-|
a-10~--10-9-~--9--10~--10-12~-14~-|
E---------------------------------|

Guitar 2 - Paul -
Standard Tuning

Verses

e-------------------------------------------------------------------|
b-9---------------9-------------------------------------------------|
g-x-9999999999999-x-999999999999-9999999999999-1111-9999999999999---|
d-7-7777777777777-7-777777777777-xxxxxxxxxxxxx-x-x--xxxxxxxxxxxxx---|
a--------------------------------7777777777777-9-9--7777777777777---|
E-------------------------------------------------------------------|

Chorus
e---------------------------12121212----------------------------------|
b-1010101010101010-10101010-10101010----------------------------------|
g-9-9-9-9-9-9-9-9--------------------------------121212121212121212---|
d------------------------------------x5-x5-x5-x5-x-x-x-x-x-x-x-x-x----|
a------------------------------------x5-x5-x5-x5-101010101010101010---|
E------------------------------------x3-x3-x3-x3----------------------|

Interlude
e----------------------------------|
b----------------------------------|
g-12121212121212-------------------|
d-x-x-x-x-x-x-x--5555555-7777777---|
a-10101010101010-5555555-7777777---|
E----------------3333333-5555555---|

Bridge

e---------------------------------|
b---------------------------------|
g-12~--12-11~--11-12~--12-14~-16~-|
d-x-~--x--x-~--x--x-~--x--x-~-x-~-|
a-10~--10-9-~--9--10~--10-12~-14~-|
E---------------------------------|

Outro

e-191919-171717-151515-171717-141414-151515-121212-141414-111111-121212----|
b--------------------------------------------------------------------------|
g--------------------------------------------------------------------------|
d--------------------------------------------------------------------------|
a--------------------------------------------------------------------------|
E--------------------------------------------------------------------------|

e-111111-121212-1111-1212-191919-171717-151515-171717-14^1514^15bd14-12~~--|
b--------------------------------------------------------------------------|
g--------------------------------------------------------------------------|
d--------------------------------------------------------------------------|
a--------------------------------------------------------------------------|
E--------------------------------------------------------------------------|

----------------------------------------------------------------------------
3.While Oceana Sleeps
----------------------------------------------------------------------------

Guitar 1 - Jim -
Dropped D Tuning

Verses

e-----12----|
b---10------|
g-11--------|  -play once in the beginning of each measure
d-----------|
a-----------|
D-----------|

Chorus - strum accordingly

e-------------------|
b-------------------|
g-11--13---11---9---|
d-x---x----x----x---|
a-9---11---9----7---|
D-------------------|

Bridge

e----------------------------------------------|
b----------------------------------------------|
g-11--13--9--11--13--14--11--13----------------|
d-X---X---X--X---X---X---X---X---0-4-9-8-7-5---|
a-9---11--7--9---11--12--9---11--0-4-9-8-7-5---|
D--------------------------------0-4-9-8-7-5---|

End on

e-----
b-----
g-----
d-0---
a-0---
D-0---

Guitar 2 - Paul -
Dropped D

Verses

e-------7--5----|
b-7--5--X--X----|
g-X--X--9--7----|
d-9--7----------|   -play when jim starts to sing
a---------------|
D---------------|

Chorus - strum accordingly

e--------------------|
b-10-------17--------|
g-11-13-14-16--------|
d--x-x--x--x---------|
a--9-11-12-14--------|
D--------------------|

2nd verse

e---------|
b---------|
g---------|
d-14-11---|    -keep repeting and use Wah effect and vibrato
a---------|
d---------|

Bridge

e------------------------------------------|
b------------------------------------------|
g-11------------11-------------------------|
d-x--------------x-----------0-4-9-8-7-5---|
a-9-----9-7-6----9--6-7-9----0-4-9-8-7-5---|
D----------------------------0-4-9-8-7-5---|

End on

e-----
b-----
g-----
d-0---
a-0---
D-0---

----------------------------------------------------------------------------
4.La Cerca
----------------------------------------------------------------------------

Guitar 1 - Jim -
Standard Tuning

Intro

e--------------------------------------|
b--99999999----------------------------|
g--99999999--11-11-11-11-11-11-11-11---|
d--77777777---9--9--9--9--9--9--9--9---|
a--99999999---7--7--7--7--7--7--7--7---|
E--------------------------------------|

Verses

e-------------------12--------------------------|
b--xx-10--xx-10---------------------------------|
g--xx-9---xx-9---10----10---11--9--7--6--4------|
d--xx-7---xx-7--------------X---X--X--X--X------|  (x3)
a---------------------------9---7--5--4--2------|
e-----------------------------------------------|

Chorus

e------------------|
b------------------|
g------------------|
d-9--7--5--4-------|   (x2)
a-9--7--5--4-------|
E-7--5--3--2-------|

Bridge

e-----------------|
b-----------------|
g--4--0--------4--|
d--x--2--4--5--x--|
a--2--2--4--5--2--|
E-----0--2--3-----|

New chorus at end of song

e---------------------|
b---------------------|
g-4-4-4-4-------------|
d-x-x-x-x-9-7-5-4-----|
a-2-2-2-2-9-7-5-4-----|
E---------7-5-3-2-----|

Outro

e---------|
b---------|
g---------|
d-9-7-5---|  (x3)
a-9-7-5---|
E-7-5-3---|

End on

e--------|
b--------|
g--------|
d-44444--|
a-44444--|
E-22222--|

Guitar 2 - Paul
Standard Tuning

Intro

e--------------------------------------|
b--99999999----------------------------|
g--99999999--11-11-11-11-11-11-11-11---|
d--77777777---9--9--9--9--9--9--9--9---|
a--99999999---7--7--7--7--7--7--7--7---|
E--------------------------------------|

Verses

e----------------------------------------------|
b---7----------7-------------------------------|
g--7--7-9-----7--7-9------11--9--7--6--4-------|
d-9-------7--9-------7----X---X--X--X--X-------|  (x3)
a-------------------------9---7--5--4--2-------|
E----------------------------------------------|

Chorus

e-------9----9-------9----9-----7---7--9-9-9-9-9-9-9-9-9---|
b-12-12---12---10-10---10---8-8---8------------------------|
g----------------------------------------------------------|  (x2)
d----------------------------------------------------------|
a----------------------------------------------------------|
E----------------------------------------------------------|

Intro into bridge

e-------------17-15-14---|
b-15-14-10-12------------|
g------------------------|
d------------------------|
a------------------------|
E------------------------|

Bridge

e-----------------|
b-----------------|
g--4--0--------4--|
d--x--2--4--5--x--|
a--2--2--4--5--2--|
E-----0--2--3-----|

Solo

e-------9----9-------9----9-----7---7--9-9-9-9-9-9-9-9-9---|
b-12-12---12---10-10---10---8-8---8------------------------|
g----------------------------------------------------------|
d----------------------------------------------------------|
a----------------------------------------------------------|
E----------------------------------------------------------|

New Chorus at end of song

e-----------------9---9------9---9----7--7-9-9-9-9-9-9---|
b-----------12-12--12--10-10--10--8-8--8-----------------|
g-7-7-9-7------------------------------------------------|
d--------7-----------------------------------------------| (x2)
a--------------------------------------------------------|
E--------------------------------------------------------|

Outro

e-------9----9-------9----9-----7---7---|
b-12-12---12---10-10---10---8-8---8-----|
g---------------------------------------|  (x3)
d---------------------------------------|
a---------------------------------------|
E---------------------------------------|

End

e-9-9-9-9-9-9---|
b---------------|
g---------------|
d---------------|
a---------------|
E---------------|

----------------------------------------------------------------------------
5. Breaking the Broken
----------------------------------------------------------------------------

Guitar 1 - Jim -
Standard Tuning

Intro

e---------------------------------------|
b---------------------------------------|
g-99-9-9-99-9--9-9-9--9-12-12-11-11-----|
d-00-0-0-00-0--0-0-0--0-x--x--x--x------|
a-77-x-x-xx-x--x-x-x--x-10-10-9--9------|
E----7-7/88-8-101010-10-----------------|

Verses

e----------------------|
b-10-10----------------|
g-9--9--9---12-11------|
d-x--0--0---0--0-------|
a-7--x--x---x--x-------|
E----7--10--10-10------|

Chorus

e-33333---------------------------------|
b-33333-88888---------------------------|
g-00000-77777-99999-99999-99999-99999---|
d-xxxxx-xxxxx-00000-00000-00000-00000---|
a-22222-77777-xxxxx-xxxxx-xxxxx-xxxxx---|
E-33333-00000-88888-77777-88888-77777---|

Interlude

e--------------------------------------|
b--------------------------------------|
g----------------12-11-9---11-9-7------|
d-5-----12---9-------------------------|
a--------------------------------------|
E--------------------------------------|

Thats it

Guitar 2 - Paul -

Standard Tuning

Intro

e-1212--------------------------------1212----1515----|
b---------1213121312131213151513131515----1515--------|
g-----1414--------------------------------------------|
d-----------------------------------------------------| -use delay
a-----------------------------------------------------|
E-----------------------------------------------------|

Verses

 Right-Verse
e-12--12------------|
b-12--10--8--10-7---|
g-------------------|
d-------------------|
a-------------------|
E-------------------|

Chorus

e-33333-------------------------------------------------------|
b-33333-------------------------------------------------------|
g-00000-121212111111-999--------------------------------------|
d-xxxxx-x-x-x--x-x-x-xxx-1010101010-99999-1010101010-99999----|
a-22222-101010-9-9-9-777-x-x-x-x-x--xxxxx-x-x-x-x-x--xxxxx----|
E-33333------------------8-8-8-8-8--77777-8-8-8-8-8--77777----|

Interlude

e-------------------------------------|
b--------------------12--15-12----12--|
g------9----11-12-14-----------14-----| pick each note alot
d-9-----------------------------------|
a-------------------------------------|
E-------------------------------------|

then this
e-----12--12----10--10----------------------|
b---10--10----10--10----10-12--10-12--------|
g-11--------11--------11-----11-----11-11---|
d-------------------------------------------|
a-------------------------------------------|
E-------------------------------------------|

Thats it

----------------------------------------------------------------------------
6. Lines In Sand
----------------------------------------------------------------------------

Guitar 1 - Jim -
Dropped D tuning

Verses - strum lightly

e-----------------------|
b-----------------------|
g-7777--9999--4444------|
d-xxxx--xxxx--xxxx------|
a-5555--7777--2222------|
D-----------------------|

Chorus

e------------------------------------------|
b------------------------------------------|
g-----------------------99999999999-7~~~---|
d-5555555-0000000-------xxxxxxxxxxx-x~~~---|
a-5555555-0000000-(x2)--77777777777-5~~~---|
D-5555555-0000000-------------------0~~~---|

Bridge

e-----------------------------|
b-----------------------------|
g-----------------------------|
d-7777777-55555555-00000000---|
a-7777777-55555555-00000000---|
D-7777777-55555555-00000000---|

Thats all

Guitar 2 - Paul -
Dropped D tuning

Verse Riff through song

e--------------------------------------------------------|
b--------------------------------------------------------|
g----------2-------------------2-------------------------|
d----2--4-----4--2-4-----2--4-----4----------------------|
a------------------------------------4/------------------|
D-0-------------------0----------------------------------|

Chorus

e-141414-121212-101010--------------------------------------|
b----------------------101010-121212-101010------777--------|
g--------------------------------------------999-----777----|
d-----------------------------------------------------------|
a-----------------------------------------------------------|
D-----------------------------------------------------------|

last time thru chorus

e-121212-101010~~~------|
b-----------------------|
g-----------------------|
d-----------------------|
a-----------------------|
D-----------------------|

Bridge

e-------------------------|
b-------------------------|
g-141414-121212-1111111---|
d-------------------------|
a-------------------------|
D-------------------------|

Thats all

----------------------------------------------------------------------------
7. End Moraine
----------------------------------------------------------------------------

Guitar 1 - Jim -
Dropped D tuning

Intro

e--------------------|
b--------------------|
g-44444444-2222~~~---|
d-xxxxxxxx-2222~~~---|
a-22222222-0000~~~---|
D--------------------|

Verses

e---------------------------|
b---------------------------|
g-444444-666666-------------|
d-xxxxxx-xxxxxx--5555~~~----|
a-222222-444444--5555~~~----|
D----------------5555~~~----|

Chorus

e--------------------------------|
b--------------------------------|
g--------------------------------|
d-9999-0000-5555-121212121212----|
a-9999-0000-5555-121212121212----|
D-9999-0000-5555-121212121212----|

Guitar Break

e------------12------|
b-5-4-7-8-10----10---|
g--------------------|
d--------------------|
a--------------------|
D--------------------|

Interlude - "what your taught"

e-------------0---|
b-------------3---|
g-6-6-4~--2-4-2---|
d---------0---0---|
a-----------------|
D-----------------|

Middle bit - "its exposed, end moraine"

e-------------------------------|
b-------------------------------|
g-------------------------------|
d-----7-999-----------------0~--|
a-7-5---999-7-5-7-5-7-5-7-5-0~--|
D-------999-----------------0~--|

Outro- listen how to pick it

e-15-14-17-15-14-17-15-14-19-17-15-14-17-19-15-14-17-15-14-19b-----------|
b------------------------------------------------------------------------|
g------------------------------------------------------------------------|
d------------------------------------------------------------------------|
a------------------------------------------------------------------------|
D------------------------------------------------------------------------|

Guitar 2 - Paul -
Dropped D Tuning

Intro

e-9-7-10-------------------|
b---------1010-77-9--------|
g-------------------9~~~---|
d--------------------------|
a--------------------------|
D--------------------------|

Verses

e---------------------------|
b---------------------------|
g-444444-666666-------------|
d-xxxxxx-xxxxxx--5555~~~----|
a-222222-444444--5555~~~----|
D----------------5555~~~----|

Chorus

e--------------------------------|
b--------------------------------|
g--------------------------------|
d-9999-0000-5555-121212121212----|
a-9999-0000-5555-121212121212----|
D-9999-0000-5555-121212121212----|

Guitar Break

e------------12------|
b-5-4-7-8-10----10---|
g--------------------|
d--------------------|
a--------------------|
D--------------------|


Interlude - "what your taught"

e-------------0---|
b-------------3---|
g-6-6-4~--2-4-2---|
d---------0---0---|
a-----------------|
D-----------------|


Middle bit - "its exposed, end moraine"

e-------------------------------|
b-------------------------------|
g-------------------------------|
d-----7-999-----------------0~--|
a-7-5---999-7-5-7-5-7-5-7-5-0~--|
D-------999-----------------0~--|

Outro- listen how to pick it

e-15-14-17-15-14-17-15-14-19-17-15-14-17-19-15-14-17-15-14-19b-----------|
b------------------------------------------------------------------------|
g------------------------------------------------------------------------|
d------------------------------------------------------------------------|
a------------------------------------------------------------------------|
D------------------------------------------------------------------------|

----------------------------------------------------------------------------
8. Travel By Bloodline
----------------------------------------------------------------------------

Guitar 1 - Jim -
Dropped D tuning

Intro/chorus

e------------------------------------------------------------------|
b------------------------------------------------------------------|
g------------------------------------------------------------------|
d-0-66-7777-xxxx-0-66-7/9/7----xxxx-0-66-7777-xxxx-0-66-7777-6-7---|
a-0-66-7777-xxxx-0-66-------9--xxxx-0-66-7777-xxxx-0-66-7777-6-7---|
D-0-66-7777-xxxx-0-66----------xxxx-0-66-7777-xxxx-0-66-7777-6-7---|

Verses

e--------------------------------------------------------------------|
b--------------------------------------------------------------------|
g-1212121212121212-1111111111111111-121212121212121212121212-11-9----|
d-x-x-x-x-x-x-x-x--x-x-x-x-x-x-x-x--x-x-x-x-x-x-x-x-x-x-x-x--x--x----|
a-1010101010101010-9-9-9-9-9-9-9-9--101010101010101010101010-9--7----|
D--------------------------------------------------------------------|

Interlude

e-----------|
b-----------|
g-----------|
d-7-6-4-7---|
a-----------|
D-----------|

this comes in near the end of the interlude

e--------------------|
b--------------------|
g-44444-2222-7777----|
d-xxxxx-xxxx-xxxx----|
a-22222-0000-5555----|
D--------------------|

Guitar Break

e-----------------|
b-----------------|
g-----------------|
d-555555-xxxxx----|
a-555555-xxxxx----|
D-555555-xxxxx----|

thats it

Guitar 2 - Paul -
Dropped D

Intro/Chorus

e--------------------|
b--------------------|
g------99999---------|
d-0-66-77777-xxxx----|
a-0-66-77777-xxxx----|
D-0-66-77777-xxxx----|

Verses

e--------------------------------------------------------------------|
b--------------------------------------------------------------------|
g-1212121212121212-1111111111111111-121212121212121212121212-11-9----|
d-x-x-x-x-x-x-x-x--x-x-x-x-x-x-x-x--x-x-x-x-x-x-x-x-x-x-x-x--x--x----|
a-1010101010101010-9-9-9-9-9-9-9-9--101010101010101010101010-9--7----|
D--------------------------------------------------------------------|

Pre Chorus

e-1414141414141414-12121212-------------------------------------------------|
b---------------------------15151515-14141414----------14141414------1515---|
g---------------------------------------------14141414----------1414--------|
d---------------------------------------------------------------------------|
a---------------------------------------------------------------------------|
D---------------------------------------------------------------------------|

Interlude - delay

e------------------------------------12-12------------------|
b-7-7-7-7---------10-10-10-10-------------------------------|
g---------9-9-9-9-------------6-6/7--------11-11--11--9--6--|
d-----------------------------------------------------------|
a-----------------------------------------------------------|
D-----------------------------------------------------------|

Guitar Break

e-----------------|
b-----------------|
g-----------------|
d-555555-xxxxx----|
a-555555-xxxxx----|
D-555555-xxxxx----|

thats it

----------------------------------------------------------------------------
9. Death in the Family
----------------------------------------------------------------------------

Guitar 1 - Jim -
Standard Tuning

Intro/verse

e-7-----7-----7----------9------------------------------------------|
b-----------------10-----------10---9-----9-----9-----9-----9-------|
g---9-----9----------9-----9----------6-----6-----6-----6-----6-----|
d-----9-----9---9------7-----7----7-----7-----7-----6-----7-----7---|
a-------------------------------------------------------------------|
E-------------------------------------------------------------------|

Chorus

e-----------|
b---7-5-7---|
g-9-x-x-x---|
d-9-7-4-x---|
a-7-5-2-7---|
E-0-----5---|

Post Chorus

e-7--------------|
b-x--10-9--------|
g-9---9-9--------| - strum each chord once
d-9---7-7--------|
a----------------|
E----------------|

Bridge

e-----------------|
b-----------------|
g-9---------------|
d-9-4-2-4-2-4-2---|
a-7-4-2-4-2-4-2---|
E-0-2-0-2-0-2-0---|

Outro

Strum this chord

e---
b---
g-9-
d-9-
a-7-
E-0-

Guitar 2 - Paul -
Standard Tuning

Verses

e------------------------------------------------------|
b------------------------------------------------------|
g-----12-12-12--11-----16-16-16-16-------16-16-16-16---|
d-xxx--x--x--x-x-x-xxx--x--x--x--x--xxx---x--x--x--x---|
a-xxx-10-10-10-x-9-xxx-14-14-14-14--xxx--14-14-14-14---|
E-xxx----------x---xxx--------------xxx----------------|

Chorus

e-----------19------------------------------------------------------------------|
b-17----17-----17-17--20-17-17--19-17-------------------------------------------|
g----16--------------------------------12-11-12-11/12/9-12-11/12/9----------7---|
d----------------------------------------------------------------------9-7--x---|
a----------------------------------------------------------------------x-x--5---|
E----------------------------------------------------------------------7-5------|

Bridge
e----------------------------------------------|
b----------------------------------------------|
g-----7-6------9-9-----9-666-444-666-444-66-44-|
d-7-9------7-9-----7-9---666-444-666-444-66-44-|
a------------------------444-222-444-222-44-22-|
E----------------------------------------------|

next part

e------------------------------------|
b-------------12---------------------|
g-11/12-11/12-----12-11-14-12-11-----|
d------------------------------------|
a------------------------------------|
E------------------------------------|

Thats all

----------------------------------------------------------------------------
10. Syncope
----------------------------------------------------------------------------
Just one guitar plays this
Standard tuning

lots of distortion, delay

e-------------12----12/14----------|
b-------10-------------------------|
g----11----11----11----------------|
d----------------------------------|
a----------------------------------|
E-10-------------------------------|

e------------------------|
b----10----10-----10-----|
g-------11----11---------|
d------------------------|
a-9----------------------|
E------------------------|

e------9---9---9-9/10---|
b-----------------------|
g-----------------------|
d----9---9---9----------|
a-----------------------|
E-7---------------------|

e------9----9----10------|
b---10---10---10---------|
g------------------------|
d------------------------|
a-9----------------------|
E------------------------|

ending chord

e--------|
b--------|
g--------|
d-0~-----|
a-0~-----|
E-10~----|

----------------------------------------------------------------------------
11. Tensioning
----------------------------------------------------------------------------

only one guitar plays this also, im guessing paul becuase there is keys in it

Dropped D

Intro/Chorus - use delay for the echo

e--12-------12----------------------12-------12----------------------|
b-----12-14----12-14----9-10-9-7-------12-14----12-14----9-10-12-7---|
g--------------------------------------------------------------------|
d--------------------------------------------------------------------|
a--------------------------------------------------------------------|
D--------------------------------------------------------------------|

Verses

e-----------------|
b-----------------|
g-11--9---6---2---|
d-x---x---x---x---|
a-9---7---4---0---|
D-----------------|

Pre Chorus

e---------------------------------------|
b---------------------------------------|
g---------------------------------------|
d-444444-777777-0~--------9-------------|
a-444444-777777-0~-11/12-----12-11------|
D-444444-777777-0~-0--0------0--0-------|

Chorus

e--12-------12----------------------12-------12----------------------|
b-----12-14----12-14----9-10-9-7-------12-14----12-14----9-10-12-7---|
g--------------------------------------------------------------------|
d--------------------------------------------------------------------|
a--------------------------------------------------------------------|
D--------------------------------------------------------------------|

last time chorus

e--12-------12----------------------12-------12---------------------------------|
b-----12-14----12-14----9-10-9-7-------12-14----12-14----171717-191919-212121---|
g-------------------------------------------------------------------------------|
d-------------------------------------------------------------------------------|
a-------------------------------------------------------------------------------|
D-------------------------------------------------------------------------------|

Outro riff inbetween chorus's

e------------------------------12-----12--------------(12)-end on this-----|
b--------------------------------------------------------------------------|
g-131313-141414-131313-141414-----14-----14--13-11-------------------------|
d--------------------------------------------------------------------------|
a--------------------------------------------------------------------------|
D--------------------------------------------------------------------------|

thats all

----------------------------------------------------------------------------
12. P.O.M.E.
----------------------------------------------------------------------------
Drums..tony's a bad ass

----------------------------------------------------------------------------
13.  From Now to Never
----------------------------------------------------------------------------

Guitar 1 - Jim -
Dropped D

Verses

e-----------------------------------|
b-----------------------------------|
g-18--16--19--18-141414141414-------|
d-x---x---x---x--x-x-x-x-x-x--------|
a-16--14--17--16-121212121212-------|
D-----------------------------------|

Next thing - this comes in for the first time at 0:40 right after
             verse riff

e-----------------------------------------|
b-----------------------------------------|
g-12-11-----------------------------------|
d-x--x---11-11--11-11--9-9--9-9--9999-----|
a-10-9---9--9---9--9---7-7--7-7--7777-----|
D--------9--9---9--9---7-7--7-7--7777-----|

Next riff - about 0:51 is when it first comes in
            "be ready be ready"

e----------------------------------------------|
b----------------------------------------------|
g-7~~~-----------------------------------------|
d-x~~~----99999-1212121212-999999-1212121212---|
a-5~~~----99999-1212121212-999999-1212121212---|
D-0~~~----99999-1212121212-999999-1212121212---|

Outro for the first part of the song

e---------------|
b---------------|
g-12-11---------|
d-x--x---0~~~---|
a-10-9---0~~~---|
D--------0~~~---|

Intro for next part of song

e---------------------|
b----------2-22-2-2---|
g-2-22-2-2-x-xx-x-x---|
d-0-00-0-0-0-00-0-0---|
a---------------------|
D---------------------|

Next Part 3:00

e-------------------|
b-------------------|
g-22222222----------|
d-22222222-0~~~-----|
a-00000000-0~~~-----|
D----------0~~~-----|

then these little riffs as it gets quiet

e----------------------------------|
b-10-9-7----------12-12~---14-14~--|
g--------9-7-----------------------|
d----------------------------------|
a----------------------------------|
D----------------------------------|

thats all for jim, he then plays piano for the rest of the song

Guitar 2 - Paul -
Dropped D tuning

Intro - he uses some effect, i dont know what tho

e----------------------|
b----------------------|
g-7---7---7----7---7---|
d-x---x---x----x---x---|
a-5---5---5----5---5---|
D-0---0---0----0---0---|

Verses

e---------------------|
b---------------------|
g-99999-6-7777777-----|
d-xxxxx-x-xxxxxxx-----|
a-77777-4-5555555-----|
D---------------------|


Next thing - this comes in for the first time at 0:40 right after
             verse riff

e--------------------------------------------------------------------|
b-------------------------------14-12------------------14-12---------|
g-12-11--------------------------------14-13-13-14-13--------14------|
d-x--x--9-9-9-9-7-7-7-7-7777--------------------------14--------14---|
a-10-9--9-9-9-9-7-7-7-7-7777-----------------------------------------|
D-------9-9-9-9-7-7-7-7-7777-----------------------------------------|

Next riff - about 0:51 is when it first comes in
            "be ready be ready"

e--------------------------------------------------------|
b--------------------------------------------------------|
g-7~~6-4--131313-141414-131313-141414-1616161616161616---|
d-x~~x-x--x-x-x--x-x-x--x-x-x--x-x-x--x-x-x-x-x-x-x-x----|
a-5~~4-2--111111-121212-111111-121212-1414141414141414---|
D-0~~----------------------------------------------------|

Outro for the first part of the song

e---------------|
b---------------|
g-12-11---------|
d-x--x---0~~~---|
a-10-9---0~~~---|
D--------0~~~---|

Intro for next part of song

e---------------------|
b----------2-22-2-2---|
g-2-22-2-2-x-xx-x-x---|
d-0-00-0-0-0-00-0-0---|
a---------------------|
D---------------------|

Next Part 3:00

e---------------------|
b---------------------|
g-99999---7777-9999---|
d-99999-0~xxxx-xxxx---|
a-77777-0~5555-7777---|
D-77777-0~------------|

then these riffs as it gets quiet and the girl starts speaking in french

e----------------------------------|
b-10-9-7----------12-12~---14-14~--|
g--------9-7-----------------------|
d----------------------------------|
a----------------------------------|
D----------------------------------|

guitar parts behind the piano  4:18 - 5:12

e------------------------------------------------------------------------|
b------------------------------------------------------------------------|
g-7/9-999999-77-99999-77--(repeat)--7/9--(he does this slide randomly)---|
d------------------------------------------------------------------------|
a------------------------------------------------------------------------|
D------------------------------------------------------------------------|

last time of that^^^^ (5:12)

e------------------------|
b------------------------|
g-777-999-121212/14~~~---|
d------------------------|
a------------------------|
D------------------------|

5:12 - 5:25

use slide

e----------------------------------------|
b----------------------------------------|
g-14-14-14/////-12-12/14-14-14~~///------|
d----------------------------------------|
a----------------------------------------|
D----------------------------------------|

5:26-5:44

e-------------------------------------------------------------------------------|
b---------------------------------------------20-20-20-19-19-19-17-17-17-15-15--|
g-16-16/18~~///-18-18-18~~///-(x2)---18-16-18-----------------------------------|
d-------------------------------------------------------------------------------|
a-------------------------------------------------------------------------------|
D-------------------------------------------------------------------------------|

5:45

e-------------------------------------|
b-------------------------------------|
g-6~~~--6---6-7-7-7-9-9-9-7-7-7-6~~~--|
d---------7---------------------------|
a-------------------------------------|
D-------------------------------------|

after that riff the rest of the riffs repeat until the end of the song

----------------------------------------------------------------------------
14. Splinters
----------------------------------------------------------------------------

Guitar 1 -  Jim -

Intro

e-----------------------------------------|
b-------------8---------------------------|
g-999999-9----x----5555555-44444----------|
d-999999-9----7----5555555-44444---2~~~---|
a-777777-7----5----3333333-22222---2~~~---|
E-000000-0-------------------------0~~~---|
Pm......

Verse

e-0------------------------------------------|
b-3---------------------333333-33333---------|
g-2---------------------000000-22222-22222---|
d-2--2~~~---------22222-xxxxxx-00000-22222---|
a-0--2~~~---(x2)--22222-222222-------00000---|
E----0~~~---------00000-333333---------------|

Chorus

e---------------------|
b---------------------|
g-----9999999999999---|
d-222-xxxxxxxxxxxxx---|
a-222-7777777777777---|
E-000-----------------|

Post Chorus

e--------------------------|
b--------------------------|
g-1515151515-99999999999---|
d-x-x-x-x-x--xxxxxxxxxxx---|
a-1313131313-77777777777---|
E--------------------------|

Guitar break

e------------------------------------------------|
b------------------------------------------------|
g-9999999-----9999999-----9999999-----9999999----|
d-xxxxxxx-----xxxxxxx-----xxxxxxx-----xxxxxxx----|
a-7777777-----7777777-----7777777-----7777777----|
E-0000000-----0000000-----0000000-----0000000----|

Outro

e----------------------------------------------------------------|
b----------------------------------------------------------------|
g-------9999999999-----------------------------------------------|
d-22222-xxxxxxxxxx (x2)--22222----22222---22222---22222---2222---|
a-22222-7777777777-------22222----22222---22222---22222---2222---|
E-00000------------------00000----00000---00000---00000---0000---|

Guitar 2 - Paul -
Standard Tuning

Intro/verses

e------------10---10--------------7----7-----|
b-----8-7-----------------8-7----------------|
g-7-9-----9----9------7-9------9----9--------|
d--------------------------------------------|
a--------------------------------------------|
E--------------------------------------------|

Intro cont.

e-12-12-12-20-20-20-20-17-17-17-17-15-15-15-12-12-12---|
b------------------------------------------------------|
g------------------------------------------------------|
d------------------------------------------------------|
a------------------------------------------------------|
E------------------------------------------------------|

Chorus

e-------------------------------|
b-------------88888-------------|
g------999999-xxxxx-5555-4444---|
d-8888-999999-77777-5555-4444---|
a-xxxx-777777-55555-3333-2222---|
E-6666--------------------------|

Post Chorus

e-----12------15-14----17-12---15-12--14-12-------15----14----12-------------|
b--12----12---------12------12------12------12-12----12----12----------------|
g----------------------------------------------------------------9999-7777---|
d----------------------------------------------------------------xxxx-xxxx---|
a----------------------------------------------------------------7777-5555---|
E----------------------------------------------------------------------------|

Guitar Break

e--------------------------------------------|
b--------------------------------------------|
g-999999-----212121-999999-----99999-77777---|
d-xxxxxx-9-9-x-x-x--xxxxxx-9-9-xxxxx-xxxxx---|
a-777777-7-7-191919-777777-7-7-77777-55555---|
E--------------------------------------------|
PM       . .               . .

Outro

e-------------------------------------|
b-------------------------------------|
g-99999----99999----99999----99999----|
d-88888----88888----88888----88888----|
a-77777----77777----77777----77777----|
E-------------------------------------|

Thats all of this album so enjoy
comments
We did not receive enough feedback on this tab! Please rate:
print report bad tab
1 2 3 4 5
I want to post or [tab]
guest
You may want to rate the tab now too:
select rating
Please do not post tabs as comments. Select "correction" instead!