Oops, an error
Loading. Please wait.

Wiretap Scars Tab

1,359 views 9 this week
no commentswrite comment
1 2 3 4 5
excellent!
x 6
add to favorites launch autoscroll
font size
0
reset
Autoscroll
+/-
esc
set tempo
stop
WARNING: You are trying to view
                                    content from Ultimate-Guitar.com
                                    in an unauthorized application,
                                    which is prohibited.

                                    Please use an official Ultimate
                                    Guitar Tabs application for iPhone,
                                    iPad or Android to access legitimate
                                    chords, guitar, bass, and drum tabs
                                    from Ultimate-Guitar.com database.

                                    Type "ultimate guitar tabs" in Apple
                                    App Store's or Android Market's
                                    search to find the application.
for this cd jim is the left guitar and paul is the righ guitar. and what i mean by that is
what speaker they are on. for example if you turn your cd player or whatever you use to
listen to music to just the right speaker you'll be hearing what paul is playing. you can
do this by unplugging speakers or if you have a fancy cd player then you hava a switch that
can switch between speakers. also im not going to write down the number of times a chord or
note is played because you can figure that out. but sometimes i might because there is and
odd number of notes or whatever. also when they play it live they sometimes switch parts
between each other and stuff if you care. everything is pretty much 100 percent correct so
everyone rate it and give it five stars. enjoy.


1. Cut Your Ribbon

 Left Guitar-Intro/Verse
e|----------------------------------|---|
B|----------------------------------|---|
G|-12-11-9-9---1111-1111--1111-1111-|-9-|
D|----------------------------------|-6-|
A|--------------9-9--9-9---9-9--9-9-|-7-|
E|-12-10-7-8-00----0----00----0-----|---|
                                                    
 Right Guitar-Verse                  
e|-----------------------------------|
B|-12----8-10------------------------|
G|--------------1111-1111--1111-1111-|
D|--9----5--7------------------------|
A|---------------9-9--9-9---9-9--9-9-|
E|------------00----0----00----0-----|

 Left-Chorus
e|---------------|
B|---------------|
G|----8--16--14--|
D|-2-------------|
A|-2--6--14--12--|
E|-0-------------|

 Right-Chorus
e|-----------17--|-------------17--| during the second chorus paul does the
B|---------------|-17--16----------| octives of e and e flat. so thats what
G|----8--16--14--|---------16--14--| the second group of chords is for.
D|-2-------------|-14--13----------|
A|-2--6--14------|---------14------|
E|-0-------------|-----------------|

 Left-Middle
e|----------------------|
B|----------------------|
G|----------------------|
D|----------------------|
A|77-99-7-99-77-99-7-99-|
E|00----0----00----0----|

 Right-Middle 
e|---------------|-------|
B|-12------10----|-------|
G|------------12-|-9--7--| use chorus
D|----9-12-------|-------|
A|---------------|-------|
E|---------------|-------|


2. Air (Drop D)

 Left Guitar-Intro/Verse
e|----------------------------------|
B|----------------------------------|
G|----------------------------------|
D|---0---0---0---0---0---0---0---0--|
A|--0-0-0-0-0-0-0-0-0-0-0-0-0-0-0-0-|
D|-9---9---11--11--4---4---5---5----|

 Right Guitar-Keyboard 
e|--------------------| 
B|-12--14--7--8-7-5-3-| 
G|--------------------| 
D|--------------------|
A|--------------------|
D|--------------------|


Left-Interlude    1,2,3________________4
e|---------------------|----------------|
B|---------------------|----------------|
G|---------------------|----------------|
D|--11-9-11/14--11-7-9-|--11-9-7--4-2-4-|
A|---------------------|----------------|
D|-0----0------0-------|-0----0-0-------|

 Right-Interlude
e|-----------------------------|
B|-----------------------------| for this part you wanna pick the notes
G|-----------------------------| kinda fast and sort of like randomnly
D|------11---------7-----------| because that is how sounds on the cd.
A|---12----0-----9---9-7-0---0-| just listen to the cd and play it and 
D|-0-----------0-----------0---| you'll get it.

 Left-Pre Chorus
e|-------------|
B|-------------|
G|-xx-14-xx-14-|
D|-xx----xx----| paul keeps playing the interlude when jim does this.
A|-xx-12-xx-12-| 
D|-------------|

 Left & Right-Chorus                    1_________2
e|--------------------------------|------|---------| the two last set of chords 
B|--------------------------------|------|---------| is what you do after you
G|--------------------------------|------|---------| play that first set of 
D|-4540-4540-4547--4540-4540-4547-|-4040-|-4040454-| chords. if it looks 
A|-4540-4540-4547--4540-4540-4547-|-4040-|-4040454-| confusing. its not. 
D|-4540-4540-4547--4540-4540-4547-|-4040-|-4040454-| follow the song.

 Right-Second Verse
e|----------------|
B|----------------|
G|-9--11--14--11--|
D|----------------| jim does the beging riff during this part.
A|-7---9--12---9--|
D|----------------|

 Left-Middle
e|-5---------------|-5----|
B|-5---------------|-5----|
G|-6---------------|-6----|
D|-7---7---7-7-7-7-|-7--7-|
A|-0---0---0-0-0-0-|-0--0-|
D|-----------------|------|
                   
 Right-Middle        
e|-----------------|-------|
B|-----------------|-------|
G|---------9-9-9-9-|-14--9-|
D|-----------------|-------|
A|---------7-7-7-7-|-12--7-|
D|-----------------|-------|


3. Mye

 Left Guitar-Intro/Verse
e|------------------------------|-0-| the chord that is all by
B|------------------------------|-0-| itself is the chord you 
G|------------------------------|-0-| let ring out before the
D|-14--12--10--9-14--12--10--9--|-9-| chorus. same thing for 
A|--0---0---0--0--0---0---0--0--|-0-| paul.the effect on paul's
E|-12--10---8--7-12--10---8--7--|-7-| guitar is chorus too.

 Righ Guitart-Intro/Verse
e|---------------------------------------------------------------------|----|
B|----13----12---------------13----12----------------------------------|----|
G|-14----14----12141414---14----14----1214141414141414-----------------|----|
D|---------------------14-----------------------------1414141414141414-|-14-|
A|---------------------------------------------------------------------|----|
E|---------------------------------------------------------------------|----|

  Left-Chorus
e|---------------------------------------|
B|---------------------------------------|
G|-7---------------7----14-12------14-12-|
D|-7--5-7--3--5-7--7--5-------3--5-------|
A|-5--5-7--3--5-7--5--5-12-10-3--5-12-10-|
E|----3-5--1--3-5-----3-------1--3-------|
                                              
 Right-Chorus                                
e|-0----0--0--3-0--0----0-----0--3-0-----|
B|-1----1--3--1-1--1----1-----3--1-1-----|
G|-2----2--2--2-2--2----2-----2--2-2-----|
D|-0----2--3--3-2--0----2-----3--3-2-----|
A|------0-------0-------0----------0-----|
E|---------------------------------------|

 Left-Middle
e|--------------------|
B|-10-----------------| for this part you wanna put on some 
G|-----9--7-6-4--2----| delay and make dist. really fuzzy 
D|--7------------2----| and then you'll have this part good.
A|-----7--5-4-2--0----|
E|--------------------|
                   
 Right-Middle
e|-------/20-------------------------|
B|--------------17--20---------------|
G|----------------------17--19-------|
D|-----------------------------19----|
A|-----------------------------------|
E|-----------------------------------|

 Keyboard-Middle
e|-20--17----------------| 
B|-------------17--------|
G|---------19------17----| this is the keyboard you hear 
D|-----------------------| in this part of the song.
A|-----------------------|
E|-----------------------|

 Left-Outro
e|------------------|
B|------5--3--5--3--|
G|------2--2--2--2--|
D|------2--2--2--2--|
A|------0--0--0--0--|
E|-1----------------|

 Right-Outro
e|----5-----5-----5-----5-------------|
B|-3h5-5p3h5-5p3h5-5p3h5-5------------|
G|-------------------------------7----|
D|-------------------------7--5-----7-|
A|-------------------------0-----5--0-|
E|----------------------------3-------|

 Left-Second Pt. of Outro
e|-------------------|
B|-10----------------| 
G|-----9--7-6-4------| its the same as the middle only 
D|--7----------------| you dont add the A chord in the end.
A|-----7--5-4-2------|
E|-------------------|

 Right-Second Pt. of Outro
e|-------/20-------------------------|
B|--------------17--20---------------|
G|----------------------17--19-------| same thing here only you let an 
D|-----------------------------19----| open E ring out at the beging.
A|-----------------------------------|
E|-0---------------------------------|


4. Collapse

 Keyboard-Intro
e|-7-------------7-------------7-------------7--------------|
B|-----7-8---7-8-----7-8---7-8-----7-8---7-8-----7-8-10-8-7-|
G|---7-----7-------7-----7-------7-----7-------7------------|
D|----------------------------------------------------------|
A|----------------------------------------------------------|
E|----------------------------------------------------------|

 Right Guitar-Intro/Verse/Bridge
e|-----------------------------------------------------|
B|-(14)-----------------------------------------14--14-| the (14) you only
G|-----------------------------------------------------| do at the beginig
D|------12-121211-11/7-77/99/7-12-121211-11/7/14--14---| of this little riff
A|-----------------------------------------------------| one time
E|-----------------------------------------------------|

 Left-Chorus
e|-0-0--0--0-0--0--0-0-0--0--0-0----|
B|-0-0--0--0-0--0--0-0-0--0--0-0----|
G|-6-7-14--6-7-16-14-6-7-19--6-7----|
D|-------------------------------2--|
A|-4-5-12--4-5-14-12-4-5-17--4-5-2--|
E|-------------------------------0--|

 Right-Chorus
e|----------------------------|
B|----------------------------|
G|-11--9--7--6--11--9--6-7----|
D|-------------------------2--|
A|--9--7--5--4---9--7--4-5-2--|
E|-------------------------0--|

 Chello-Interlude
e|----------------|
B|----------------|
G|----------------| for this if you wanna have the chello, do vol. swells 
D|------------9-7-| and use your finger instead of a pick, also do vibratos.
A|-5-9-10-9-5-----|
E|----------------|

 Right-Interlude
e|-14--1412---12---14--1412---12---14--1412---12----12----12--12---|
B|------------------------------------------------15--1514--14--14-|
G|---12-----12--12---12-----12--12---12-----12--12-----------------|
D|-----------------------------------------------------------------|
A|-----------------------------------------------------------------|
E|-----------------------------------------------------------------|

 Left-Verse Two
e|-------------|
B|-3--3-----3--|
G|-2--4--4--4--| during the second verse you hear these chords
D|-0--4--5--4--| on a acoustic guitar in the left speaker. paul
A|----2--5--2--| is doing that beging riff.
E|-------3-----|

 Left-Bridge
e|------------|
B|-3--3-------|
G|-4--2--4----| the bridge is that to set it down part. paul 
D|-4--0--5----| is doing that riff from the beging again.
A|-2-----5----|
E|-------3----|

 Keyboard-Bridge
e|----14-15-17-|----|
B|-15----------|-17-| this is the keyboard. it plays that little riff
G|-------------|----| over and over, then you hear that one note that 
D|-------------|----| holds out over the riff. that is the 17 all by itself
A|-------------|----|
E|-------------|----|

 Right-Breakdown
e|-14--1412---12---14--1412---12---14--1412---12---------|
B|------------------------------------------------15b----| this is the same as 
G|---12-----12--12---12-----12--12---12-----12--12-------| the interlude, only
D|-------------------------------------------------------| bend the 15 up. then
A|-------------------------------------------------------| go back to the bridge.
E|-------------------------------------------------------| 


5. Sans Cosm

 Left Guitar-Intro
e|------------------------------------------------|
B|------------------------------------------------|
G|--9--8--9--8----6-----6---------9--------9------| you can figure out the 
D|--6--6--6--6------0-------0-------0--------0----| picking for the first two 
A|--7--7--7--7--0-----0---0---0-------------------| sets of chords. its not hard.
E|-0----------------------------8-----8-10-----10-|

 Left-Intro Pt. 2
e|---------------|
B|---------------|
G|-9--8--6--9--9-|
D|-6--6--0--0--0-|
A|-7--7--0-------|
E|-0--0-----8-10-|

 Right-Intro Pt. 2
e|---------------|
B|---------------|
G|-9--8--6--5--7-|
D|-------7-------|
A|-7--7--0--3--5-|
E|---------------|

 Left-Verse
For the verse just do the beging but fool around with the chords and 
stuff because he just strums those chords and i dont want to write 
all the little variations he does. so make up your own strumming for it.

 Right-Verse
e|-------------|----------------------| he plays that first part twice
B|-------------|-D-DU-D-DU-DDU----10--| then he changes and goes to the
G|--9---6--5-7-|-9-98-9-98-998-6--14--| second part. the D's and U's mean
D|------7------|---------------7------| down and up strokes. then strum the 
A|--7--0---3-5-|-7-77-7-77-777-0------| other chords dont let the ring out.
E|-0-----------|----------------------| listen to the speaker and you'll ge it.

 Left-Chorus
e|-------------|
B|-------------|
G|-9----9---9--|
D|-6----0---0--|
A|-7-----------|
E|-0----8--10--|

 Right-Chorus
e|-----0------0--0-0-0-0------------------------------121212-|
B|----------------------0--1212121212121212-1010101010101010-|
G|-9-9---9/11---8-8-8-8----1111111111111111--9-9-9-9-9-9-9-9-|
D|-----------------------------------------------------------|
A|-----------------------------------------------------------|
E|-----------------------------------------------------------|

 Left-Bridge
e|---------|
B|---------|
G|-----4-6-|
D|-9-2-----|
A|-9-2-4-6-|
E|-7-0-----|

 Right-Bridge
e|-----0000440-0000440-|
B|-----5555555-4444444-|
G|---------------------|
D|-9-2-----------------|
A|-9-2-----------------|
E|-7-0-----------------|

 Left-Breakdown
e|-----------------|
B|-----------------|
G|-9--8--6--9---9--|
D|-6--6--0--0---0--|
A|-7--7--0---------|
E|-0--0-----8--10--|

 Right-Breakdown
e|-0-0-0-0-0-0-0-0-0-|
B|-5-5/4/9-5-5/4/9-9-|
G|-------------------|
D|-------------------|
A|-------------------|
E|-------------------|

 Guitar 3-Breakdown
e|--------------------|
B|-10-----------------|
G|-----9--------------| this is the guitar with that syn sound thing
D|--------11----9--7--| going on in this part.
A|--------------------|
E|--------------------|

the rest of the song is other various parts played with some
variations but you can figure it out because its not that hard to.


6. Light Burns Clear (Drop D)

 Left Guitar-Intro       1,2,3______________________4
e|-------------14141412-------|----------------------|
B|-151515141414--------1412---|-15151514141412121210-| 
G|-------------------------14-|----------------------| use delay
D|----------------------------|----------------------|
A|----------------------------|----------------------|
D|----------------------------|----------------------|

 Right Guitar-Intro
e|----------------------------------------------------------|
B|-7--7--7-------7--7--7-------7--7--7-------7--7--7---9910-|
G|--6--5--5-------6--5--5-------6--5--5-------6--5--5-------| use delay
D|---7--7--7-757---7--7--7-757---7--7--7-757---7--7--7------|
A|----------------------------------------------------------|
D|----------------------------------------------------------|

 Left-Intro Pt.2
e|-0----------0--0-|
B|-----------------|
G|-9---------13-14-|
D|-7---------11-12-|
A|-0----------0--0-|
D|-----------------|
                   
 Right-Intro Pt.2
e|-----------------|
B|-----------------|
G|--6---6-------6--|
D|----------0------|
A|-7-7-5-5-2-2-0-0-|
D|-----------------|

 Left-Intro Pt.3
e|-------|
B|-0--0--|
G|-2--2--|
D|-2--2--|
A|-0-----|
D|----4--|

 Right-Intro Pt.3
e|-------------------|
B|-------------------|
G|-9--11--9--11--14--|
D|-------------------|
A|-7---9--7---9--12--|
D|-------------------|

 Left-Verse
its the same thing that jim was doing during the intro pt.3 only some times
he lets the chords ring out.

 Right-Verse
e|-----------------------------------------------------------------|
B|-----------------------------------------------------------------|
G|-9--11--9--11--14---9--9-9--9--7--6-11--14---9--9-9--9--7--6-11--|
D|-----------------------------------------------------------------|
A|-7---9--7---9--12--7-77-7-77-77-77---9--12--7-77-7-77-77-77---9--|
D|-----------------------------------------------------------------|

 Left & Right-Chorus
e|----------------|
B|----------------|
G|-------6--4--2--|
D|-0-2-4-------2--|
A|-0-2-4-4--2--0--|
D|-0-2-4----------|

the middle is the same as the begining only paul doesnt do the little
B|-9910-| thing at the end of his riff he just does the same thing. jim 
is still doing his little thing.

 Left & Right-Bridge
e|-----------------------|
B|-----------------------| 
G|---------9-9-9---9-9-9-| figure out the strumming for yourself, i gave
D|-4--5--0-------0-------| you the number of times you hit the E octave.
A|-4--5--0-7-7-7-0-7-7-7-|
D|-4--5--0-------0-------|


7. Cataract

 Right Guitar-Intro/Verse
e|-------12---10---10---9-------|-------------------9-------|
B|---10------------------10--10-|------10---9---9----10--10-|
G|-11--11---11---11---11---11---|---9------------------11---| play each measure 
D|------------------------------|-11-11---11--11--11--------| two times.
A|------------------------------|---------------------------|
E|------------------------------|---------------------------|

 Right-Pre Chorus
e|-------------14--12--10--17(1617)-| 
B|----------------------------------| the notes in() are little fills that 
G|-11--14(1314)---------------------| you add in. listen and you know what 
D|----------------------------------| im talkin about.
A|----------------------------------|
E|----------------------------------|

 Left & Right-Chorus
e|-------------|
B|-------------|
G|-7--4/6------|
D|-7------4--7-|
A|-5--2/4-4--7-|
E|--------2--5-|

 Right-Second Chorus
e|-14----14---14---|-17----17----17---|
B|---1414--144--14-|---1414--1414--14-| play each measure twice. paul plays in 
G|-----------------|------------------| in the second chorus. jim is still
D|-----------------|------------------| doing the chorus during this part.
A|-----------------|------------------|
E|-----------------|------------------|

 Keyboard
e|-9----|
B|--7-7-|
G|---7--|
D|------|
A|------|
E|------|

 Left & Right-Outro
e|---------------------|
B|---------------------|
G|-11--9--13/14----16--|
D|---------------------|
A|--9--7--11/12----14--|
E|---------------------|

8. Red Alibi

 Left & Right Guitar-Intro/Chorus
e|-------------------|
B|-------------------|
G|-------------------|
D|-4--4/7/4p0-4--7/9-|
A|-------------------|
E|-3----------5--5/7-|

 Left-Intro Overdub
e|-----------------------------|
B|-----------------------------|
G|-9--7--14--16--18-19-21------| these are the octive that come in during
D|---------------------------4-| the beginig of the song.
A|-7--5--12--14--16-17-19------|
E|---------------------------3-|

 Left-Verse
e|----------------------------------|
B|----------------------------------|
G|---0---0---0---0---0---0---0---0--|
D|--9-9-9-9-9-9-7-7-0-0-0-0-0-0-0-0-|
A|-7---7---9---5---0---0---2---2----|
E|----------------------------------|
                                        
 Right-Verse                         
e|-0-------0------------------------|
B|-0-------0------------------------|
G|-7-------9------------------------|
D|-----------------7----------------|
A|-----------------0----------------|
E|----------------------------------|

 Left-Pre Chorus
e|-------------------|
B|-----33333---------| this is kinda a rough idea of the number of times you 
G|-----222222-2-2222-| strum the chords. but the chords are completly correct
D|-2-2-000002-2------| just make up you own strumming while listening to the cd.
A|-2-2------0-0-2222-|
E|-0-0-2-------------|

 Right-Pre Chorus
e|----------------------|
B|-----33---------------|
G|-----2211/12----------| same thing goes for paul too.
D|-2-2-00------7-7-7777-|
A|-2-2----9/10-0-0-0000-|
E|-0-0-2-----------7777-|

 Left-Bridge
e|-10----------------10----------------|
B|-10----------------10----------------|
G|-------------------11----------------|
D|-------------------------------------|
A|-------------------------------------|
E|-------------------------------------|
                                        
 Right-Bridge                          
e|-------------------------------------|
B|-------------------------------------|
G|-------------------------------------|
D|-44444444-22220000-44444444-22220000-|
A|-------------------------------------|
E|-------------------------------------|

 Left-Bridge Pt.2
e|-10---15-14-10----|
B|-10---17-15-12----|
G|------------------|
D|------------------|
A|------------------|
E|------------------|
                    
 Right-Bridge Pt.2  
e|-0---------------|
B|-0---------------|
G|-7----11/12------|
D|-7----------7----|
A|-------9/10-0----|
E|-----------------|


9. RX Coup (Drop D)
 
 Righ Guitar-Intro
e|-17----14----15----------------------|
B|----------------17-14----------------|
G|--------------------------1416141614-|
D|-------------------------------------| use chorus and maybe delay.
A|-------------------------------------|
D|-------------------------------------|

 Left-Verse
e|----------|---------------|
B|----------|---------------|
G|-6--(666)-|-7----7--7-777-| the notes in () you dont do everytime. if you
D|-7--(777)-|-7----7--7-777-| listen you will know.
A|-9--(---)-|-5----5--5-555-| 
D|----(450)-|------7--5-450-|
                              
 Right-Verse
e|----------|-7----14-------|
B|----------|-7----15-------|
G|----------|-7----14-------|
D|----------|-0-----0-------|
A|----------|---------------|
D|----------|---------------|

 Left-Chorus
e|------------|
B|------------|
G|-10--7------|
D|-10--7-0----|
A|--8--5-0----|
D|--8--5-0----|

 Right-Chorus
e|---------121288121288121288121288-|
B|----------------------------------|
G|-10--7----------------------------|
D|-10--7-0--------------------------|
A|--8--5-0--------------------------|
D|--8--5-0--------------------------|

 Left-Middle
e|---------------------------------|-----------------------------|
B|---------------------------------|-----------------------------|
G|-------5-----9/11-9/11-9/11-9/11-|-11--14--11--9--11--14--11---|
D|-5--3--5--0----------------------|---------------------------0-|
A|-5--3--3--0--7/-9-7/-9-7/-9-7/-9-|--9--12---9--7---9--12---9-0-|
D|-5--3-----0----------------------|---------------------------0-|
                                                                  
 Right-Middle                                                     
e|---------------------------------|-----------------------------|
B|---------------------------------|-----------------------------|
G|-------5-------------------------|-----------------------------|
D|-5--3--5--0--do harmonic slides--|-0---------------------------|
A|-5--3--3--0--and other stuff-----|-0---------------------------|
D|-5--3-----0----------------------|-0---------------------------|


10. Glasshouse Tarot (Drop D)

 Left Guitar-Intro
e|------------------------|-17----15-14--15-----| put delay on and leave it on
B|-10--12-----------------|-----------------17--| during the whole intro. use 
G|--<---<--12-11----0h2---|---------------------| vol. swells or a volume pedal.
D|----------<--<-12----0--|---------------------| jim uses his volume pedal. the
A|----------------<-------|---------------------| < = the note where you do the
D|------------------------|---------------------| volume swell.

 Right Guitar-Intro
e|----8-8-----8-8-8-8--------|----8-8-----8-8-7-7--------| the second measure 
B|---------------------2-----|---------------------2-----| thing is when jim 
G|-5/7-7-7-5/7-7-7-7-7-4--2--|-5/7-7-7-5/7-7-7-7-7-4--2--| is picking those high
D|---------------------4--0--|---------------------4--0--| notes. paul might be 
A|---------------------2-----|---------------------2-----| using delay too. 
D|------------------------5--|------------------------5--| i dont know.

 Left-Verse
e|---------------| the (15) might be played. i like to sometimes
B|(15)(15)(15)---| play them so i thought id put them in. turn the
G|-14--14--14----| delay off also. but everything else is for sure.
D|---------------|
A|-14--13--12----|
D|---------------|

 Right-Verse
e|---------------------------------------------------|
B|---------1010----10/111111111111/------------------|
G|-11111212----1212-------------------7-77-----------|
D|------------------------------------------7-78-----|
A|----------------------------------88-8-----0--0000-|
D|----------------------------------------88----0000-|

 Left-Chorus
e|-------------------------------|
B|--------------10-10--10--------|
G|-11--9--11--9--9------9-11--9--|
D|-----------------7----0--------|
A|--9--9---9--9--9---------9--7--|
D|-------------------------------|
                               
 Right-Chorus
e|-14--12--10--9-10--9------------|
B|-12--12--12-12-12-12--7--5-7--5-|
G|----------------------7--6-7--6-|
D|--------------------------------|
A|----------------------9--7-0--7-|
D|--------------------------------|

 Right-Post Chorus
e|-------------------------------| this is the part right after the first chorus.
B|-----10-11-----------10-11-----| paul is using some chorus effect on the guitar 
G|-11--------11--6/11--------11--| and jim is doing the chords from the verse.
D|-------------------------------|
A|-------------------------------|
D|-------------------------------|

 Left-Bridge
e|---------------------------|
B|---------------------------|
G|-4------6---------------76-|
D|---------------2--4--0-----|
A|-2------4------2--4--0--54-|
D|----420----420-2--4--0-----|
                                 
 Right-Bridge                      
e|---------------------------|
B|---------------------------|
G|-7------11-----------------|
D|---------------2--4--0-----|
A|-5-------9-----2--4--0-----|
D|-----------420-2--4--0-----|

 Left-Outro
e|-17----15-14--15-----|-17----15----19-------14--15--| these are the high notes
B|-----------------17--|------------------17----------| jim does. the first group
G|---------------------|------------------------------| is when the band is quite
D|---------------------|------------------------------| and its the same as it
A|---------------------|------------------------------| was earlier in the song.
D|---------------------|------------------------------| then the end when it gets
                                                        loud is when jim does the
                                                        second group. paul is 
                                                        doing the main riff 
                                                        during the quite part. 
                                                        then when it gets loud he
                                                        does the second group of
                                                        notes. listen and youll 
                                                        know what im talkin about


11.Echodyne Harmonic
 
jim plays the piano for this song. so im just puttin down the right speaker which is paul.
also sometimes during this tab 10 means 1 then 0 not 10. but it could mean 10 in other parts
listen and youll know.

 Right Guitar-Intro/Verse
e|-10-0-10-0-10-0-10-0-55----00-3---3---3---3----| use a chorus effect.
B|-----------------------6633----0-0-0-0-0-0-0-0-|
G|---2----2----2----2-------------2---2---2---2--|
D|-----------------------------------------------|
A|-----------------------------------------------|
E|-----------------------------------------------|

 Right-Verse Pt. 2
e|-15--15--121212b121212b-10---9--10--121212b121212b-10--|
B|-14--13---x-x-x--x-x-x--12--10--10---x-x-x--x-x-x--12--|
G|-------------------------------------------------------|
D|-------------------------------------------------------|
A|-------------------------------------------------------|
E|-------------------------------------------------------|

 the chord pergression for this part is A C F G.

Right-Chorus
e|----------------| put a chorus effect on again.
B|----------------|
G|-7----10--14----|
D|----------------|
A|-5-----8--12----|
E|----------------|

 the chord pergression for this part is D  F C D  F.

 Keyboard-Bridge
e|--1212-1212-12-1212-1212-12--1313-1313-13-1515-1515-15-| put some dist. on 
B|-------------------------------------------------------| the keys if you use
G|-------------------------------------------------------| one. i like to play
D|-------------------------------------------------------| this part with my 
A|-0----0----0--0----0----0---0----0----0--0----0----0---| fingers it makes it
E|-------------------------------------------------------| sound exactly like it.

 Right-Bridge
e|--------------------| 
B|-15--13--10-11--10--|
G|--------------------|
D|-12--10---7--8---7--|
A|--------------------|
E|--------------------|
 
 Right-Outro
e|-121212b121212b-| just keep repeating that over and over.
B|--x-x-x-x-x-x---|
G|----------------| 
D|----------------|
A|----------------|
E|----------------|


12. Assemble The Empire

 Left Guitar-Intro     1,2,3________4
e|-17----------10----10-----|--------| use delay.
B|-----------------12----12-|-201917-| 
G|-----16--14----14----14---|--------|
D|--------------------------|--------|
A|--------------------------|--------|
E|--------------------------|--------|

 Right Guitar-Intro
e|--------------------------------| continue doing the 11b and 11 im 
B|--------------------------------| not gonna write all out because 
G|-------------1111-1111b1111....-| it would get confusing to look at.
D|-11-119-9-----------------------| so just continue it and use delay also.
A|---------9-7--------------------|
E|--------------------------------|

 Left-Intro Pt.2
e|-17------------------17------------------| use delay still.
B|-------17-----------------17-----201917--|
G|---16----18------16----16----18----------|
D|-----19------1719--------19--------------|
A|-----------------------------------------|
E|-----------------------------------------|

 Right-Intro Pt.2
e|---------------------------| like i said ealier just continue the bending
B|---------------------------| part i didnt write it all down because it 
G|-1111-1111b1111------9-9-9-| would be confusing. turn off the delay.
D|---------------------------|
A|--9-9--9-9b-9-9.....-7-7-7-|
E|---------------------0-0-0-|

 Left-Verse
e|---------------------------------------------------------|
B|---------------------------------------------------------|
G|-6-----2------6-----2--------6-----2------6-----2--5--7--|
D|-7--7--2---02-7--7--2--5-5-5-7--7--2---02-7--7--2--5--7--|
A|-0--0--0--4---0--0--0--5-5-5-0--0--0--4---0--0--0--3--5--|
E|-----------------------3-3-3-----------------------------|

 Right-Verse
e|-------------------------------------------------------------------|
B|-------------99-------------------------------99-------------------|
G|---------------99-------------------------------99-----------5--7--|
D|-11--9--7--77-----11--9--7--5-5-5-11--9--7--77-----11--9--7--------|
A|--0--0--0----------0--0--0--5-5-5--0--0--0----------0--0--0--3--5--|
E|----------------------------3-3-3----------------------------------|

 Left-Verse Pt.2
e|--------------------------------------| jim plays this on the cd
B|--------------------------------------| but paul plays it live?????
G|----------------------------11---14---| the other guitar is doing 
D|--12p11-14-12p11-14-12p11-14---14-----| the bending struming thing.
A|-0-----0--0-----0--0-----0---------12-|
E|--------------------------------------|

 the middle is just the beging over again with paul changing up the strumming and bending
 on the F# octive.

 Right-Outro
e|---------------------| same as before with the.....
B|---------------------|
G|---------------9-9-9-|
D|-44-44444------------|
A|-44-44444------7-7-7-|
E|-22-02022.....-------|

paul is doing that strumming and bending stuff again. well that is the whole Wiretap Scars cd.
i might put vacant skies up. im workin on writing out breaking the broken and splinters from the
new cd Porcelain. i hope this helped you out.
comments
print report bad tab
I want to post or [tab]
guest
You may want to rate the tab now too:
select rating
Please do not post tabs as comments. Select "correction" instead!