Oops, an error
Loading. Please wait.

Stonehenge Tab

ver1
ver1

Intro

Solo

Whole song

More versions @911Tabs.com
12,671 views 18 this week
6 commentsread comments
1 2 3 4 5
excellent!
x 4
Autoscroll
+/-
esc
set tempo
stop
Contributor
Difficulty
intermediate
WARNING: You are trying to view
                                    content from Ultimate-Guitar.com
                                    in an unauthorized application,
                                    which is prohibited.

                                    Please use an official Ultimate
                                    Guitar Tabs application for iPhone,
                                    iPad or Android to access legitimate
                                    chords, guitar, bass, and drum tabs
                                    from Ultimate-Guitar.com database.

                                    Type "ultimate guitar tabs" in Apple
                                    App Store's or Android Market's
                                    search to find the application.
THIS IS NOT MY WORK! I DO NOT TAKE ANY CREDIT... THIS IS JUST IF YOU DONT WANT TO
DOWNLOAD POWERTAB YOU CAN PUT THIS IN NOTEPAD THE FONT IM USING FOR IT IS LUCIDIA
CONSOLE SIZE 10 AND IT LOOKS FINE...I'm not quite sure who the credit goes to,,,
but theres alot of guitars but you dont need most of them...




                                   STONEHENGE
                            As recorded by Spinal Tap
              (From the 1984 Album "THIS IS SPINAL TAP" SOUNDTRACK)

          E/B
    x 14 x 13 12 12

   Intro
    Q=72
    N.C.
   4/4
    Gtrs I, II
||--10------9--|----------|-8------7--|----------|-6------5--|------|
||o------------|-6--------|-----------|-4--------|-----------|-2----|
||-------------|----------|-----------|----------|-----------|------|
||-------------|----------|-----------|----------|-----------|------|
||o------------|----------|-----------|----------|-----------|------|
||-------------|----------|-----------|----------|-----------|------|


                                                   H=H
  N.C.                  D5
 6/4                   4/4
  Gtr I
|---------------------:------------||------------:--------|
|-----5-(5)-----------:-----------o||------------:--------|
|-6-7-------7---------:------------||------------:--------|
|-------------7-------:------------||------------:--------|
|----------------8-7--:--5--------o||-(5)--------:-(5)----|
|---------------------:------------||------------:--------|
|
| Gtr II
|---------------------:-^5---------||-(5)--------:-(5)----|
|---------------------:-^3--------o||-(3)--------:-(3)----|
|---------------------:-^2---------||-(2)--------:-(2)----|
|---------------------:-^0---------||-(0)--------:-(0)----|
|---------------------:-----------o||------------:--------|
|---------------------:------------||------------:--------|


              Verse 1
  Q=120
                  A5            G5     F5
  Gtr II       Gtr I
   >
|------------|----------------|-------------------|
|------------|----------------|-------------------|
|-(2)--------|----2-2--2------|-------------------|
|-(0)--------|----2-2--2------|--5------3--(3)----|
|-(0)--------|----0-0--0------|--5------3--(3)----|
|-(0)--------|----------------|--5------3--(3)----|
|
| Gtr III
|------------|------------12--|-10----------------|
|------------|--------10------|-----12-13-(13)----|
|------------|----------------|-------------------|
|------------|----------------|-------------------|
|------------|----------------|-------------------|
|------------|----------------|-------------------|


  C5             E5     D5
|--------------|-------------------|
|--------------|-------------------|
|-5------------|-/9------7--(7)----|
|-5------------|-/9------7--(7)----|
|-3------------|-/7------5--(5)----|
|--------------|-------------------|
|
|----------15--|-14----------------|
|------17------|-----15------------|
|--------------|--------14-(14)----|
|--------------|-------------------|
|--------------|-------------------|
|--------------|-------------------|


     A5            G5     F5
|----------------|-------------------|
|----------------|-------------------|
|----2-2--2------|-------------------|
|----2-2--2------|--5------3--(3)----|
|----0-0--0------|--5------3--(3)----|
|----------------|--5------3--(3)----|
|
|------------12--|-10----------------|
|--------10------|-----12-13-(13)----|
|----------------|-------------------|
|----------------|-------------------|
|----------------|-------------------|
|----------------|-------------------|


  E5                        C5                D5
|-------------------------|--------------------------|
|-------------------------|--------------------------|
|--9--9--9--9--9--9--9--9-|--5--5--5--5--5-----7-----|
|--9--9--9--9--9--9--9--9-|--5--5--5--5--5-----7-----|
|--7--7--7--7--7--7--7--7-|--3--3--3--3--3-----5-----|
|-------------------------|--------------------------|
|
|-15-------15-------15----|-15-------15-------14-----|
|----17-------17-------17-|----17-------17-------15--|
|-------16-------16-------|-------17-------17--------|
|-------------------------|--------------------------|
|-------------------------|--------------------------|
|-------------------------|--------------------------|


  E5                   D5   C5                E5
|-------------------------|-----------------------|
|-------------------------|-----------------------|
|--9--9--9--9--9--9--9S=7-|--5--5--5--5--5-----9--|
|--9--9--9--9--9--9--9S=7-|--5--5--5--5--5-----9--|
|--7--7--7--7--7--7--7S=5-|--3--3--3--3--3-----7--|
|-------------------------|-----------------------|
|
|-15-------15-------15----|-15-------15-------15--|
|----17-------17-------17-|----17-------17--------|
|-------16-------16-------|-------17-------17-----|
|-------------------------|-----------------------|
|-------------------------|-----------------------|
|-------------------------|-----------------------|


 Interlude
  (B5)             (A5)             (C5)             (C#5)
 3/4
|----------------|----------------|----------------|-----3-6------|
|----------------|----------------|-5-6-5h6p5---5--|---5-----8----|
|-4-5-4h5p4---4--|-5-(5)b7-5-4-5--|-----------7----|-6---------9s=|
|-----------7----|----------------|----------------|--------------|
|----------------|----------------|----------------|--------------|
|----------------|----------------|----------------|--------------|
|
| Gtr IV
|----------------|----------------|----------------|--------------|
|----------------|----------------|----------------|--------------|
|-------------4--|-------------2--|-------------5--|---------6----|
|-----4----------|---------2------|-----5----------|-----6--------|
|-2--------------|-0--------------|-3--------------|-4------------|
|----------------|----------------|----------------|--------------|


  (D5)             N.C.                                F5 E5 F5 E5
                                  4/4
|----------------|-----5-8-------|-7------(7)-(7)\-|---------------|
|----------------|---7-----10----|-----------------|---------------|
|-11-12-11-9-11--|-8----------11-|-----------------|---10-9--10-9--|
|----------------|---------------|-----------------|---10-9--10-9--|
|----------------|---------------|-----------------|----8-7---8-7--|
|----------------|---------------|-----------------|---------------|
|
|----------------|---------------|-----------------|---------------|
|----------------|---------------|-----------------|---------------|
|-------------7--|----------8----|-----------------|---10-9--10-9--|
|--------7-------|-----7---------|-----------------|---10-9--10-9--|
|--5-------------|-6-------------|-----------------|----8-7---8-7--|
|----------------|---------------|-2---------------|---------------|


 Verse 2
     A5              G5     F5           C5             E5     D5
|------------------|-------------------|--------------|-------------------|
|------------------|-------------------|--------------|-------------------|
|-----2--2--2------|-------------------|-5------------|-/9------7--(7)----|
|-----2--2--2------|--5------3--(3)----|-5------------|-/9------7--(7)----|
|-----0--0--0------|--5------3--(3)----|-3------------|-/7------5--(5)----|
|------------------|--5------3--(3)----|--------------|-------------------|
|
| Gtr III
|--------------12--|-10----------------|----------15--|-14----------------|
|----10-10-10------|-----12-13-(13)----|------17------|-----15------------|
|------------------|-------------------|--------------|--------14-(14)----|
|------------------|-------------------|--------------|-------------------|
|------------------|-------------------|--------------|-------------------|
|------------------|-------------------|--------------|-------------------|


     A5              G5     F5
|------------------|-------------------|
|------------------|-------------------|
|-----2--2--2------|-------------------|
|-----2--2--2------|--5------3--(3)----|
|-----0--0--0------|--5------3--(3)----|
|------------------|--5------3--(3)----|
|
|--------------12--|-10----------------|
|----10-10-10------|-----12-13-(13)----|
|------------------|-------------------|
|------------------|-------------------|
|------------------|-------------------|
|------------------|-------------------|


  E5                        C5                D5
|-------------------------|--------------------------|
|-------------------------|--------------------------|
|--9--9--9--9--9--9--9--9-|--5--5--5--5--5-----7-----|
|--9--9--9--9--9--9--9--9-|--5--5--5--5--5-----7-----|
|--7--7--7--7--7--7--7--7-|--3--3--3--3--3-----5-----|
|-------------------------|--------------------------|
|
|-15-------15-------15----|-15-------15-------14-----|
|----17-------17-------17-|----17-------17-------15--|
|-------16-------16-------|-------17-------17--------|
|-------------------------|--------------------------|
|-------------------------|--------------------------|
|-------------------------|--------------------------|


  E5                        C5          E5
                                        Gtrs I, IV
|-------------------------|-------------------------|
|-------------------------|-------------------------|
|--9--9--9--9--9--9--9--9-|--5--5--5--5--9-----9----|
|--9--9--9--9--9--9--9--9-|--5--5--5--5--9-----9----|
|--7--7--7--7--7--7--7--7-|--3--3--3--3--7-----7----|
|-------------------------|-------------------------|
|
|-15-------15-------15----|-15-------15-------15----|
|----17-------17-------17-|----17-------17-------17-|
|-------16-------16-------|-------17-------17-------|
|-------------------------|-------------------------|
|-------------------------|-------------------------|
|-------------------------|-------------------------|


 Bridge (And you, my love..)
  D                              Am         N.C.
  Gtr I
                  >
|--------------|---------------|----------|-----------------|
|--------------|---------------|----------|-----------------|
|-7------------|-(7)-----------|----------|-5-4-5-7-5-4-----|
|-7------------|-(7)-----------|-7--------|-------------7-5-|
|-5------------|-(5)-----------|-7--------|-----------------|
|--------------|---------------|-7--------|-----------------|
|
| Gtr IV
|-2----2-3-2---|---------2-----|----------|-----------------|
|-3----------3-|-(3)--------3--|-1--------|-----------------|
|-2------------|-------2-------|-2--------|-----------------|
|--------------|---------------|-2--------|-----------------|
|--------------|---------------|----------|-----------------|
|--------------|---------------|----------|-----------------|


  C5                      G5                  E5
              >
|----------|------------|----------|-----------------|
|----------|------------|----------|-----------------|
|-5--------|-(5)--------|----------|----------9--9---|
|-5--------|-(5)--------|-5--------|--------0-9--9---|
|-3--------|-(3)--------|-5--------|----0h2---7--7---|
|----------|------------|-5--------|--5--------------|
|
|----------|------------|----------|-----------------|
|----------|------------|----------|-----------------|
|----------|------------|----------|----------9--9---|
|----------|------------|----------|----------9--9---|
|----------|------------|----------|----------7--7---|
|----------|------------|----------|-----------------|


  D                              Am         N.C.
  Gtr I
                  >
|--------------|---------------|----------|-----------------|
|--------------|---------------|----------|-----------------|
|-7------------|-(7)-----------|----------|---4-5-7-5-4-----|
|-7------------|-(7)-----------|-7--------|-7-----------7-5-|
|-5------------|-(5)-----------|-7--------|-----------------|
|--------------|---------------|-7--------|-----------------|
|
|-2----2-3-2---|---------2-----|----------|-----------------|
|-3----------3-|-(3)-------3---|-1--------|-----------------|
|-2------------|-------2-------|-2--------|-----------------|
|--------------|---------------|-2--------|-----------------|
|--------------|---------------|----------|-----------------|
|--------------|---------------|----------|-----------------|


  F5
|-------------------------|-------------------------|
|-------------------------|-------------------------|
|-10-10-10-10-10-10-10-10-|-10-10-10-10-10-10-10-10-|
|-10-10-10-10-10-10-10-10-|-10-10-10-10-10-10-10-10-|
|--8--8--8--8--8--8--8--8-|--8--8--8--8--8--8--8--8-|
|-------------------------|-------------------------|


  G5
|-------------------------|-------------------------|
|-------------------------|-------------------------|
|-12-12-12-12-12-12-12-12-|-12-12-12-12-------------|
|-12-12-12-12-12-12-12-12-|-12-12-12-12-------------|
|-10-10-10-10-10-10-10-10-|-10-10-10-10-10-11-12-13-|
|-------------------------|-------------------------|


 Interlude
  (B5)         (A5)             (C5)             (C#5)
 3/4
|------------|----------------|----------------|-----3-6------|
|------------|----------------|-5-6-5h6p5---5--|---5-----8----|
|-4-5-4---4--|-5-(5)b7-5-4-5--|-----------7----|-6---------9s=|
|-------7----|----------------|----------------|--------------|
|------------|----------------|----------------|--------------|
|------------|----------------|----------------|--------------|
|
| Gtr IV
|------------|----------------|----------------|--------------|
|------------|----------------|----------------|--------------|
|---------4--|-------------2--|-------------5--|---------6----|
|-----4------|---------2------|-----5----------|-----6--------|
|-2----------|-0--------------|-3--------------|-4------------|
|------------|----------------|----------------|--------------|


                                   H.=H
  (D5)             N.C.            E/B
                                  4/4
  Gtr II
                                   |           |
                                   /           /

                                               >
|----------------|-----5-8-------|-7--------|-(7)----|
|----------------|---7-----10----|----------|--------|
|-11-12-11-9-11--|-8----------11-|----------|--------|
|----------------|---------------|----------|--------|
|----------------|---------------|----------|--------|
|----------------|---------------|----------|--------|
|
|                                              >
|----------------|---------------|----------|--------|
|----------------|---------------|----------|--------|
|-------------7--|----------8----|-9--------|-(9)----|
|--------7-------|-----7---------|----------|--------|
|--5-------------|-6-------------|-7--------|-(7)----|
|----------------|---------------|----------|--------|


 Breakdown
  Q=96
  E/B
  Gtr II
|-12--------:-(12)----|
|-12--------:-(12)----|
|-13--------:-(13)----|
|-----------:---------|
|-14--------:-(14)----|
|-----------:---------|


  N.C.
|-12-----10-----:-12-----10-----:-10-----8-----:-10------9-----|
|-10----(10)----:-11----(11)----:--9----(9)----:-10----(10)----|
|---------------:---------------:--------------:---------------|
|---------------:---------------:--------------:---------------|
|---------------:---------------:--------------:---------------|
|---------------:---------------:--------------:---------------|


  N.C.
|-12---10---14---12---:-12---10---14---12---:-12---10---14---12---:-12----|
|-11--(11)--10--(10)--:-11--(11)--10--(10)--:-11--(11)--10--(10)--:-10----|
|---------------------:---------------------:---------------------:-------|
|---------------------:---------------------:---------------------:-------|
|---------------------:---------------------:---------------------:-------|
|---------------------:---------------------:---------------------:-------|


 Minstrel Solo
  H=H
  N.C.
 4/4
  Gtr V
|-------------|----------------|
|-10----10----|-10----10-------|
|--7-----7----|--7-----7---7-9-|
|-------------|----------------|
|-------------|----------------|
|-------------|----------------|


  Q=120
  N.C.
|-------------10-9-10-12-10-------|-------10---------------------10-12-------|
|-7-7-8-10-10---------------10-12-|-13-13----13-12-10---13-12-13---------10--|
|---------------------------------|-------------------x----------------7--9--|
|---------------------------------|------------------------------------------|
|---------------------------------|------------------------------------------|
|---------------------------------|------------------------------------------|


  N.C.
|---------------10-9-10-12-10-------|----10-----------------------------------|
|-5s7-7-8-10-10---------------10-12-|-13----13-12-10h12p10-8------------------|
|-----------------------------------|------------------------9-7h9p7----7-7-9-|
|-----------------------------------|--------------------------------10-------|
|-----------------------------------|-----------------------------------------|
|-----------------------------------|-----------------------------------------|


                                       1.
    D5
||----------------10-9-10-12-10-------|--------10---------------------10-12-------||
||o-5s7-7-8-10-10---------------10-12-|-13--13----13-12-10---13-12-13---------10-o||
||------------------------------------|--------------------x----------------7--9--||
||------------------------------------|-------------------------------------------||
||o-----------------------------------|------------------------------------------o||
||------------------------------------|-------------------------------------------||
|
|   Gtr IV
|                                        >
||------------------------------------|-------------------------------------------||
||o-----------------------------------|------------------------------------------o||
||------------------------------------|-------------------------------------------||
||--0---------------------------------|-(0)------------------------------------0--||
||o-0---------------------------------|-(0)------------------------------------0-o||
||--0---------------------------------|-(0)------------------------------------0--||


  2.
|-----x------------------------------------|
|-13----13-12-10h12p10-8-------------------|
|------------------------9-7h9p7----7-7-9--|
|--------------------------------10--------|
|------------------------------------------|
|------------------------------------------|
|
|  >
|------------------------------------------|
|------------------------------------------|
|------------------------------------------|
|-(0)--------------------------------------|
|-(0)--------------------------------------|
|-(0)--------------------------------------|


                                          1.
        D5                                    A5                      C5
||----------------10-(12)-10-12-10-------|-------10---------------------------------||
||o-5s7-7-8-10-10-----14-----------10-12-|-13-13----13-12-10-12-13-12-13-x-10---10-o||
||---------------------------------------|------------------------------------7--9--||
||---------------------------------------|------------------------------------------||
||o--------------------------------------|-----------------------------------------o||
||---------------------------------------|------------------------------------------||
|
||---------------------------------------|------------------------------------------||
||o--------------------------------------|-----------------------------------------o||
||------7-------7----------7--------7----|-----------------------------5------5-----||
||------7-------7----------7--------7----|-----7-----------7-----------5------5-----||
||o-----5-------5----------5--------5----|-----7-----------7-----------3------3----o||
||---------------------------------------|-----7-----------7------------------------||


  2.
        A5             C5        D5
|----10----------------------------------14-15-|
|-13----13-12-10h12p10-8--------------15-------|
|------------------------9-7h9p7----7----------|
|--------------------------------10------------|
|----------------------------------------------|
|----------------------------------------------|
|
|----------------------------------------------|
|----------------------------------------------|
|----------------------5----------7-7----------|
|--------7-------------5----------7-7----------|
|--------7-------------3----------5-5----------|
|--------7-------------------------------------|


                                       1.
    D5                                 A5                      C5
||--17-17-15-------14----------------|----------14-15-17-15-14----------------------14-15--||
||o----------15-17-------15----------|----15-17----------------17h19p17----------15-------o||
||--------------------17----17-14-16-|-17-------------------------------17-16-14-----------||
||-----------------------------------|-----------------------------------------------------||
||o----------------------------------|----------------------------------------------------o||
||-----------------------------------|-----------------------------------------------------||
|
||-----------------------------------|-----------------------------------------------------||
||o----------------------------------|----------------------------------------------------o||
||---7-------------------------------|--------------------------5--------------------------||
||---7-------------------------------|--7-----------------------5--------------------------||
||o--5-------------------------------|--7-----------------------3-------------------------o||
||-----------------------------------|--7--------------------------------------------------||


  2.
   A5          C5                      D5
|-----------------------------------------------14-15---|
|-----15-------------------------------------15---------|
|--17----17-16-14h16p14-12------------------------------|
|--------------------------14-12h14p12----12------------|
|--------------------------------------15---------------|
|-------------------------------------------------------|
|
|-------------------------------------------------------|
|-------------------------------------------------------|
|---------------5-----------------------7--7------------|
|---7-----------5-----------------------7--7------------|
|---7-----------3-----------------------5--5------------|
|---7---------------------------------------------------|


     D5
|-17-17-15-------14----------------|
|----------15-17-------15----------|
|-------------------17----17-14-16-|
|----------------------------------|
|----------------------------------|
|----------------------------------|
|
|----------------------------------|
|----------------------------------|
|-----7-----7-----------7-----7----|
|-----7-----7-----------7-----7----|
|-----5-----5-----------5-----5----|
|----------------------------------|


        A5                               C5
|----------14-15h17p15-14h15p14----------------------14-15--|
|----17-17----------------------17h19p17----------15--------|
|-17-------------------------------------17-16-14-----------|
|-----------------------------------------------------------|
|-----------------------------------------------------------|
|-----------------------------------------------------------|
|
|-----------------------------------------------------------|
|-----------------------------------------------------------|
|-----------------------------------------5--------5--------|
|--------7--------------7-----------------5--------5--------|
|--------7--------------7-----------------3--------3h=======|
|--------7--------------7-----------------------------------|


     D5
|-17-17-15-------14----------------|
|----------15-17-------15----------|
|-------------------17----17-14-16-|
|----------------------------------|
|----------------------------------|
|----------------------------------|
|
|----------------------------------|
|----------------------------------|
|-----7-----7-----------7-----7----|
|-----7-----7-----------7-----7----|
|--5--5-----5-----------5-----5----|
|----------------------------------|


        A5             C5          D5
|----------------------------------------------|
|----15----------------------------------------|
|-17----17-16-14h16p14-12----------------------|
|-------------------------14-12h14p==12----12--|
|---------------------------------------15-----|
|----------------------------------------------|
|
|----------------------------------------------|
|----------------------------------------------|
|-----------------------5----------7-----7--7--|
|--------7--------------5----------7-----7--7--|
|--------7--------------3----------5-----5--5--|
|--------7-------------------------------------|


                           H.=H
  D5
|-----------|-----------|----------------------|--------|
|-----------|-----------|----------------------|--------|
|-7----7----|-7----7----|--7-------------------|--7-----|
|-----------|-----------|----------------------|--------|
|-----------|-----------|----------------------|--------|
|-----------|-----------|----------------------|--------|
|
|-----------|-----------|----------------------|--------|
|-----------|-----------|--3-------------------|-(3)----|
|-----------|-----------|--2-------------------|-(2)----|
|-0----0----|-0----0----|--0-------------------|-(0)----|
|-0----0----|-0----0----|--0-------------------|-(0)----|
|-0----0----|-0----0----|----------------------|--------|
|
| Gtr III
|-----------|-----------|----14--15--(15)------|-12-----|
|-----------|-----------|----------------------|--------|
|-----------|-----------|--9-11--12--(12)------|--9-----|
|-----------|-----------|--0-(0)-(0)--(0)------|--0-----|
|-----------|-----------|----------------------|--------|
|-----------|-----------|----------------------|--------|


 Outro
  Q=72
  N.C.
  Gtrs I, II
|-10------9--|----------|-8------7--|----------|-6------5--|------|
|------------|-6--------|-----------|-4--------|-----------|-2----|
|------------|----------|-----------|----------|-----------|------|
|------------|----------|-----------|----------|-----------|------|
|------------|----------|-----------|----------|-----------|------|
|------------|----------|-----------|----------|-----------|------|


  N.C.
 4/4
  Gtr I
|-------------------:------------------------------------:
|-----5-(5)---------:------------------------------------:
|-6-7-------7-------:------------------------------------:
|-----------------7-:--(7)-------------------------------:
|-------------------:----------8-------7-----5-------(5)-:
|-------------------:------------------------------------:
|
| Gtr IV
|-------------------:---------------15---15----15s17-----:
|--------------17---:-(17)-18-17-18---------18-----------:
|-------------------:------------------------------------:
|-------------------:------------------------------------:
|-------------------:------------------------------------:
|-------------------:------------------------------------:


                                                   D5
|-------------------------------------:------------------*|
|-------------------------------------:------------------*|
|-------------------------------------:------------7\----*|
|-------------------------------------:------------7\----*|
|-(5)---------------------------------:-(5)--------5\----*|
|-------------------------------------:------------------*|
|
|  ~~~~~~~~~~~~~~~~~~~~~~~~~~~~~~~~~~~~~~~~~~~~~
|-17b17.5--17b17.5--17b17.5--17b17.5--:-17b17.5----------*|
|-------------------------------------:------------------*|
|-------------------------------------:------------------*|
|-------------------------------------:------------------*|
|-------------------------------------:------------------*|
|-------------------------------------:------------------*|


Tablature Legend
----------------
 h   - hammer-on
 p   - pull-off
 b   - bend
 pb  - pre-bend
 r   - bend release (if no number after the r, then release immediately)
 /\  - slide into or out of (from/to "nowhere")
 s   - legato slide
 S   - shift slide
  - natural harmonic
[n]  - artificial harmonic
n(n) - tapped harmonic
 ~   - vibrato
 tr  - trill
 T   - tap
 TP  - trem. picking
 PM  - palm muting
\n/  - tremolo bar dip; n = amount to dip
 \n  - tremolo bar down
 n/  - tremolo bar up
/n\  - tremolo bar inverted dip
 =   - hold bend; also acts as connecting device for hammers/pulls
 <>  - volume swell (louder/softer)
 x   - on rhythm slash represents muted slash
 o   - on rhythm slash represents single note slash

Misc Legend
-----------
 |  - bar
||  - double bar
||o - repeat start
o|| - repeat end
*|  - double bar (ending)
 :  - bar (freetime)
 $  - Segno
 &  - Coda
Tempo markers -  = BPM(8/16=s8/s16), where s8 = swing 8ths, s16 = swing 16ths


***************************************************************************************
* Generated using Power Tab Editor by Brad Larsen - http://powertab.guitarnetwork.org *
***************************************************************************************
6 comments total. Showing first comments.
0 reply
Josher.K wrote on March 2 2007, 09:34 pm

No comments? *cry cry*

0 reply
JL Sevenfold wrote on June 13 2007, 02:31 pm

Thanks for putting this into regular tab, I don't have powertab software. Sweet!

0 reply
Josher.K wrote on July 4 2007, 11:57 am

Glad you like it.

I want to post or [tab]
guest
You may want to rate the tab now too:
select rating
Please do not post tabs as comments. Select "correction" instead!