Oops, an error
Loading. Please wait.

Happiness Is Being With The Spinners Bass Tab

175 views 1 this week
no commentswrite comment
1 2 3 4 5
please rate
add to favorites launch autoscroll
font size
0
reset
Autoscroll
+/-
esc
set tempo
stop
Contributor
WARNING: You are trying to view
                                    content from Ultimate-Guitar.com
                                    in an unauthorized application,
                                    which is prohibited.

                                    Please use an official Ultimate
                                    Guitar Tabs application for iPhone,
                                    iPad or Android to access legitimate
                                    chords, guitar, bass, and drum tabs
                                    from Ultimate-Guitar.com database.

                                    Type "ultimate guitar tabs" in Apple
                                    App Store's or Android Market's
                                    search to find the application.
------------------------------------
Happiness Is Being With the Spinners
------------------------------------
The Spinners
Bass Tabs
Bass played by Bob Babbitt

Track Listing

1. Now That We're Together (T.G. Conway, Theodore Life, Phil Terry)
2. You're All I Need in Life (Thom Bell, Linda Creed)
3. If You Can't Be in Love (Bruce Hawes, Joseph P. Jefferson, Charles Simmons)
4. The Rubberband Man (Bell, Creed)

5. Toni My Love (Hawes, Jefferson, Simmons)
6. Four Hands in the Fire (Hawes, Jefferson, Simmons)
7. The Clown (M. Burton)
8. Wake Up Susan (Sherman Marshall)


-----------------------
Now That We're Together
-----------------------

180BPM, 4/4

Intro

|---------|---------|
|---------|---------|
|---------|---------|
|---------|---------|

|-----------|---------|----------|-----------|
|-----------|---------|----------|-----------|
|-6------5--|---------|-3--------|-----5--5--|
|-----------|---------|----------|-----------|

|-----------|---------|-----------|-----------|
|-----------|---------|-----------|-----------|
|-6------5--|---------|-3----1----|-----------|
|-----------|---------|-----------|-3----1----|

|-----------|---------|----------|-----------|
|-----------|---------|----------|-----------|
|-6------5--|---------|-3--------|-----5--5--|
|-----------|---------|----------|-----------|

|-----------|---------|-----------|----------|
|-----------|---------|-----------|----------|
|-6------5--|---------|--------5--|-------5--|
|-----------|---------|-5---------|----------|

|----------|---------|
|----------|---------|
|----------|---------|
|-3--------|---------|

Verse

|-----------|------------|-----------|-------------|
|-----------|------------|-----------|-------------|
|-----------|------------|-6--6------|-------5--5--|
|-3--3------|-6--6----6--|-----------|-5--5--------|

|-----------|------------|-----------|------------|
|-----------|------------|-----------|------------|
|-----------|------------|-6--6------|------5--6--|
|-3--3------|-6--6----6--|-----------|-5----------|

|------------|-----------|------------|------------|
|------------|-----------|------------|------------|
|-5-------3--|-----------|-5-------3--|------------|
|------3-----|---3--3----|------3-----|---3--3--3--|

|-----------|-----------|-----------|------------|
|-----------|-----------|-5--5------|------------|
|-6--6------|-3--3------|-----------|------------|
|-----------|-----------|-----------|-3--3----3--|

Verse

|-------------|-------------|------------|-------------|
|-------------|-------------|------------|-------------|
|-3--3----3-5-|-6--6--6--6--|------------|-5--5--------|
|-------------|-------------|-4--4----4--|-------3--3--|

|-------------|------------|------------|-------------|
|-------------|------------|------------|-------------|
|-3--3----3-5-|-6--6----6--|------------|-5--5--------|
|-------------|------------|-4--4----4--|-------3--3--|

|------------|-----------|------------|-----------|
|---------3--|-----------|---------3--|-----------|
|-6----3-----|---4--4----|-6----3-----|---4--4----|
|------------|-----------|------------|-----------|

|-------------|-----------|------------|------------|
|-------------|-----------|------------|------------|
|-------------|-----------|---------6--|---6--6--6--|
|-4--4----4-3-|-1--1------|-1--1-------|------------|

|-------------|-----------|-------------|
|-------------|-----------|-------------|
|-6--6--6--6--|---6--6----|-6--6--6--6--|
|-------------|-----------|-------------|

Chorus

|-------------|-------------|-------------|-------------|
|-------------|-------------|-------------|-------------|
|-4--4--4--4--|-3--3--3--3--|-1--1--1--1--|-1--1--3--3--|
|-------------|-------------|-------------|-------------|

|-------------|-------------|-------------|-------------|
|-------------|-------------|-------------|-------1--1--|
|-4--4--4--4--|-3--3--3--3--|-1--1--------|---3---------|
|-------------|-------------|-------4--4--|-1--1--------|

|-------------|-------------|-------------|-------------|
|-------------|-------------|-------------|-------------|
|-4--4--4--4--|-3--3--3--3--|-1--1--1--1--|-1--1--1--3--|
|-------------|-------------|-------------|---------4---|

|-------------|-------------|-------------|-------------|
|-------------|-------------|-5--5--5--5--|-------------|
|-4--4--4--4--|-3--3--3--3--|-------------|-------------|
|-------------|-------------|-------------|-3--3--3--3--|

Verse

|-------------|-------------|------------|-------------|
|-------------|-------------|------------|-------------|
|-3--3----3-5-|-6--6----6---|------------|-5--5--------|
|-------------|-----------6-|-4--4----4--|-------3--3--|

|-------------|------------|------------|-------------|
|-------------|------------|------------|-------------|
|-3--3----3-5-|-6--6-------|------------|-5--5--------|
|-------------|----------6-|-4--4----4--|-------3--3--|

|------------|-----------|------------|------------|
|---------3--|-----------|---------3--|------------|
|-6----3-----|---4--4----|-6----3-----|---4----3---|
|------------|-----------|------------|----------6-|

|-------------|-----------|------------|------------|
|-------------|-----------|------------|------------|
|-------------|-----------|---------6--|---6--6--6--|
|-4--4----4-3-|-1--1------|-1--1-------|------------|

|-------------|------------|---------|
|-------------|------------|---------|
|-6--6--6--6--|-6--6--6----|---------|
|-------------|------------|---------|

Chorus

|-------------|-------------|-------------|-------------|
|-------------|-------------|-------------|-------------|
|-4--4--4--4--|-3--3--3--3--|-1--1--1--1--|-1--1--3--3--|
|-------------|-------------|-------------|-------------|

|-------------|-------------|-------------|-------------|
|-------------|-------------|-------------|-------1--1--|
|-4--4--4--4--|-3--3--3--3--|-1--1--------|---3---------|
|-------------|-------------|-------4--4--|-1--1--------|

|-------------|-------------|-------------|-------------|
|-------------|-------------|-------------|-------------|
|-4--4--4--4--|-3--3--3--3--|-1--1--1--1--|-1--1--1--3--|
|-------------|-------------|-------------|---------4---|

|-------------|-------------|-------------|-------------|
|-------------|-------------|-------------|-------1--1--|
|-4--4--4--4--|-3--3--3--3--|-1--1--------|-------------|
|-------------|-------------|-------4--4--|-1--1--------|

|-------------|-------------|-------------|-------------|
|-------------|-------------|-------------|-------1-----|
|-4--4--4--4--|-3--3--3--3--|-1--1--------|---------13--|
|-------------|-------------|-------4--4--|-1--1--------|

|-------------|-------------|-------------|-------------|
|-------------|-------------|-------------|-------1--1--|
|-4--4--4--4--|-3--3--3--3--|-1--1--------|---3---------|
|-------------|-------------|-------4--4--|-1--1--------|

|-------------|-------------|-------------|-------------|
|-------------|-------------|-------------|-------1-----|
|-4--4--4--4--|-3--3--3--3--|-1--1--------|---------13--|
|-------------|-------------|-------4--4--|-1--1--------|

|-------------|-------------|-------------|-------------|
|-------------|-------------|-------------|-------1--1--|
|-4--4--4--4--|-3--3--3--3--|-1--1--------|---3---------|
|-------------|-------------|-------4--4--|-1--1--------|

|-------------|-------------|-------------|-------------|
|-------------|-------------|-------------|-------1--1--|
|-4--4--4--4--|-3--3--3--3--|-1--1--------|-------------|
|-------------|-------------|-------4--4--|-1--1--------|

|----------|----------|---------|---------|
|----------|----------|---------|---------|
|-4--------|----------|---------|---------|
|----------|-------4--|---------|---------|

Ending

|-------------|-------------|-------------|-------------|
|-------------|-------------|-------------|-------1-----|
|-4--4--4--4--|-3--3--3--3--|-1--1--------|---------13--|
|-------------|-------------|-------4--4--|-1--1--------|

|-------------|-------------|-------------|-------------|
|-------------|-------------|-------------|-------1--1--|
|-4--4--4--4--|-3--3--3--3--|-1--1--------|---3---------|
|-------------|-------------|-------4--4--|-1--1--------|

|-------------|-------------|-------------|-------------|
|-------------|-------------|-------------|-------1-----|
|-4--4--4--4--|-3--3--3--3--|-1--1--------|---------13--|
|-------------|-------------|-------4--4--|-1--1--------|

|----------|---------|------------|-------------|
|----------|---------|------------|-------------|
|-4--------|---------|------------|-------------|
|----------|---------|---4--4--4--|-4--4--4--4--|

|----------|-----------|---------|---------*|
|----------|-----------|---------|---------*|
|-4--------|---3--3----|---------|---------*|
|----------|-----------|---------|---------*|


-------------------------
You're All I Need in Life
-------------------------

192BPM, 4/4

Intro

|----------|---------|----------|---------|
|----------|---------|----------|---------|
|-1--------|---------|-3--------|---------|
|----------|---------|----------|---------|

|----------|---------|----------|-----------|
|----------|---------|----------|-2----4----|
|-3--------|---------|-5--------|-----------|
|----------|---------|----------|-----------|

||-------------|---------|------------|---------|
||o------------|---------|------------|---------|
||o-1---1------|---------|-3---3------|---------|
||----1--------|---------|---3--------|---------|

|------------|---------|-------------|------------||
|------------|---------|-------------|-2----4----o||
|-3---3------|---------|-5--5--5--5--|-----------o||
|---3--------|---------|-------------|------------||

|-------------|-------------|----------|----------|
|-------------|-------------|----------|----------|
|-------------|-------------|----------|-3--------|
|-5--5--5--5--|-5--5--5--5--|-3--------|----------|

Verse

|-----------|------------|---------|-----------|
|-----------|------------|---------|-----------|
|-----------|------------|---------|---5-------|
|-1------1--|-3--5----6--|---------|--------3--|

|----------|----------|----------|------------|
|----------|-------1--|-1--------|---1--1-----|
|----------|----------|----------|------------|
|-------1--|----------|----------|---------3--|

|----------|----------|----------|----------|
|----------|-------1--|-1--------|----------|
|----------|----------|----------|----------|
|-------1--|----------|----------|-------1--|

|-----------|------------|---------|-------------|
|-----------|------------|---------|-------------|
|-----------|------3--3--|---------|-3--3--3--3--|
|-1------1--|-1----------|---------|-------------|

|-----------|------------|---------|-----------|
|-----------|------------|---------|-----------|
|-----------|------------|---------|---5-------|
|-1------1--|-3--5----6--|---------|--------3--|

|----------|----------|----------|------------|
|----------|-------1--|-1--------|---1--1-----|
|----------|----------|----------|------------|
|-------1--|----------|----------|---------3--|

|----------|----------|----------|-------------|
|----------|-------1--|-1--------|-1--1--1-----|
|----------|----------|----------|-------------|
|-------1--|----------|----------|----------1--|

|----------|-----------|-----------|-----------|
|----------|-----------|-----------|-----------|
|----------|-----------|-1---------|-3---------|
|-------1--|-1------1--|--------3--|--------4--|

Chorus

|------------|------------|------------|--------------|
|------------|------------|------------|--------------|
|-4----------|-4----------|-6----------|-6---------6--|
|--------4-6-|------6--4--|--------6-8-|---8-6--8-----|

|-----------|-------------|------------|-----------|
|-----------|-------------|------------|-----------|
|-----------|-6--3--------|------------|--------4--|
|-------6-8-|-------4--1--|---1--1--3--|---4-------|

|------------|------------|------------|-------------|
|------------|------------|------------|-------------|
|-4----------|-4-------8--|-6----------|-6--------6--|
|--------4-6-|------6-----|--------6-8-|----6--8-----|

|-----------|-------------|------------|-----------|
|-----------|-------------|------------|-----------|
|-----------|-6--3--------|------------|--------3--|
|-------6-8-|-------4--1--|---1--1--3--|---5-------|

|-------------|-------------|----------|---------------|
|-------------|-------------|----------|--------8s10---|
|-3--3--3--3--|-3--3--3--3--|-4--------|-6s8s6---------|
|-------------|-------------|----------|---------------|

Verse

|-----------|------------|---------|-----------|
|-----------|------------|---------|-----------|
|-----------|------------|---------|---5-------|
|-1------1--|-3--5----6--|---------|--------3--|

|----------|----------|---------|------------|
|----------|-------1--|---------|---1--1-----|
|----------|----------|---------|------------|
|-------1--|----------|---------|---------3--|

|----------|----------|----------|----------|
|----------|-------1--|-1--------|----------|
|----------|----------|----------|----------|
|-------1--|----------|----------|-------1--|

|----------|------------|-----------|-------------|
|----------|------------|-----------|-------------|
|----------|------3--3--|---3--3----|-3--3--3--3--|
|-------1--|-1----------|-----------|-------------|

|----------|------------|----------|-----------|
|----------|------------|----------|-----------|
|----------|------------|----------|---5-------|
|-------1--|-3--5----6--|-6--------|--------3--|

|----------|----------|----------|------------|
|----------|-------1--|-1--------|---1--1-----|
|----------|----------|----------|------------|
|-------1--|----------|----------|---------3--|

|----------|----------|----------|-------------|
|----------|-------1--|-1--------|-1--1--1-----|
|----------|----------|----------|-------------|
|-------1--|----------|----------|----------1--|

|----------|-----------|-----------|-----------|
|----------|-----------|-----------|-----------|
|----------|-----------|-1---------|-3---------|
|-------1--|-1------1--|--------3--|--------4--|

Chorus

|------------|------------|------------|-------------|
|------------|------------|------------|-------------|
|-4----------|-4----------|-6----------|-6--------6--|
|--------4-6-|------6--4--|--------6-8-|----6--8-----|

|-----------|-------------|------------|-----------|
|-----------|-------------|------------|-----------|
|-----------|-6--3--------|------------|--------4--|
|-------6-8-|-------4--1--|---1--1--3--|---4-------|

|------------|------------|------------|-------------|
|------------|------------|------------|-------------|
|-4----------|-4-------8--|-6----------|-6--------6--|
|--------4-6-|------6-----|--------6-8-|----6--8-----|

|-----------|-------------|----------|-----------|
|-----------|-------------|----------|-----------|
|-----------|-6--3--------|----------|--------4--|
|-------6-8-|-------4--1--|-------3--|---4-------|

Break

|------------|--------------|------------|--------------|
|------------|--------------|------------|--------------|
|-4---4------|-------4--4---|-6---6------|-------6---6--|
|---4--------|---4-6------6-|---6--------|---6-8---8----|

|------------|-------------|-----------|-----------|
|------------|-------------|-----------|-----------|
|-6---6------|-------6-----|-6---------|------3----|
|---8--------|---6-8----8--|--------1--|-4---------|

|------------|--------------|------------|-------------|
|------------|--------------|------------|-------------|
|-4---4------|-------4--4---|-6---6------|-------6-----|
|---4--------|---4-6------6-|---6--------|---6-8----8--|

|------------|------------|-----------|-----------|
|------------|------------|-----------|-----------|
|-6---6------|------------|-----------|------3----|
|---6--------|---8--6--4--|-1------1--|-4---------|

Chorus

|------------|------------|------------|------------|
|------------|------------|------------|------------|
|-4----------|-4----------|-6----------|-6----------|
|--------4-6-|------6--4--|--------6-8-|----6--8----|

|-----------|-------------|------------|-----------|
|-----------|-6---6-------|------------|-----------|
|-6-----6-8-|---8---------|------------|---3----4--|
|-----------|----------1--|---1--1--4--|-----------|

|------------|------------|------------|-------------|
|------------|------------|------------|-------------|
|-4----------|-4-------8--|-6----------|-6--------6--|
|--------4-6-|------6-----|--------6-8-|----6--8-----|

|-----------|------------|----------|----------|
|-----------|-6---6------|----------|----------|
|-------6-8-|---8--------|----------|-------4--|
|-----------|------------|---1------|----------|

|------------|------------|------------|------------|
|------------|------------|------------|------------|
|-4----------|-4-------8--|-6----------|-6----------|
|--------4-6-|------6-----|--------6-8-|----6--8----|

|-----------|------------|------------|-----------|
|-----------|------------|------------|-----------|
|-----------|-6--3-------|------------|--------4--|
|-------6-8-|-------4----|---1--1--3--|---4-------|

|------------|------------|------------|-------------|
|------------|------------|------------|-------------|
|-4----------|-4-------8--|-6----------|-6--------6--|
|--------4-6-|------6-----|--------6-8-|----6--8-----|

|-----------|-------------|------------|-----------|
|-----------|-6---6-------|------------|-----------|
|-------6-8-|---8---------|------------|--------4--|
|-----------|----------1--|---1--1--3--|---4-------|

|------------|------------|------------|------------|
|------------|------------|------------|------------|
|-4----------|-4-------8--|-6---6------|------6-----|
|--------4-6-|------6-----|---6--------|---8-----8--|

|----------|------------|------------|-----------|
|----------|---------3--|------------|-----------|
|-6--------|---3--------|------------|--------4--|
|----------|------4-----|---1--1--3--|---4-------|

|------------|------------|------------|-------------|
|------------|------------|------------|-------------|
|-4----------|-4-------8--|-6----------|-6--------6--|
|--------4-6-|------6-----|--------6-8-|----6--8-----|

|----------|-------------|------------|-----------|
|----------|-6---6-------|------------|-----------|
|-------6--|---8---------|------------|--------4--|
|----------|----------1--|---1--1--3--|---4-------|

|------------|------------|------------|-------------|
|------------|------------|------------|-------------|
|-4----------|-4-------8--|-6----------|-6--------6--|
|--------4-6-|------6-----|--------6-8-|----6--8-----|

|-----------|-------------|------------|-----------|
|-----------|-------------|------------|-----------|
|-----------|-6--3--------|------------|--------4--|
|-------6-8-|-------4--1--|---1--1--3--|---4-------|

|------------|------------|------------|-------------|
|------------|------------|------------|-------------|
|-4----------|-4-------8--|-6----------|-6--------6--|
|--------4-6-|------6-----|--------6-8-|----6--8-----|

|-----------|-------------|------------|-----------|
|-----------|-6---6-------|------------|-----------|
|-------6-8-|---8---------|------------|--------4--|
|-----------|----------1--|---1--1--3--|---4-------|

|------------|------------|------------|-------------|
|------------|------------|------------|-------------|
|-4----------|-4-------8--|-6----------|-6--------6--|
|--------4-6-|------6-----|--------6-8-|----6--8-----|

|-----------|-------------|------------|-----------|
|-----------|-6---6-------|------------|-----------|
|-------6-8-|---8---------|------------|--------4--|
|-----------|----------1--|---1--1--3--|---4-------|

|------------|------------|----------*|
|------------|------------|----------*|
|-4----------|-4-------8--|-6--------*|
|--------4-6-|------6-----|----------*| fade


-----------------------
If You Can't Be in Love
-----------------------

152BPM, 4/4

Intro

|-------/10--8--|---------|--------/15--14--|---------|
|----8----------|---------|----10-----------|---------|
|-6-------------|---------|-8---------------|---------|
|---------------|---------|-----------------|---------|
                           3/4
|-------/10--8--|---------|--------|----------|
|----8----------|---------|--------|----------|
|-6-------------|---------|-8------|-10----8--|
|---------------|---------|--------|----------|
 4/4
|-------/10--8--|---------|--------/15--14--|---------|
|----8----------|---------|----10-----------|---------|
|-6-------------|---------|-8---------------|---------|
|---------------|---------|-----------------|---------|
                           3/4
|-------/10--8--|---------|--------|----------|
|----8----------|---------|--------|----------|
|-6-------------|---------|-8------|-10----8--|
|---------------|---------|--------|----------|
                    2/4   4/4
|---------|--------|-----|----------|
|---------|--------|-----|----------|
|-6----5--|-3------|-----|----------|
|---------|--------|-----|-1--------|

Verse

|-----------|-----------|-----------|-----------|
|-----------|-----------|-----------|-----------|
|-1------3--|-5---------|-3------3--|-----------|
|-----------|------3----|-----------|-1------1--|

|----------|----------|-----------|-----------|
|----------|-----3----|-1------1--|-1------1--|
|----------|----------|-----------|-----------|
|-3--------|----------|-----------|-----------|

|-----------|------------|-----------|----------|
|-----------|----------3-|-5---------|----------|
|-5------5--|-5------5---|--------3--|-------6--|
|-----------|------------|-----------|----------|

|-------------|-----------|-----------|-----------|
|-------------|------3----|-----------|-----------|
|-5--5--5--5--|-6---------|-3------3--|-----------|
|-------------|-----------|-----------|-1------1--|

|-----------|-----------|-----------|-----------|
|-----------|-----------|-----------|-----------|
|-1------3--|-5---------|-3------3--|-----------|
|-----------|------3----|-----------|-1------1--|

|----------|----------|-----------|-----------|
|----------|-----3----|-1------1--|-1------1--|
|----------|----------|-----------|-----------|
|-3--------|----------|-----------|-----------|

|-----------|------------|-----------|----------|
|-----------|----------3-|-----------|----------|
|-5------5--|-5------5---|--------3--|-------6--|
|-----------|------------|-3---------|----------|

|-------------|-----------|
|-------------|-----------|
|-5--5--5--5--|-3---------|
|-------------|------1----|

Chorus

|-----------|-----------|-----------|------------|
|-----------|-----------|-----------|------------|
|-1------1--|-1---------|-5------5--|-5------3-5-|
|-----------|--------3--|-----------|------------|
 3/4                          4/4
|--------|--------|----------|-----------|
|--------|--------|----------|-3---------|
|-6------|-3------|-3--5--6--|-----------|
|--------|--------|----------|--------1--|
             3/4
|-----------|---------|-----------|------------|
|-----------|---------|-----------|----------3-|
|-1------1--|-1-------|-5------5--|-5------5---|
|-----------|------3--|-----------|------------|
 3/4
|--------|---------|--------|
|--------|---------|--------|
|-6------|-3-------|--------|
|--------|------6--|-4------|
 4/4
|----------|---------|---------|-----------|
|----------|---------|---------|-----------|
|-4--------|---------|---------|-----4-4---|
|----------|---------|---------|-----------|

Verse/Solo

|------------/12--|-10--------|
|--------12-------|-----------|
|----10-----------|-----------|
|-8---------------|-----------|

|-----------|-----------|-----------|-----------|
|-----------|-----------|-----------|-----------|
|-1------3--|-5---------|-3------3--|-----------|
|-----------|------3----|-----------|-1------1--|

|----------|----------|-----------|-----------|
|----------|-----3----|-1------1--|-1------1--|
|----------|----------|-----------|-----------|
|-3--------|----------|-----------|-----------|

|-----------|------------|-----------|----------|
|-----------|----------3-|-5---------|----------|
|-5------5--|-5------5---|--------3--|-------6--|
|-----------|------------|-----------|----------|

|-------------|-----------|-----------|-----------|
|-------------|------3----|-----------|-----------|
|-5--5--5--5--|-6---------|-3------3--|-----------|
|-------------|-----------|-----------|-1------1--|

|-----------|-----------|-----------|-----------|
|-----------|-----------|-----------|-----------|
|-1------3--|-5---------|-3------3--|-----------|
|-----------|------3----|-----------|-1------1--|

|----------|----------|-----------|-----------|
|----------|-----3----|-1------1--|-1------1--|
|----------|----------|-----------|-----------|
|-3--------|----------|-----------|-----------|

|-----------|------------|-----------|----------|
|-----------|----------3-|-----------|----------|
|-5------5--|-5------5---|--------3--|-------6--|
|-----------|------------|-3---------|----------|

|-------------|-----------|
|-------------|-----------|
|-5--5--5--5--|-3---------|
|-------------|------1----|

Chorus/Ending

||------------|-----------|-----------|------------|
||o-----------|-----------|-----------|------------|
||o-1------1--|-1---------|-5------5--|-5------5-5-|
||------------|--------3--|-----------|------------|
 3/4                          4/4
|--------|--------|----------|-----------|
|--------|--------|----------|-3---------|
|-6------|-3------|-3--5--6--|-----------|
|--------|--------|----------|--------1--|
             3/4
|-----------|---------|-----------|------------|
|-----------|---------|-----------|----------3-|
|-1------1--|-1-------|-5------5--|-5------5---|
|-----------|------3--|-----------|------------|

|--------|--------|----------|------------||
|--------|--------|----------|-3---------o||
|-6------|-3------|-3--5--6--|-----------o||
|--------|--------|----------|--------1---||

|----------|---------|---------|---------*|
|----------|---------|---------|---------*|
|-1--------|---------|---------|---------*|
|----------|---------|---------|---------*|


------------------
The Rubberband Man
------------------

200BPM, 4/4

Intro

|---------|---------|---------|---------|
|---------|---------|---------|---------|
|---------|---------|---------|---------|
|---------|---------|---------|---------|
                                                           5x
||--------------|-------------|-------------|--------------||
||o-------------|-------------|-------------|-------------o||
||o-------------|-------------|-------------|-------------o||
||--1--1--1--1--|-1--1--1--1--|-1--1--1--1--|-1--1--1--1---||

|----------|---------|-------------|-------------|
|----------|---------|-------------|-------------|
|----------|---------|-------------|-------------|
|-1--------|---------|-1--1--1--1--|-1--1--1--1--|

|----------|-----------|-----------|------------|
|----------|-----------|-----------|-------3----|
|----------|-----------|-----------|--3-5-------|
|-1--------|-------1-1-|-------1-1-|------------|

|--------------|------------|
|--------------|------1-2-3-|
|--------------|------------|
|-1--1--1--1-1-|------------|

Verse

|------------|-------------|-------------|--------------|
|---3--3--3--|-3--3--3--3--|-3--3--3--3--|-3--3---1-2-3-|
|------------|-------------|-------------|--------------|
|------------|-------------|-------------|--------------|

|------------|-------------|-------------|-------------|
|---3--3--3--|-3--3--3--3--|-3--3--3--3--|-3--3--3--3--|
|------------|-------------|-------------|-------------|
|------------|-------------|-------------|-------------|

|-------------|-------------|-------------|-------------|
|-x--3--3--3--|-3--3--3--3--|-3--3--3--3--|-3--3--3--3--|
|-------------|-------------|-------------|-------------|
|-------------|-------------|-------------|-------------|

|-------------|-------------|-------------|-------------|
|-3--3--3--3--|-3--3--3--3--|-------------|-------------|
|-------------|-------------|-------------|-------------|
|-------------|-------------|-1--1--1--1--|-1--1--4--4--|

Chorus

|-------------|--------------|--------------|---------5---5-|
|-------------|--------------|--------------|-----------5---|
|-4--4--4--4--|--------------|-6--6--6--6-6-|-6--6--3-------|
|-------------|-4--4--4--4-4-|--------------|---------------|

|-------------|-------------|-------------|---------5---5-|
|-------------|-------------|-------------|-----------5---|
|-4--4--4--4--|-------------|-6--6--6--6--|-6--6--3-------|
|-------------|-4--4--4--4--|-------------|---------------|

|-------------|-------------|-------------|---------------|
|-------------|-------------|-------------|---3--3-3--1-1-|
|-4--4--4--4--|-------------|-6--6--6--6--|-6-------------|
|-------------|-4--4--4--4--|-------------|---------------|

|---------------|-----------|---------------|-----------|
|-1-3-3--3------|-------1-1-|-1-3-3--3------|-------1-1-|
|---------------|-----------|---------------|-----------|
|-----------1-1-|-----------|-----------1-1-|-----------|

|---------------|-----------|---------------|------------|
|-1-3-3--3------|-------1-1-|-1-3-3--3------|------1-2-3-|
|---------------|-----------|---------------|------------|
|-----------1-1-|-----------|-----------1-1-|------------|

Verse

|-------------|-------------|-------------|--------------|
|-x--3--3--3--|-3--3--3--3-3|-3--3--3--3--|-3--3---1-2-3-|
|-------------|-------------|-------------|--------------|
|-------------|-------------|-------------|--------------|

|-------------|-------------|-------------|-------------|
|-3--3--3--3--|-3--3--3--3--|-3--3--3--3--|-3--3--3--3--|
|-------------|-------------|-------------|-------------|
|-------------|-------------|-------------|-------------|

|-------------|-------------|------------|-------------|
|-3--3--3--3--|-3--3--3--3--|---3--3--3--|-3--3--3--3--|
|-------------|-------------|------------|-------------|
|-------------|-------------|------------|-------------|

|-------------|-------------|--------------|-------------|
|-3--3--3--3--|-3--3--3--3--|--------------|-------------|
|-------------|-------------|--------------|-------------|
|-------------|-------------|-1--1--1--1-1-|-1--1--4--4--|

Chorus

|-------------|-------------|-------------|---------5---5-|
|-------------|-------------|-------------|-----------5---|
|-4--4--4--4--|-------------|-6--6--6--6--|-6--6--3-------|
|-------------|-4--4--4--4--|-------------|---------------|

|-------------|-------------|-------------|---------5---5-|
|-------------|-------------|-------------|-----------5---|
|-4--4--4--4--|-------------|-6--6--6--6-6|-6--6--3-------|
|-------------|-4--4--4--4--|-------------|---------------|

|-------------|-------------|-------------|---------------|
|-------------|-------------|-------------|---3--3-3--1-1-|
|-4--4--4--4--|-------------|-6--6--6--6--|-6-------------|
|-------------|-4--4--4--4--|-------------|---------------|

|---------------|-----------|---------------|-----------|
|-1-3-3--3------|-------1-1-|-1-3-3--3------|-------1-1-|
|---------------|-----------|---------------|-----------|
|-----------1-1-|-----------|-----------1-1-|-----------|

|---------------|-----------|---------------|----------|
|-1-3-3--3------|-------1-1-|-1-3-3--3------|----------|
|---------------|-----------|---------------|----------|
|-----------1-1-|-----------|-----------1-1-|-------1--|

Break

|----------|---------|-------------|--------------|
|----------|---------|-------------|--------------|
|----------|---------|-------------|--------------|
|-1--------|---------|-1--1--1--1--|-1--1--1--1-1-|

|----------|---------|--------------|------------|
|----------|---------|--------------|------------|
|----------|---------|--------------|------------|
|-1--------|---------|-1--1--1--1-1-|---1--1--1--|

|----------|-----------|-----------|------------|
|----------|-----------|-----------|-------3----|
|----------|-----------|-----------|--3-5-------|
|-1--------|-------1-1-|-------1-1-|------------|

|--------------|------------|
|--------------|---------3--|
|--------------|-----35-3---|
|-1--1--1--1-1-|---5--------|

Chorus

|-------------|--------------|--------------|---------5---5-|
|-------------|--------------|--------------|-----------5---|
|-4--4--4--4--|--------------|-6--6--6--6-6-|-6--6--3-------|
|-------------|-4--4--4--4-4-|--------------|---------------|

|-------------|-------------|-------------|---------5-----|
|-------------|-------------|-------------|---------------|
|-4--4--4--4--|-------------|-6--6--6--6--|-6--6--3---6-3-|
|-------------|-4--4--4--4--|-------------|---------------|

|-------------|-------------|-------------|---------------|
|-------------|-------------|-------------|---3--3-3--1-1-|
|-4--4--4--4--|-------------|-6--6--6--6--|-6-------------|
|-------------|-4--4--4--4--|-------------|---------------|

|---------------|-----------|---------------|-----------|
|-1-3-3--3------|-------1-1-|-1-3-3--3------|-------1-1-|
|---------------|-----------|---------------|-----------|
|-----------1-1-|-----------|-----------1-1-|-----------|

|---------------|-----------|---------------|----------|
|-1-3-3--3------|-------1-1-|-1-3-3--3------|----------|
|---------------|-----------|---------------|----------|
|-----------1-1-|-----------|-----------1-1-|-------1--|

Break

|----------|---------|-------------|-------------|
|----------|---------|-------------|-------------|
|----------|---------|-------------|-------------|
|-1--------|---------|-1--1--1--1--|-1--1--1--1--|

|----------|---------|-------------|------------|
|----------|---------|-------------|------------|
|----------|---------|-------------|------------|
|-1--------|---------|-1--1--1--1--|---1--1--1--|

|----------|-----------|-----------|------------|
|----------|-----------|-----------|-------3----|
|----------|-----------|-----------|--3-5-------|
|-1--------|-------1-1-|-------1-1-|------------|

|--------------|------------|
|--------------|---------3--|
|--------------|-----35-3---|
|-1--1--1--1-1-|---5--------|

Chorus

|-------------|--------------|-------------|---------5---5-|
|-------------|--------------|-------------|-----------5---|
|-4--4--4--4--|--------------|-6--6--6--6--|-6--6--3-------|
|-------------|-4--4--4--4-4-|-------------|---------------|

|-------------|-------------|--------------|---------5-----|
|-------------|-------------|--------------|---------------|
|-4--4--4--4--|-------------|-6--6--6--6-6-|-6--6--3---6-3-|
|-------------|-4--4--4--4--|--------------|---------------|

|-------------|-------------|-------------|---------------|
|-------------|-------------|-------------|---3--3-3--1-1-|
|-4--4--4--4--|-------------|-6--6--6--6--|-6-------------|
|-------------|-4--4--4--4--|-------------|---------------|

|---------------|-----------|---------------|-----------|
|-1-3-3--3------|-------1-1-|-1-3-3--3------|-------1-1-|
|---------------|-----------|---------------|-----------|
|-----------1-1-|-----------|-----------1-1-|-----------|

|---------------|-----------|---------------|----------|
|-1-3-3--3------|-------1-1-|-1-3-3--3------|----------|
|---------------|-----------|---------------|----------|
|-----------1-1-|-----------|-----------1-1-|-------1--|

Break

|----------|---------|-------------|-------------|
|----------|---------|-------------|-------------|
|----------|---------|-------------|-------------|
|-1--------|---------|-1--1--1--1--|-1--1--1--1--|

|----------|---------|--------------|------------|
|----------|---------|--------------|------------|
|----------|---------|--------------|------------|
|-1--------|---------|-1--1--1--1-1-|---1--1--1--|

|----------|-----------|-----------|------------|
|----------|-----------|-----------|-------3----|
|----------|-----------|-----------|--3-5-------|
|-1--------|-------1-1-|-------1-1-|------------|

|--------------|------------|
|--------------|---------3--|
|--------------|-----35-3---|
|-1--1--1--1-1-|---5--------|

Chorus

|-------------|-------------|-------------|---------5---5-|
|-------------|-------------|-------------|-----------5---|
|-4--4--4--4--|-------------|-6--6--6--6--|-6--6--3-------|
|-------------|-4--4--4--4--|-------------|---------------|

|-------------|-------------|--------------|---------5---5-|
|-------------|-------------|--------------|-----------5---|
|-4--4--4--4--|-------------|-6--6--6--6-6-|-6--6--3-------|
|-------------|-4--4--4--4--|--------------|---------------|

|-------------|-------------|-------------|---------------|
|-------------|-------------|-------------|---3--3-3--1-1-|
|-4--4--4--4--|-------------|-6--6--6--6--|-6-------------|
|-------------|-4--4--4--4--|-------------|---------------|

|--------------|-----------|--------------|-----------|
|-1--3--3------|-------1-1-|-1--3--3------|-------1-1-|
|--------------|-----------|--------------|-----------|
|----------1-1-|-----------|----------1-1-|-----------|

|---------------|-----------|---------------|-----------|
|-1-x-3--3------|-------1-1-|-1-x-3--3------|-----------|
|---------------|-----------|---------------|-----------|
|-----------1-1-|-----------|-----------1-1-|-------1-1-|

Break

|----------|---------|-------------|--------------|
|----------|---------|-------------|--------------|
|----------|---------|-------------|--------------|
|-1--------|---------|-1--1--1--1--|-1--1--1--1-1-|

|----------|---------|--------------|--------------|
|----------|---------|--------------|--------------|
|----------|---------|--------------|--------------|
|-1--------|---------|-1--1--1--1-1-|----1--1--1-1-|

|----------|-----------|-----------|------------|
|----------|-----------|-----------|-------3----|
|----------|-----------|-----------|--3-5-------|
|-1--------|-------1-1-|-------1-1-|------------|

|--------------|------------|
|--------------|---------3--|
|--------------|-----35-3---|
|-1--1--1--1-1-|---5--------|

Chorus

|-------------|--------------|-------------|---------5---5-|
|-------------|--------------|-------------|-----------5---|
|-4--4--4--4--|--------------|-6--6--6--6--|-6--6--3-------|
|-------------|-4--4--4--4-4-|-------------|---------------|

|-------------|-------------|-------------|---------5---5-|
|-------------|-------------|-------------|-----------5---|
|-4--4--4--4--|-------------|-6--6--6--6--|-6--6--3-------|
|-------------|-4--4--4--4--|-------------|---------------|

|-------------|-------------|-------------|---------------|
|-------------|-------------|-------------|---3--3-3--1-1-|
|-4--4--4--4--|-------------|-6--6--6--6--|-6-------------|
|-------------|-4--4--4--4--|-------------|---------------|

|---------------|-----------|---------------|-----------|
|-1-3-3--3------|-------1-1-|-1-3-3--3------|-------1-1-|
|---------------|-----------|---------------|-----------|
|-----------1-1-|-----------|-----------1-1-|-----------|

|---------------|-----------|---------------|----------|
|-1-3-3--3------|-------1-1-|-1-3-3--3------|----------|
|---------------|-----------|---------------|----------|
|-----------1-1-|-----------|-----------1-1-|-------1--|

Break

|----------|---------|-------------|--------------|
|----------|---------|-------------|--------------|
|----------|---------|-------------|--------------|
|-1--------|---------|-1--1--1--1--|-1--1--1--1-1-|

|----------|---------|--------------|--------------|
|----------|---------|--------------|--------------|
|----------|---------|--------------|--------------|
|-1--------|---------|-1--1--1--1-1-|-1--1--1--1-1-|

|----------|-----------|-----------|------------|
|----------|-----------|-----------|-------3----|
|----------|-----------|-----------|--3-5-------|
|-1--------|-------1-1-|-------1-1-|------------|

|--------------|------------|
|--------------|---------3--|
|--------------|-----35-3---|
|-1--1--1--1-1-|---5--------|

Chorus

|-------------|-------------|-------------|---------5---5-|
|-------------|-------------|-------------|-----------5---|
|-4--4--4--4--|-------------|-6--6--6--6--|-6--6--3-------|
|-------------|-4--4--4--4--|-------------|---------------|

|-------------|-------------|-------------|---------5-----|
|-------------|-------------|-------------|---------------|
|-4--4--4--4--|-------------|-6--6--6--6--|-6--6--3---6-3-|
|-------------|-4--4--4--4--|-------------|---------------|

|-------------|-------------|-------------|---------------|
|-------------|-------------|-------------|---3--3-3--1-1-|
|-4--4--4--4--|-------------|-6--6--6--6--|-6-------------|
|-------------|-4--4--4--4--|-------------|---------------|

|---------------|-----------|---------------|-----------|
|-1-3-3--3------|-------1-1-|-1-3-3--3------|-------1-1-|
|---------------|-----------|---------------|-----------|
|-----------1-1-|-----------|-----------1-1-|-----------|

|---------------|-----------|---------------|----------|
|-1-3-3--3------|-------1-1-|-1-3-3--3------|----------|
|---------------|-----------|---------------|----------|
|-----------1-1-|-----------|-----------1-1-|-------1--|

Break

|----------|---------|-------------|-------------|
|----------|---------|-------------|-------------|
|----------|---------|-------------|-------------|
|-1--------|---------|-1--1--1--1--|-1--1--1--1--|

|----------|---------|-------------|-------------|
|----------|---------|-------------|-------------|
|----------|---------|-------------|-------------|
|-1--------|---------|-1--1--1--1--|-1--1--1--1--|

|----------|-----------|-----------|------------|
|----------|-----------|-----------|-------3----|
|----------|-----------|-----------|--3-5-------|
|-1--------|-------1-1-|-------1-1-|------------|

|--------------|-----------|
|--------------|-----------|
|--------------|-------35--|
|-1--1--1--1-1-|-----5-----|

Chorus

|-------------|-------------|-------------|---------5---5-|
|-------------|-------------|-------------|-----------5---|
|-4--4--4--4--|-------------|-6--6--6--6--|-6--6--3-------|
|-------------|-4--4--4--4--|-------------|---------------|

|-------------|-------------|-------------|---------5---5-|
|-------------|-------------|-------------|-----------5---|
|-4--4--4--4--|-------------|-6--6--6--6--|-6--6--3-------|
|-------------|-4--4--4--4--|-------------|---------------|

|-------------|-------------|-------------|---------------|
|-------------|-------------|-------------|---3--3-3--1-1-|
|-4--4--4--4--|-------------|-6--6--6--6--|-6-------------|
|-------------|-4--4--4--4--|-------------|---------------|

|---------------|-----------|---------------|-----------|
|-1-3-3--3------|-------1-1-|-1-3-3--3------|-------1-1-|
|---------------|-----------|---------------|-----------|
|-----------1-1-|-----------|-----------1-1-|-----------|

|---------------|-----------|---------------|----------|
|-1-3-3--3------|-------1-1-|-1-3-3--3------|----------|
|---------------|-----------|---------------|----------|
|-----------1-1-|-----------|-----------1-1-|-------1--|

Break

|----------|---------|-------------|-------------|
|----------|---------|-------------|-------------|
|----------|---------|-------------|-------------|
|-1--------|---------|-1--1--1--1--|-1--1--1--1--|

|----------|---------|-------------|-------------|
|----------|---------|-------------|-------------|
|----------|---------|-------------|-------------|
|-1--------|---------|-1--1--1--1--|-1--1--1--1--|

|----------|-----------|-----------|------------|
|----------|-----------|-----------|-------3----|
|----------|-----------|-----------|--3-5-------|
|-1--------|-------1-1-|-------1-1-|------------|

|--------------|------------|
|--------------|---------3--|
|--------------|-----35-3---|
|-1--1--1--1-1-|---5--------|

Chorus

|------------|-------------|-------------|---------5-----|
|------------|-------------|-------------|---------------|
|---4--4--4--|-------------|-6--6--6--6--|-6--6--3---6-3-|
|------------|-4--4--4--4--|-------------|---------------|

|-------------|-------------|-------------|---------5---5-|
|-------------|-------------|-------------|-----------5---|
|-4--4--4--4--|-------------|-6--6--6--6--|-6--6--3-------|
|-------------|-4--4--4--4--|-------------|---------------|

|-------------|-------------|-------------|--------------|
|-------------|-------------|-------------|---3--3---1-1-|
|-4--4--4--4--|-------------|-6--6--6--6--|-6------------|
|-------------|-4--4--4--4--|-------------|--------------|

|---------------|-----------|---------------|-----------|
|-1-3-3--3------|-------1-1-|-1-3-3--3------|-------1-1-|
|---------------|-----------|---------------|-----------|
|-----------1-1-|-----------|-----------1-1-|-----------|

|---------------|-----------|---------------|----------|
|-1-3-3--3------|-------1-1-|-1-3-3--3------|----------|
|---------------|-----------|---------------|----------|
|-----------1-1-|-----------|-----------1-1-|-------1--|

Break

|----------|---------|-------------|-------------|
|----------|---------|-------------|-------------|
|----------|---------|-------------|-------------|
|-1--------|---------|-1--1--1--1--|-1--1--1--1--|

|----------|---------|--------------|--------------|
|----------|---------|--------------|--------------|
|----------|---------|--------------|--------------|
|-1--------|---------|-1--1--1--1-1-|-1--1--1--1-1-|

|----------|-----------|-----------|------------|
|----------|-----------|-----------|-------3----|
|----------|-----------|-----------|--3-5-------|
|-1--------|-------1-1-|-------1-1-|------------|

|--------------|---------*|
|--------------|---------*|
|--------------|---------*|
|-1--1--1--1-1-|---------*|


------------
Toni My Love
------------

120BPM, 4/4

Intro

|---------|
|--------2|
|---------|
|---------|

|------------|---------|------------|---------|
|--2--------2|--------2|--2--------2|--------2|
|---5--2--5--|---------|---5--2--5--|---------|
|------------|---------|------------|---------|

|-----------|-----------|------------|---------|
|--2-------2|--2-------2|--2---------|--------2|
|---5--2----|---5--2----|---5--252---|---------|
|-----------|-----------|---------3-0|---------|

|-----------|-----------|------------|---------|
|--2-------2|--2-------2|--2---------|---------|
|---5--2----|---5--2----|---5--252---|---------|
|-----------|-----------|---------3-0|---------|

Verse

|-----------|------------|----------|---------|
|-----------|--2---------|----------|---------|
|-----------|---2-------3|----------|---------|
|-0---0-----|-0--3-0-----|----5-----|---------|

|-----------|------------|----------|---------|
|--2--------|------------|----------|---------|
|---2-------|-----------3|----------|---------|
|----3-0----|-0---0------|----5-----|---------|

|-------------|------------|---------|------------|
|-------------|------------|-------2-|---2--2--2--|
|-3------25-3-|-------25-3-|---------|------------|
|-----3-------|----3-------|---------|------------|

|-------------|------------|---------|-------------|
|-------------|------------|---------|-------------|
|-3------25-3-|-------25-3-|---------|-555555555555|
|-----3-------|----3-------|---------|-------------|

Chorus

|-------------|-------------|--------------|-------------|
|-------------|-------------|--------------|-------------|
|-3--3--------|-----------52|-3--3-------5-|---5-2--5-2--|
|-------3--3--|-0--0--0--0--|-------5-05---|--5----------|

|-------------|-------------|-------------|------------|
|-------------|-------------|-------------|-2----------|
|-3--3--------|-----------2-|------35--5--|----5-------|
|-------3--3-2|-0--0--0--0-3|-5--5--------|------5-----|

|------------|
|-----------2|
|------35----|
|-5--5-------|

|------------|---------|-------------|---------|
|--2--------2|--------2|--2----------|---------|
|---5--2--5--|---------|---5--252----|---------|
|------------|---------|---------3-0-|---------|

Verse

|-----------|------------|----------|---------|
|-----------|--2---------|----------|---------|
|-----------|---2-------3|----------|---------|
|-0---0-----|-0--3-0-----|----5-----|---------|

|-----------|-----------|----------|---------|
|--2--------|-----------|----------|---------|
|---2-------|----------3|----------|---------|
|----3-0----|-0---0-----|----5-----|---------|

|-------------|------------|----------|------------|
|-------------|------------|--------2-|---2--2--2--|
|-3------25-3-|-------25-3-|----------|-----------5|
|-----3-------|----3-------|----------|------------|

|-------------|------------|---------|-------------|
|-------------|------------|---------|-------------|
|-3------25-3-|-------25-3-|---------|-555555555555|
|-----3-------|----3-------|---------|-------------|

Chorus

|-------------|-------------|--------------|-------------|
|-------------|-------------|--------------|-------------|
|-3--3--------|-----------52|-3--3-------5-|---5-2--5-2--|
|-------3--3--|-0--0--0--0--|-------5-05---|--5----------|

|-------------|-------------|-------------|------------|
|-------------|-------------|-------------|-2----------|
|-3--3--------|-----------2-|------35--5--|----5-------|
|-------3--3-2|-0--0--0--0-3|-5--5--------|------5-----|

|------------|------------|
|-----------2|--22222-----|
|------35----|----------2-|
|-5--5-------|--------5---|

|-------------|-------------|--------------|--------------|
|-------------|-------------|--------------|--------------|
|-3--3--------|-----------52|-3--3-------5-|----5-2--5-2--|
|-------3--3--|-0--0--0--0--|-------5-05---|---5----------|

|-------------|-------------|-------------|------------|
|-------------|-------------|-------------|-2----------|
|-3--3--------|-----------2-|------35--5--|----5-------|
|-------3--3-2|-0--0--0--0-3|-5--5--------|------5-----|

|-------------|------------|
|------------2|--22222-----|
|------35-----|----------2-|
|-5--5--------|--------5---|

Instrumental Break

|------------|-------------|--------------|-------------|
|------------|-------------|--------------|-------------|
|-3----------|-----------52|-3--3-------5-|---5-2--5-2--|
|------3--3-2|-0--0--0--0--|-------5-05---|--5----------|

|-------------|-------------|-------------|------------|
|-------------|-------------|-------------|-2----------|
|-3--3--------|-----------2-|------35--5--|----5-------|
|-------3--3-2|-0--0--0--0-3|-5--5--------|------5-----|

|-------------|----------|
|-----------2-|----------|
|------35-----|--------2-|
|-5--5--------|------5---|

Chorus/Ending

|-------------|-------------|--------------|-------------|
|-------------|-------------|--------------|-------------|
|-3--3-3------|-----------52|-3--3-------5-|---5-2--5-2--|
|-------3--3-2|-0--0--0--0--|-------5-05---|--5----------|

|-------------|-------------|-------------|------------|
|-------------|-------------|-------------|-2----------|
|-3--3--------|-----------2-|------35--5--|----5-------|
|-------3--3-2|-0--0--0--0-3|-5--5--------|------5-----|

|-------------|----------|
|-----------2-|----------|
|------35-----|--------2-|
|-5--5--------|------5---|

|-------------|-------------|--------------|-------------|
|-------------|-------------|--------------|-------------|
|-3--3-3------|-----------52|-3--3-------5-|---5-2--5-2--|
|-------3--3-2|-0--0--0--0--|-------5-05---|--5----------|

|-------------|-------------|-------------|------------|
|-------------|-------------|-------------|-2----------|
|-3--3-3------|-----------2-|------35--5--|----5-------|
|-------3--3-2|-0--0--0--0-3|-5--5--------|------5-----|

|-------------|
|-----------2-|
|------35-----|
|-5--5--------|


----------------------
Four Hands in the Fire
----------------------

160BPM, 4/4

Intro

|-----------|---------------|-----------|------------|
|-----------|---------------|-2--5------|--------5---|
|-----------|------2--2-5-5-|-----------|------5---5-|
|-3--3------|--3-5----------|-----------|------------|

|------------|-----------|------------|----------|
|----2-------|-----------|----2-------|----------|
|-3----------|---2----2--|-3----------|---5------|
|---------5--|-----------|---------5--|----------|

|-----------|---------------|-----------|------------|
|-----------|---------------|-2--5------|--------5---|
|-----------|------2--2-5-5-|-----------|------5---5-|
|-3--3------|--3-5----------|-----------|------------|

|------------|-----------|------------|-----------|
|----2-------|-----------|----2-------|-----------|
|-3----------|---2----2--|-3----------|---5----5--|
|---------5--|-----------|---------5--|-----------|

Verse


|-----------|---------------|-----------|------------|
|-----------|---------------|-2--5------|--------5---|
|-----------|------2--2-5-5-|-----------|------5---5-|
|-3--3------|--3-5----------|-----------|------------|

|------------|-----------|------------|----------|
|----2-------|-----------|----2-------|----------|
|-3----------|---2----2--|-3----------|---5------|
|---------5--|-----------|---------5--|----------|

|-----------|---------------|-----------|------------|
|-----------|---------------|-2--5------|--------5---|
|-----------|------2--2-5-5-|-----------|------5---5-|
|-3--3------|--3-5----------|-----------|------------|

|------------|-----------|------------|------------|
|----2-------|-----------|----2-------|------------|
|-3----------|---2----2--|-3----------|---5----3---|
|---------5--|-----------|---------5--|----------5-|

Pre-Chorus

|------------|-------------|------------|------------|
|------------|-------------|------------|------------|
|------------|-------------|-3--3-----3-|--3-3----3--|
|-3--3-----3-|--3-3----3-5-|------------|------------|

|-------------|------------|-------------|------------|
|----------0--|-1--1----1--|-2-----------|------------|
|-2--2---4----|------------|---2---------|------------|
|-------------|------------|-----0-----5-|-5--5-----5-|

|-------------|----------|--------------|----------|
|----------5--|-------2--|-3--3--2--2---|----------|
|-2---3-5-----|----------|------------5-|----------|
|-------------|----------|--------------|---3------|

Chorus

|------------|--------------|-------------|------------|
|------------|--------------|-2-----------|---------2--|
|-3--3-----3-|-3-3--3-3-3---|--------2----|------2-----|
|------------|--------------|-----5----0--|----5-------|

|-------------|-------------|-------------|-------------|
|-------------|-------------|-------------|-------------|
|-------2--2--|-3--3--5--5--|---------0-1-|-2--2----2h5-|
|-5--5--------|-------------|-3--3--------|-------------|

|------------|-------------|-------------|------------|
|------------|-------------|-2-----------|---------2--|
|-3--3-----3-|-3-3--3-3----|--------2----|------2-----|
|------------|-------------|-----5----0--|----5-------|

|-------------|-------------|------------|------------|
|-------------|----------2--|-3---3---3--|---3--3---2-|
|-------2--2--|-3--3--5-----|------------|------------|
|-5--5--------|-------------|------------|------------|

|------------|----------|-----------|----------|
|------------|----------|-----------|----------|
|-5---5---5--|----------|-----------|----------|
|------------|-------1--|-3--3------|-----1----|

|-------------|-------------|-----------|----------|
|-----------0-|-1--1--1-3---|-----------|----------|
|-3--3----3---|-------------|-----------|----------|
|-------------|-------------|-3--3------|-----1----|

|-------------|-------------|
|-----------0-|-1--1--1-3---|
|-3--3----3---|-------------|
|-------------|-------------|

Verse

|-----------|---------------|-----------|------------|
|-----------|---------------|-2--5------|--------5---|
|-----------|------2--2-5-5-|-----------|------5---5-|
|-3--3------|--3-5----------|-----------|------------|

|------------|-----------|------------|------------|
|----2-------|-----------|----2-------|------------|
|-3----------|---2----2--|-3----------|---5----3-5-|
|---------5--|-----------|---------5--|------------|

|-----------|---------------|-----------|------------|
|-----------|---------------|-2--5------|--------5---|
|-----------|------2--2-5-5-|-----------|------5---5-|
|-3--3------|--3-5----------|-----------|------------|

|------------|-----------|------------|------------|
|----2-------|-----------|----2-------|------------|
|-3----------|---2----2--|-3----------|---5----3---|
|---------5--|-----------|---------5--|----------5-|

Pre-Chorus

|------------|-------------|------------|------------|
|------------|-------------|------------|------------|
|------------|-------------|-3--3-----3-|--3-3----3--|
|-3--3-----3-|--3-3----3-5-|------------|------------|

|-------------|------------|-------------|------------|
|-----------0-|-1--1----1--|-2-----------|------------|
|-2--2----4---|------------|---2---------|------------|
|-------------|------------|-----0-----5-|-5--5-----5-|

|-------------|----------|--------------|----------|
|----------5--|-------2--|-3--3--2--2---|----------|
|-2---3-5-----|----------|------------5-|----------|
|-------------|----------|--------------|---3------|

Chorus

|------------|--------------|-------------|------------|
|------------|--------------|-2-----------|---------2--|
|-3--3-----3-|-3-3--3-3-3---|--------2----|------2-----|
|------------|--------------|-----5----0--|----5-------|

|-------------|-------------|-------------|-------------|
|-------------|-------------|-------------|-------------|
|-------2--2--|-3--3--5--5--|---------0-1-|-2--2----2h5-|
|-5--5--------|-------------|-3--3--------|-------------|

|------------|-------------|-------------|------------|
|------------|-------------|-2-----------|---------2--|
|-3--3-----3-|-3-3--3-3----|--------2----|------2-----|
|------------|-------------|-----5----0--|----5-------|

|-------------|-------------|------------|------------|
|-------------|----------2--|-3---3---3--|---3--3---2-|
|-------2--2--|-3--3--5-----|------------|------------|
|-5--5--------|-------------|------------|------------|

|------------|------------|-------------|-------------|
|------------|------------|-------------|-------------|
|-5---5---5--|------------|---------0-1-|-2--2----2h5-|
|------------|------0-1-0-|-3--3--------|-------------|

Chorus/Ending

|------------|--------------|-------------|------------|
|------------|--------------|-2-----------|---------2--|
|-3--3-----3-|-3-3--3-3-3---|--------2----|------2-----|
|------------|--------------|-----5----0--|----5-------|

|-------------|--------------|-------------|-------------|
|-------------|-------2------|-------------|-------------|
|-------2--2--|-3--3----0-5--|---------0-1-|-2--2----2h5-|
|-5--5--------|--------------|-3--3--------|-------------|

|-----------|-------------|-------------|------------|
|-----------|-------------|-2-----------|---------2--|
|-3-------3-|--3--3-3--3--|--------2----|------2-----|
|-----------|-------------|-----5----0--|----5-------|

|------------|---------------|-------------|-------------|
|------------|-------2-------|-------------|-------------|
|------2--2--|-3--3----0-2-5-|---------0-1-|-2--2----2h5-|
|-5----------|---------------|-3--3--------|-------------|

|------------|------------|-------------|------------|
|------------|------------|-2-----------|---------2--|
|-3--3-----3-|--3--3-3----|--------2----|------2-----|
|------------|------------|-----5----0--|----5-------|

|----------4----|---5------7-----|-------------|-------------|
|---7-----------|----------------|-------------|-------------|
|--------2----2-|-3----3-5---5\--|---------0-1-|-2--2----2h5-|
|-5----5--------|----------------|-3--3--------|-------------|

|------------|-------------|-------------|------------|
|------------|-------------|-2-----------|---------2--|
|-3--3-----3-|--3--3-3---5-|--------2----|------2-----|
|------------|-------------|-----5----0--|----5-------|

|----------4----|---5-----------|-------------|-------------|
|---7-----------|---------------|-------------|-------------|
|--------2----2-|-3----3-5------|---------0-1-|-2--2----2h5-|
|-5----5--------|-----------0-1-|-3--3--------|-------------|

|------------|-------------|-------------|------------|
|------------|-------------|-2-----------|---------2--|
|-3--3-----3-|-3--3-3-3----|--------2----|------2-----|
|------------|-------------|-----5----0--|----5-------|

|----------4----|---5------------|-------------|-------------|
|---7-----------|----------------|-------------|-------------|
|--------2----2-|-3----5-5-------|---------0-1-|-2--2----2h5-|
|-5----5--------|----------0-1-2-|-3--3--------|-------------|

|------------|---------------|-------------|------------|
|------------|---------------|-2-----------|---------2--|
|-3--3-----3-|-3-3-3-3-3---5-|--------2----|------2-----|
|------------|---------------|-----5----0--|----5-------|

|---------------|----------------|-------------|-------------*|
|---------------|----------------|-------------|-------------*|
|--------2-2--2-|-3-3--3-5-------|---------0-1-|-2--2----2h5-*|
|-5-5--5--------|----------0-1-2-|-3--3--------|-------------*| fade


---------
The Clown
---------

150BPM, 6/4

Intro

|------|
|------|
|-0----|
|------|

|----------------|---------------|----------------|---------------|
|----------------|-1-------------|----------------|-1-------------|
|-1------3--4----|----------0----|-1------3--4----|----------0----|
|----------------|---------------|----------------|---------------|
 4/4
|------------|------------|------------|-----------|
|-------0----|-1----------|------------|-----------|
|-1--3-------|------3--1--|---1--1--1--|-1----0----|
|------------|------------|------------|-----------|
 6/4
|----------------|---------------|----------------|---------------|
|----------------|-1-------------|----------------|-1-------------|
|-1------3--4----|----------0----|-1------3--4----|----------0----|
|----------------|---------------|----------------|---------------|
 4/4
|------------|------------|------------|-------------|
|-------0----|-1----------|------------|-------------|
|-1--3-------|------3--1--|---1--1--1--|-1--1--1--1--|
|------------|------------|------------|-------------|

|---------------|
|---------------|
|-1-1-1--1-1-1--|
|---------------|

|-3--------|---------|-3--------|---------|
|----------|---------|----------|---------|
|----------|---------|----------|---------|
|----------|---------|----------|---------|

|-3--------|---------|-3--------|-----------|
|----------|---------|----------|-----------|
|----------|---------|----------|-------1-3-|
|----------|---------|----------|-----------|

Verse

|----------|----------|----------|----------|
|-1--------|----------|----------|----------|
|----------|-5--------|-3--------|-1--------|
|----------|----------|----------|----------|

|----------|----------|------------|-----------|
|----------|----------|-----1------|-----------|
|----------|----------|---------1--|-------1-3-|
|-4--------|-3--------|-4----------|-----------|

|----------|----------|----------|----------|
|-1--------|----------|----------|----------|
|----------|-5--------|-3--------|-1--------|
|----------|----------|----------|----------|

|----------|----------|-------------|---------|
|----------|----------|------1------|---------|
|----------|----------|----------1--|---------|
|-4--------|-3--------|-4--4--------|---------|

|-----------|----------|------------|----------|
|-----------|----------|------------|----------|
|-----------|----------|-6---5---3--|-------3--|
|-4------4--|-4--------|------------|----------|

|-----------|------------|-----------|---------3--|
|-----------|------------|-----------|------------|
|-----------|---------0--|-1------1--|-1--1-------|
|-1------1--|-1----3-----|-----------|------------|

|-3--3--3--3--|
|-------------|
|-------------|
|-------------|

Chorus

|-------------|------------|-------------|--------------|
|-1-------1---|-1----1-----|-------------|--------------|
|-------1---1-|----------1-|-3-------3---|-3---3-3--3---|
|-------------|------------|-------3---3-|------------3-|

|------------|--------------|----------1-|-3------------|
|------------|--------------|--------3---|----------1---|
|------------|--------------|-1----------|-----1--3---3-|
|-1-----1-1--|-1---1-1--3-4-|------------|--------------|

|-------------|-------------|-------------|--------------|
|-1-------1---|-1----1--1---|-------------|--------------|
|-------1---1-|-----------1-|-3-------3---|-3---3-3--3---|
|-------------|-------------|-------3---3-|------------3-|

|------------|--------------|-------------|----------|
|------------|--------------|-------------|----------|
|------------|--------------|-1--1--1--1--|-1--------|
|-1-----1-1--|-1---1-1--3-4-|-------------|----------|

|----------|
|----------|
|-------1--|
|----------|

Verse

|----------|----------|----------|----------|
|-1--------|----------|----------|----------|
|----------|-5--------|-3--------|-1--------|
|----------|----------|----------|----------|

|----------|----------|------------|-----------|
|----------|----------|-----1------|-----------|
|----------|----------|---------1--|-------1-3-|
|-4--------|-3--------|-4----------|-----------|

|----------|----------|----------|----------|
|-1--------|----------|----------|----------|
|----------|-5--------|-3--------|-1--------|
|----------|----------|----------|----------|

|----------|----------|-------------|---------|
|----------|----------|------1------|---------|
|----------|----------|----------1--|---------|
|-4--------|-3--------|-4--4--------|---------|

|-----------|----------|------------|----------|
|-----------|----------|------------|----------|
|-----------|----------|-6---5---3--|-------3--|
|-4------4--|-4--------|------------|----------|

|-----------|------------|-----------|---------3--|
|-----------|------------|-----------|------------|
|-----------|---------0--|-1------1--|-1--1-------|
|-1------1--|-1----3-----|-----------|------------|

|-3--3------|
|-----------|
|-----------|
|-----------|

Chorus

|-------------|------------|-------------|--------------|
|-1-------1---|-1----1-----|-------------|--------------|
|-------1---1-|----------1-|-3-------3---|-3---3-3--3---|
|-------------|------------|-------3---3-|------------3-|

|------------|--------------|----------|---------------|
|------------|--------------|----------|-------1---1---|
|------------|--------------|-1--------|-1---3---3---3-|
|-1-----1-1--|-1---1-1--3-4-|----------|---------------|

|-------------|-------------|-------------|--------------|
|-1-------1---|-1---1-1-----|-------------|----------1-2-|
|-------1---1-|-----------1-|-3-------3---|-3---3-3------|
|-------------|-------------|-------3---3-|--------------|

|-----------|---------------|----------1-3-|-3---1-3-----|
|-3---------|---------------|--------3-----|---3---------|
|-----------|---------------|-1--1---------|-------------|
|---------1-|-1--1-1--1-3-4-|--------------|-------------|

Coda

|-------------|--------------|-------------|-------------|
|-1-------1---|-1---1-1--1---|-------------|-------1--2--|
|-------1---1-|------------1-|-3-------3---|-3---3-------|
|-------------|--------------|-------3---3-|-------------|

|------------|--------------|------------|--------1-----|
|-3----------|--------------|------------|------3---3---|
|------------|--------------|-1----------|-1----------1-|
|-------1-1--|-1---1-1--3-4-|-------1-4--|--------------|

|-------------|--------------|-------------|-------------|
|-1-------1---|-1---1-1--1---|-------------|-------1--2--|
|-------1---1-|------------1-|-3-------3---|-3---3-------|
|-------------|--------------|-------3---3-|-------------|

|------------|--------------|----------1-|-3------------|
|-3----------|--------------|--------3---|----------1-3-|
|------------|--------------|-1----------|-----1--3-----|
|-------1-1--|-1---1-1--3-4-|------------|--------------|

|-------------|--------------|-------------|-------------|
|-1-------1---|-1---1-1--1---|-------------|-------------|
|-------1---1-|------------1-|-3-------3---|-3---3-1-----|
|-------------|--------------|-------3---3-|----------3--|

|-----------|--------------|--------------|------------|
|-----------|--------------|--------------|------------|
|-----------|--------------|-1--1-------1-|----1---3-1-|
|------1-1--|-1---1-1--3-4-|--------1-4---|------------|

|-------------|--------------|-------------|--------------|
|-1-------1---|-1---1-1--1---|-------------|--------1--2--|
|-------1---1-|------------1-|-3-------3---|-3--3-3-------|
|-------------|--------------|-------3---3-|--------------|

|------------|--------------|----------1-|-3---1-3-----|
|-3----------|--------------|--------3---|---3---------|
|------------|--------------|-1----------|-------------|
|-------1-1--|-1---1-1--3-4-|------------|-------------|

|-------------|-------------|-------------|-------------|
|-1-------1---|-1----1--1---|-------------|-------1--2--|
|-------1---1-|-----------1-|-3-------3---|-3---3-------|
|-------------|-------------|-------3---3-|-------------|

|------------|--------------|---------1-3-|----1-3----3---|
|-3----------|--------------|-------3-----|--3------3---3-|
|------------|--------------|-1-----------|---------------|
|-------1-1--|-1---1-1--3-4-|-------------|---------------|

|-------------|--------------|-------------|-------------|
|-1-------1---|-1---1-1--1---|-------------|-------------|
|-------1---1-|------------1-|-3-------3---|-3---3--1----|
|-------------|--------------|-------3---3-|-----------3-|

|-------------|--------------|------------|---------------|
|-------------|--------------|------------|----1---1--1-3-|
|-------------|--------------|-1---1----1-|--3---3--------|
|-1---1-1--1--|-1---1-1--3-4-|------------|---------------|

|-------------|--------------|-------------|--------------|
|-1-------1---|-1---1-1--1---|-------------|--------------|
|-------1---1-|------------1-|-3-------3---|-3---3-3--3---|
|-------------|--------------|-------3---3-|------------3-|

|------------|--------------|---------1-3-|-------------|
|------------|--------------|-------3-----|--3--------3-|
|------------|--------------|-1-----------|----1---1----|
|-1-----1-1--|-1---1-1--3-4-|-------------|-------------|

|-------------|--------------|-------------|-------------|
|-1-------1---|-1---1-1--1---|-------------|-------1--2--|
|-------1---1-|------------1-|-3-------3---|-3---3-------|
|-------------|--------------|-------3---3-|-------------|

|------------|--------------|-----------|------------1-3-|
|------------|--------------|-----------|-------1--3-----|
|------------|--------------|-1-------1-|-1-2-3----------|
|-1-----1-1--|-1---1-1--3-4-|-----------|----------------|

|-------------|--------------|-------------|-------------|
|-1-------1---|-1---1-1--1---|-------------|-------------|
|-------1---1-|------------1-|-3-------3---|-3---3-1-----|
|-------------|--------------|-------3---3-|----------3--|

|-------------|--------------|---------------|-----------------|
|-------------|--------------|---------------|-----1---1---1---|
|-------------|--------------|-1--1--1-1-1-1-|-1-3---3---3---3-|
|-1-----1-1-1-|-1---1-1--4-1-|---------------|-----------------|

|------------|--------------*|
|-1-------1--|-1---1-1--1---*|
|-------1----|------------1-*|
|------------|--------------*| fade


-------------
Wake Up Susan
-------------

128BPM, 4/4

Intro

||----------------|--------------|---------------|---------------||
||o---------------|--------------|---------------|--------------o||
||o---------------|--------------|---------------|--------------o||
||--5-5-5--5-5-5--|--5--5-5-5-5--|-7-7-7--7-7-7--|--7--7-4-4-4---||

|---------------|--------------|------------|
|---------------|--------------|-6----------|
|---------------|--------------|---6--------|
|-5-5-5--5-5-5--|--5--5-5-5-5--|-----4------|

|----------------|----------------|----------------|----------------|
|----------------|----------------|----------------|----------------|
|-4-----4--------|-4-------4------|-4-----4--------|-4-------4------|
|---4-6----4-6-4-|---4-6-4----1-4-|---4-6----4-6-4-|---4-6-4----1-4-|

Verse

|----------------|---------------|----------------|---------------|
|----------------|---------------|----------------|---------------|
|-4-----4--------|-4-----4-------|-4-----4--4-----|-4------4------|
|---4-6----4-6-4-|---4-6-----1-4-|---4-6------6-4-|----6-4----1-4-|

|----------------|---------------|----------------|---------------|
|----------------|---------------|----------------|-------------3-|
|-4-----4--------|-4-----4-------|-4-----4--4-----|-4------4--6---|
|---4-6----4-6-4-|---4-6-----1-4-|---4-6------6-4-|----6-4--------|

|----------------|--------------|----------------|--------------|
|-4-4-4-4--------|--------------|----------------|--------------|
|----------------|--------------|----------------|--------------|
|---------2-2-2--|--2--2-2-2-2--|-4-4-4-4-4-4-4--|--4--4-1-1-1--|

|---------------|-------------|---------------|--------------|
|-4-4-4---------|-------------|-1-1-1-3--3----|------6-------|
|---------------|-------------|---------------|--------------|
|--------2-2-2--|--2--2-2--2--|-------------2-|--2-2-----4-44|

|----------------|---------------|----------------|---------------|
|----------------|---------------|----------------|---------------|
|-4-----4--------|-4-----4-------|-4-----4--4-----|-4------4------|
|---4-6----4-6-4-|---4-6-----1-4-|---4-6------6-4-|----6-4----1-4-|

|----------------|---------------|----------------|---------------|
|----------------|---------------|----------------|-------------3-|
|-4-----4--------|-4-----4-------|-4-----4--4-----|-4------4--6---|
|---4-6----4-6-4-|---4-6-----1-4-|---4-6------6-4-|----6-4--------|

|----------------|--------------|----------------|--------------|
|-4-4-4-4--------|--------------|----------------|--------------|
|----------------|--------------|----------------|--------------|
|---------2-2-2--|--2--2-2-2-2--|-4-4-4-4-4-4-4--|--4--4-1-1-1--|

|----------------|-------------|----------------|--------------|
|----------------|-------------|-1-1-1-3--3-3---|--------------|
|----------------|-------------|----------------|--------------|
|-2-2-2-2-2-2-2--|--2--2-2--2--|--------------2-|--2-2-4--4-4--|
 2/4
|-------|
|-------|
|-------|
|-2--6--|

Chorus

|-----------------|-----------------|---------------|--------------|
|-----------------|-----------------|-3-3-3---------|----3-6-------|
|-4-4-4-4-4-4-4---|-4-4-4-4-6-6-6-6-|---------------|--66----------|
|---------------46|-----------------|--------2-2--4-|--------2--6--|

|-----------------|-----------------|----------------|---------------|
|-----------------|-----------------|-3-3-3-3-4------|----3-6--------|
|-4-4-4-4-4-4-4---|-4-4-4-4-6-6-6-6-|----------------|--66-----------|
|---------------46|-----------------|-----------2--4-|--------2-2--4-|
                 2/4
|---------------|-----|
|----3-6--------|-----|
|--66---------4-|-----|
|--------2-2----|-----|

Verse

|----------------|---------------|----------------|----------------|
|----------------|---------------|----------------|----------------|
|-4-----4--------|-4-----4-------|-4-----4--4-----|-4-4-----4------|
|---4-6----4-6-4-|---4-6-----1-4-|---4-6------6-4-|-----6-4----1-4-|

|----------------|---------------|----------------|---------------|
|----------------|---------------|----------------|-------------3-|
|-4-----4--------|-4-----4-------|-4-----4--4-----|-4------4--6---|
|---4-6----4-6-4-|---4-6-----1-4-|---4-6------6-4-|----6-4--------|

|----------------|---------------|----------------|--------------|
|-4-4-4-4--------|---------------|----------------|--------------|
|----------------|---------------|----------------|--------------|
|---------2-2-2--|--2--2-2-2-2-2-|-4-4-4-4-4-4-4--|--4--4-1-1-1--|

|-----------------|--------------|---------------|--------------|
|-----------------|--------------|-1--1-3--3-3---|--------------|
|-----------------|--------------|---------------|--------------|
|-2-2-2-2-2-2-2-2-|--2--2-2-2-2--|-------------2-|--2-2-4--4-4--|
 2/4
|-------|
|-------|
|-------|
|-2--6--|

Chorus

|-----------------|-----------------|----------------|--------------|
|-----------------|-----------------|-3-3-3-3--------|----3-6-------|
|-4-4-4-4-4-4-4---|-4-4-4-4-6-6-6-6-|----------------|--66----------|
|---------------46|-----------------|---------2-2--4-|--------2--6--|

|-----------------|-----------------|----------------|---------------|
|-----------------|-----------------|-3-3-3-3--------|----3-6--------|
|-4-4-4-4-4-4-4---|-4-4-4-4-6-6-6-6-|----------------|--66-----------|
|---------------46|-----------------|---------2-2--4-|--------2-2--4-|
                 
|--------------|
|----3-6-------|
|--66----------|
|--------2--6--|

Chorus/Coda

|-----------------|-----------------|---------------|--------------|
|-----------------|-----------------|---------------|----3-6-------|
|-4-4-4-4-4-4-4---|-4-4-4-4-6-6-6-6-|---------------|--66----------|
|---------------46|-----------------|-1--1-1-2-2--4-|--------2--6--|

|-----------------|-----------------|----------------|--------------|
|-----------------|-----------------|-3-3-3-3--------|----3-6-------|
|-4-4-4-4-4-4-4---|-4-4-4-4-6-6-6-6-|----------------|--66----------|
|---------------46|-----------------|---------2-2--4-|--------2--6--|

|-----------------|-----------------|---------------|--------------|
|-----------------|-----------------|---------------|----3-6-------|
|-4-4-4-4-4-4-4---|-4-4-4-4-6-6-6-6-|---------------|--66----------|
|---------------46|-----------------|-1--1-1-2-2--4-|--------2--6--|

|-----------------|-----------------|----------------|--------------|
|-----------------|-----------------|-3-3-3----------|--------------|
|-4-4-4-4-4-4-4---|-4-4-4-4-6-6-6-6-|-------4x-------|--------------|
|---------------46|-----------------|---------2-2--4-|--224-4-2--6--|

|-----------------|-----------------|----------------|--------------|
|-----------------|-----------------|-3-3-3-3-4------|----3-6-------|
|-4-4-4-4-4-4-4---|-4-4-4-4-6-6-6-6-|----------------|--66----------|
|---------------46|-----------------|-----------2--4-|--------2--6--|

|-----------------|-----------------|----------------|--------------|
|-----------------|-----------------|-3-3-3-3--------|----3-6-------|
|-4-4-4-4-4-4-4---|-4-4-4-4-6-6-6-6-|----------------|--66----------|
|---------------46|-----------------|---------2-2--4-|--------2--6--|

|-----------------|-----------------|-------*|
|-----------------|-----------------|-3--3--*|
|-4-4-4-4-4---4-4-|-4-4-4-4-6-6-6-6-|-------*|
|-----------46----|-----------------|-------*| fade


----------
Tabbed by W.g.Wilson (199X) using Powertab Editor.
I make no money from the writing of these tabs.
comments
We did not receive enough feedback on this tab! Please rate:
print report bad tab
1 2 3 4 5
I want to post or [tab]
guest
You may want to rate the tab now too:
select rating
Please do not post tabs as comments. Select "correction" instead!