Oops, an error
Loading. Please wait.

Mighty Love Bass Tab

388 views 6 this week
no commentswrite comment
1 2 3 4 5
please rate
add to favorites launch autoscroll
font size
0
reset
Autoscroll
+/-
esc
set tempo
stop
Contributor
WARNING: You are trying to view
                                    content from Ultimate-Guitar.com
                                    in an unauthorized application,
                                    which is prohibited.

                                    Please use an official Ultimate
                                    Guitar Tabs application for iPhone,
                                    iPad or Android to access legitimate
                                    chords, guitar, bass, and drum tabs
                                    from Ultimate-Guitar.com database.

                                    Type "ultimate guitar tabs" in Apple
                                    App Store's or Android Market's
                                    search to find the application.
-----------
Mighty Love
-----------
The Spinners
Bass Tabs
Bass played by Ronnie Baker (unknown on bonus tracks)

Track Listing

1. Since I Been Gone (Bruce Hawes, Joseph P. Jefferson, Charles Simmons)
2. Ain't No Price on Happiness (Hawes, Jefferson, Simmons)
3. I'm Glad You Walked Into My Life (Hawes, Jefferson, Simmons)
4. I'm Coming Home (Thom Bell, Linda Creed)

5. He'll Never Love You Like I Do (Hawes, Jefferson, Simmons)
6. Love Has Gone Away (Hawes, Jefferson, Simmons)
7. Love Don't Love Nobody (Jefferson, Simmons)
8. Mighty Love (Hawes, Jefferson, Simmons)

Bonus Tracks

9. (Oh Lord) I Wish I Could Sleep (Jimmy Roach)
10. I Just Gotta Make It Happen (Roach, Philippe Wynne)
11. Mr. Big Man (Wynne)
12. You Sure Are Nasty (Wynne)


-----------------
Since I Been Gone
-----------------

108BPM, 4/4

Intro

||--------------|----------|---------|-----------||
||o-------------|----------|---------|----------o||
||o-----2-4-----|-4--------|---------|-4--------o||
||--2-4---------|----------|---------|-----------||

|-----------|-----------|-----| *last bar 2/4
|-----------|---6-4-----|-----|
|-4---2-----|-----------|-----|
|-----------|-----------|-----|

|-----------|------------|------| *last bar 2/4
|-----------|---6-4------|------|
|-4---2-----|----------2-|----4-|
|-----------|------------|------|

|--------------|--------------|--------------|--------------|
|--------------|--------------|--------------|--------------|
|--2-4--4-2--4-|--2-4--4-2--4-|--2-4--4-2--4-|--2-4--4-2--4-|
|--------------|--------------|--------------|--------------|

|--------------|---------------|---------------|---------------|
|--------------|---------------|---------------|---------------|
|-4--2-4-----4-|-2---2-4--2-4--|-4---4-2--2-4--|-4-2---------2-|
|----------4---|---4-----------|---4-----------|-----4-5--5----|

|-------------|---------------|-------------|---------|
|-------------|-------------2-|-------------|---------|
|-4-4--6----4-|-------2---24--|-4---2-------|---------|
|-------------|-4-4-4---------|---------4-2-|---------|

Verse

|------------|------------|---------------|------------|
|------------|------------|---------------|------------|
|------------|-4---4----4-|-2---4-4-2-----|------------|
|-4---4----4-|------------|-----------4-0-|-2---2----2-|

|--------------|--------------|--------------|------------|
|--------------|-2---2--222-2-|-----1--111-1-|------------|
|-2---2--2-2-4-|--------------|-1------------|----------4-|
|--------------|--------------|--------------|-4---4------|

|-------------|------------|--------------|-------------|
|-------------|------------|--------------|-------------|
|----4-4--4-2-|----------4-|----4-4-2-----|-------------|
|-------------|-4---4------|----------4-0-|-2---2-2---2-|

|------------|-----------|----------|
|------------|-----------|----------|
|------------|-----------|-2--------|
|-4---4----4-|-2---2-----|----------|

Chorus

|---------------|----------------|---------------|---------------|
|---------------|----------------|---------------|---------------|
|-4---4-2--2-4--|-2---2-4--4-2-4-|-4---4-2--2-4--|-4-2---------2-|
|---4-----------|---4------------|---4-----------|-----4-5--5----|

|---------------|----------------|-------------|----------|
|---------------|--------------2-|-------------|----------|
|-4-4-4-6---4320|-------2--2-24--|-4---2-------|----------|
|---------------|-4-4-4----------|---------4-2-|--------2-|

Verse

|------------|------------|------------|------------|
|------------|------------|------------|------------|
|------------|-4---4----4-|-2---2----2-|------------|
|-4---4----4-|------------|------------|-2---2----2-|

|--------------|------------|-------------|------------|
|--------------|-2---2----2-|-----1-1---1-|------------|
|-2---2--2-2-4-|------------|-1-----------|----------4-|
|--------------|------------|-------------|-4---4------|

|------------|------------|-------------|------------|
|------------|------------|-------------|------------|
|----4-4--4--|----------4-|----4-4------|------------|
|------------|-4---4------|---------4-0-|-2---2----2-|

|------------|------------|----------|
|------------|------------|----------|
|------------|------------|-2--------|
|-4---4----4-|-2---2----2-|----------|

Chorus

|---------------|----------------|---------------|---------------|
|---------------|----------------|---------------|---------------|
|-4---4-2--2-4--|-2---2-4--4-2-4-|-4---4-2--2-4--|-4-2---------2-|
|---4-----------|---4------------|---4-----------|-----4-5--5----|

|--------------|----------------|-------------|----------|
|--------------|--------------2-|-------------|----------|
|-4-4-4-6----4-|-------2--2-24--|-4---2-------|----------|
|--------------|-4-4-4----------|---------4-2-|--------2-|

Instrumental

|-------------|------------|---------------|-------------|
|-------------|------------|---------------|-------------|
|-------------|-4---4----4-|-4---4-4-2-----|-------------|
|-4---4-4---4-|------------|-----------4-0-|-2---2-2---2-|

|------------|-----------|----------|
|------------|-----------|----------|
|------------|-----------|-2--------|
|-4---4----4-|-2---2-----|----------|

Chorus/Ending

||----------------|----------------|---------------|---------------|
||o---------------|----------------|---------------|---------------|
||o-4---4-2--2-4--|-2---2-4--4-2-4-|-4---4-2--2-4--|-4-2---------2-|
||----4-----------|---4------------|---4-----------|-----4-5--5----|

|----------------|----------------|-------------|--------------||
|----------------|--------------2-|-------------|-------------o||
|-4-4-4-6--4-2---|-------2--2-24--|-4---2-------|----2--2-2-2-o||
|--------------5-|-4-4-4----------|---------4-2-|--------------||

|---------------|----------------|---------------|---------------|
|---------------|----------------|---------------|---------------|
|-4---4-2--2-4--|-2---2-4--4-2-4-|-4---4-2--2-4--|-4-2---------2-|
|---4-----------|---4------------|---4-----------|-----4-5--5----|

|--------------|----------------|-------------|-------------|
|--------------|--------------2-|-------------|-------------|
|-4-4-4-6----4-|-------2--2-24--|-4---2-------|----2--2-2-2-|
|--------------|-4-4-4----------|---------4-2-|-------------|

|---------------|----------------|---------------|---------------|
|---------------|----------------|---------------|---------------|
|-4---4-2--2-4--|-2---2-4--4-2-4-|-4---4-2--2-4--|-4-2---------2-|
|---4-----------|---4------------|---4-----------|-----4-5--5----|

|--------------|--------------|-------------|-------------|
|--------------|------------2-|-------------|-------------|
|-4-4-4-6----4-|-------2--24--|-4---2-------|----2--2-2-2-|
|--------------|-4-4-4--------|---------4-2-|-------------|

|----------------|----------------|---------------|---------------*|
|----------------|----------------|---------------|---------------*|
|-4---4-2--2-4---|-2---2-4--4-2-4-|-4---4-2--2-4--|-4-2---------2-*|
|---4----------4-|---4------------|---4-----------|-----4-5--5----*| fade


---------------------------
Ain't No Price On Happiness
---------------------------

158BPM, 4/4

Intro

|----------|-------------|------------|--------------|
|----------|-------------|------------|--------------|
|-7--------|-7--6--5--4--|---4--4-----|-4--4---4-6---|
|----------|-------------|----------6-|------6-------|

|----------|-------------|---------|-----------|
|----------|-------------|---------|-----------|
|-5--------|-5--4--3--2--|---------|-----------|
|----------|-------------|---------|-------2-4-|

|-----------|------------|-----------|------------|
|-----------|------------|-----------|------------|
|-2----2----|---2--2-2---|-2----2----|---2--2-2---|
|-----------|------------|-----------|------------|

||----4---1-------|------------|-----------|-------------||
||o-----4---2-4---|------------|-----------|------------o||
||o-------------2-|---2--2-2---|-2----2----|---2--2-2---o||
||----------------|------------|-----------|-------------||

Verse

|-------------|---------|-------------|---------|
|-------------|---------|-------------|---------|
|----2--4--2--|---------|----2--4--2--|---------|
|-0-----------|--------2|-0-----------|--------2|

|-------------|----------|-----------|-----------|
|-------------|----------|-----------|-----------|
|----2--4--2--|-------2--|-2---------|-----------|
|-0-----------|----------|--------0--|---2--4----|

|-----------|----------|-----------|----------|
|-----------|----------|-----------|----------|
|-----------|----------|-----------|----------|
|-5------4--|-------4--|-2------4--|-------4--|

|-----------|----------|-----------|------------|
|-----------|----------|-----------|------------|
|-----------|----------|-----------|-2----2--4--|
|-5------4--|-------4--|-2------2--|------------|

Verse

|-------------|---------|-------------|---------|
|-------------|---------|-------------|---------|
|----2--4--2--|---------|----2--4--2--|---------|
|-0-----------|--------2|-0-----------|--------2|

|-------------|----------|-----------|-----------|
|-------------|----------|--------2--|-----------|
|----2--4--2--|-------2--|-2---------|-----------|
|-0-----------|----------|-----------|---2--4----|

|-----------|----------|-----------|----------|
|-----------|----------|-----------|----------|
|-----------|----------|-----------|----------|
|-5------4--|-------4--|-2------4--|-------4--|

|-----------|----------|-----------|-----------|
|-----------|----------|-----------|-----------|
|-----------|----------|-----------|------2----|
|-5------4--|-------4--|-2------2--|-5---------|

Chorus

|-----------|-----------|-------------|------------|
|-----------|-----------|-------------|------------|
|-----------|-----------|-------------|--------4---|
|-5------5--|-4------4--|-2---2-2--4--|---4--4-----|

|-----------|-----------|-------------|------------|
|-----------|-----------|-------------|------------|
|-----------|-----------|-------------|--------4---|
|-5------5--|-4------4--|-2---2-2--4--|----4-4-----|

|-----------|-----------|-----------|------------|
|-----------|-----------|-----------|---------2--|
|-----------|-----------|-----------|-2----2-----|
|-5------5--|-4------4--|-2------2--|------------|

|---------|----------|---------|-------------|
|---------|----------|---------|-------------|
|---------|-------2--|---------|-2--2--2-4---|
|---------|----------|---------|-------------|

Verse

|-------------|---------|-------------|---------|
|-------------|---------|-------------|---------|
|----2--4--2--|---------|----2--4--2--|---------|
|-0-----------|--------2|-0-----------|--------2|

|-------------|----------|-----------|-----------|
|-------------|----------|-----------|-----------|
|----2--4--2--|-------2--|-2---------|-----------|
|-0-----------|----------|--------0--|---2--4----|

|-----------|----------|-----------|----------|
|-----------|----------|-----------|----------|
|-----------|----------|-----------|----------|
|-5------4--|-------4--|-2------4--|-------4--|

|-----------|----------|-----------|------------|
|-----------|----------|-----------|------------|
|-----------|----------|-----------|-2----2--4--|
|-5------4--|-------4--|-2------2--|------------|

Verse

|-------------|---------|-------------|---------|
|-------------|---------|-------------|---------|
|----2--4--2--|---------|----2--4--2--|---------|
|-0-----------|--------2|-0-----------|--------2|

|-------------|----------|-----------|-----------|
|-------------|----------|-----------|-----------|
|----2--4--2--|-------2--|-2---------|-----------|
|-0-----------|----------|--------0--|---2--4----|

|-----------|----------|-----------|----------|
|-----------|----------|-----------|----------|
|-----------|----------|-----------|----------|
|-5------4--|-------4--|-2------4--|-------4--|

|-----------|----------|-----------|-----------|
|-----------|----------|-----------|-----------|
|-----------|----------|-----------|------2----|
|-5------4--|-------4--|-2------2--|-5---------|

Chorus

|-----------|-----------|-------------|------------|
|-----------|-----------|-------------|------------|
|-----------|-----------|-------------|--------4---|
|-5------5--|-4------4--|-2---2-2--4--|----4-4-----|

|-----------|-----------|-------------|------------|
|-----------|-----------|-------------|------------|
|-----------|-----------|-------------|--------4---|
|-5------5--|-4------4--|-2---2-2--4--|----4-4-----|

|-----------|-----------|-----------|-----------|
|-----------|-----------|-----------|-----------|
|-----------|-----------|-----------|-2----2----|
|-5------5--|-4------4--|-2------2--|-----------|

|---------|----------|---------|-------------|
|---------|----------|---------|-------------|
|---------|-------2--|---------|-2--2--2-4---|
|---------|----------|---------|-------------|

Chorus/Ending

||------------|-----------|-------------|-------------||
||o-----------|-----------|-------------|------------o||
||o-----------|-----------|-------------|--------4---o||
||--5------5--|-4------4--|-2---2-2--4--|----4-4------||

|-----------|-----------|-----------|-----------|
|-----------|-----------|-----------|-----------|
|-----------|-----------|-----------|-2----2----|
|-5------5--|-4------4--|-2------2--|-----------|

|---------|----------|---------|-------------|
|---------|----------|---------|-------------|
|---------|-------2--|---------|-2--2--2-4---|
|---------|----------|---------|-------------|

|-----------|-----------|-------------|------------|
|-----------|-----------|-------------|------------|
|-----------|-----------|-------------|--------4---|
|-5------5--|-4------4--|-2---2-2--4--|---4--4-----|

|-----------|-----------|-------------|------------|
|-----------|-----------|-------------|------------|
|-----------|-----------|-------------|--------4---|
|-5------5--|-4------4--|-2---2-2--4--|----4-4-----|

|-----------|-----------|------------|------------|
|-----------|-----------|------------|------------|
|-----------|-----------|------------|--------4---|
|-5------5--|-4------4--|-2----2--4--|----4-4-----|

||------------|-----------|-------------|-------------||
||o-----------|-----------|-------------|------------o||
||o-----------|-----------|-------------|--------4---o||
||--5------5--|-4------4--|-2---2-2--4--|----4-4------|| til end


--------------------------------
I'm Glad You Walked Into My Life
--------------------------------

180BPM, 3/4

Intro

||---------|---------|--------|---------|--------|-------|---------|--------|
||o--------|---2--5--|--------|---------|--------|-------|---2--3--|-5------|
||o-3------|---------|--------|---2--3--|-5------|-------|---------|--------|
||---------|---------|-5------|---------|--------|-------|---------|--------|

|--------|---------|--------|---------|--------|---------|----------|-----------||
|--------|---2--5--|--------|---------|--------|---2--3--|-5--5--5--|----------o||
|-3------|---------|--------|---2--3--|-5------|---------|----------|-------2--o||
|--------|---------|-5------|---------|--------|---------|----------|-3--5------||

Verse

|--------|---------|--------|---------|--------|-------|-------|--------|
|--------|---2--5--|--------|---------|--------|-------|-------|--------|
|-3------|---------|--------|---2--3--|-5------|-------|-------|--------|
|--------|---------|-5------|---------|--------|-------|-------|-5------|

|--------|-------|--------|-------|---------|--------|-------|--------|
|--------|-------|--------|-------|---------|--------|-------|--------|
|-5------|-------|--------|-------|------3--|-3------|-------|--------|
|--------|-------|-3------|-------|-3-------|--------|-------|-3------|

|--------|---------|--------|---------|--------|-------|-------|--------|
|--------|---2--5--|--------|---------|--------|-------|-------|--------|
|-3------|---------|--------|---2--3--|-5------|-------|-------|--------|
|--------|---------|-5------|---------|--------|-------|-------|-5------|

|--------|-------|--------|-------|---------|--------|--------|--------|
|--------|-------|--------|-------|---------|--------|--------|--------|
|-5------|-------|--------|-------|------3--|-3------|--------|-3------|
|--------|-------|-3------|-------|-3-------|--------|-3------|--------|

Pre-Chorus

|--------|-------|-------|--------|--------|-------|-------|--------|
|--------|-------|-------|--------|--------|-------|-------|--------|
|--------|-------|-------|--------|--------|-------|-------|--------|
|-1------|-------|-------|-----1--|-0------|-------|-------|-----0--|

|--------|-------|-------|---------|--------|-------|-------|---------|
|--------|-------|-------|---------|--------|-------|-------|---------|
|-3------|-------|-------|---5--6--|-7------|-------|-------|---7--7--|
|--------|-------|-------|---------|--------|-------|-------|---------|

|--------|-------|-------|---------|--------|--------|--------|---------|
|--------|-------|-------|---------|--------|--------|--------|---------|
|-5------|-------|-------|---5--6--|-7------|--------|--------|---------|
|--------|-------|-------|---------|--------|-3------|-5------|---5--5--|

|--------|-------|-------|---------|----------|----------|----------|----------|
|--------|-------|-------|---2--3--|-5--5--5--|-5--5--5--|----------|----------|
|-5------|-------|-------|---------|----------|----------|----------|----------|
|--------|-------|-------|---------|----------|----------|-5--5--5--|-5--5--5--|

Chorus

|--------|-------|--------|---------|--------|-------|--------|---------|
|--------|-------|-----2--|---------|--------|-------|--------|---------|
|-5------|-------|--------|-3-------|--------|-------|-----5--|-2-------|
|--------|-------|--------|------5--|-3------|-------|--------|------3--|

|--------|-------|--------|---------|--------|-------|--------|---------|
|-2------|-------|-----2--|---------|--------|-------|--------|---------|
|--------|-------|--------|-3-------|--------|-------|-----5--|-2-------|
|--------|-------|--------|------5--|-3------|-------|--------|------3--|

|--------|-------|-------|---------|---------|--------|--------|---------|
|--------|-------|-------|---------|---------|--------|--------|---------|
|-5------|-------|-------|---5--6--|-7----7--|--------|--------|---------|
|--------|-------|-------|---------|---------|-3------|-5------|---5--5--|

|--------|-------|-------|---------|----------|----------|----------|----------|
|--------|-------|-------|---------|----------|----------|----------|----------|
|-5------|-------|-------|---5--5--|----------|----------|----------|-------2--|
|--------|-------|-------|---------|-3--3--3--|-3--3--3--|-3--3--3--|-3--5-----|

Verse

|--------|---------|--------|---------|--------|-------|-------|--------|
|--------|---2--5--|--------|---------|--------|-------|-------|--------|
|-3------|---------|--------|---2--3--|-5------|-------|-------|--------|
|--------|---------|-5------|---------|--------|-------|-------|-5------|

|--------|-------|--------|-------|---------|--------|-------|--------|
|--------|-------|--------|-------|---------|--------|-------|--------|
|-5------|-------|--------|-------|------3--|-3------|-------|--------|
|--------|-------|-3------|-------|-3-------|--------|-------|-3------|

|--------|---------|--------|---------|--------|-------|-------|--------|
|--------|---2--5--|--------|---------|--------|-------|-------|--------|
|-3------|---------|--------|---2--3--|-5------|-------|-------|--------|
|--------|---------|-5------|---------|--------|-------|-------|-5------|

|--------|-------|--------|-------|---------|--------|--------|--------|
|--------|-------|--------|-------|---------|--------|--------|--------|
|-5------|-------|--------|-------|------3--|-3------|--------|-3------|
|--------|-------|-3------|-------|-3-------|--------|-3------|--------|

Pre-Chorus

|--------|-------|-------|--------|--------|-------|-------|--------|
|--------|-------|-------|--------|--------|-------|-------|--------|
|--------|-------|-------|--------|--------|-------|-------|--------|
|-1------|-------|-------|-----1--|-0------|-------|-------|-----0--|

|--------|-------|-------|---------|--------|-------|-------|---------|
|--------|-------|-------|---------|--------|-------|-------|---------|
|-3------|-------|-------|---5--6--|-7------|-------|-------|---7--7--|
|--------|-------|-------|---------|--------|-------|-------|---------|

|--------|-------|-------|---------|--------|--------|--------|---------|
|--------|-------|-------|---------|--------|--------|--------|---------|
|-5------|-------|-------|---5--6--|-7------|--------|--------|---------|
|--------|-------|-------|---------|--------|-3------|-5------|---5--5--|

|--------|-------|-------|---------|----------|----------|----------|----------|
|--------|-------|-------|---2--3--|-5--5--5--|-5--5--5--|----------|----------|
|-5------|-------|-------|---------|----------|----------|----------|----------|
|--------|-------|-------|---------|----------|----------|-5--5--5--|-5--5--5--|

Chorus

|--------|-------|--------|---------|--------|-------|--------|---------|
|--------|-------|-----2--|---------|--------|-------|--------|---------|
|-5------|-------|--------|-3-------|--------|-------|-----5--|-2-------|
|--------|-------|--------|------5--|-3------|-------|--------|------3--|

|--------|-------|--------|---------|--------|-------|--------|---------|
|-2------|-------|-----2--|---------|--------|-------|--------|---------|
|--------|-------|--------|-3-------|--------|-------|-----5--|-2-------|
|--------|-------|--------|------5--|-3------|-------|--------|------3--|

|--------|-------|-------|---------|--------|--------|--------|---------|
|--------|-------|-------|---------|--------|--------|--------|---------|
|-5------|-------|-------|---5--6--|-7------|--------|--------|---------|
|--------|-------|-------|---------|--------|-3------|-5------|---5--5--|

|--------|-------|-------|---------|----------|----------|----------|-------4--|
|--------|-------|-------|---------|-5--5--5--|-5--5--5--|-5--5--5--|-5--7-----|
|-5------|-------|-------|---5--5--|----------|----------|----------|----------|
|--------|-------|-------|---------|----------|----------|----------|----------|

Chorus

|--------|-------|--------|---------|--------|-------|--------|---------|
|--------|-------|-----2--|---------|--------|-------|--------|---------|
|-5------|-------|--------|-3-------|--------|-------|-----5--|-2-------|
|--------|-------|--------|------5--|-3------|-------|--------|------3--|

|--------|-------|--------|---------|--------|-------|--------|---------|
|-2------|-------|-----2--|---------|--------|-------|--------|---------|
|--------|-------|--------|-3-------|--------|-------|-----5--|-2-------|
|--------|-------|--------|------5--|-3------|-------|--------|------3--|

|--------|-------|-------|---------|--------|--------|--------|---------|
|--------|-------|-------|---------|--------|--------|--------|---------|
|-5------|-------|-------|---5--6--|-7------|--------|--------|---------|
|--------|-------|-------|---------|--------|-3------|-5------|---5--5--|

|--------|-------|-------|---------|----------|----------|----------|----------|
|--------|-------|-------|---------|-5--5--5--|-5--5--5--|----------|----------|
|-5------|-------|-------|---5--5--|----------|----------|----------|----------|
|--------|-------|-------|---------|----------|----------|-5--5--5--|-5--5--5--|

Chorus

|--------|-------|--------|---------|--------|-------|--------|---------|
|--------|-------|-----2--|---------|--------|-------|--------|---------|
|-5------|-------|--------|-3-------|--------|-------|-----5--|-2-------|
|--------|-------|--------|------5--|-3------|-------|--------|------3--|

|--------|-------|--------|---------|--------|-------|--------|---------|
|-2------|-------|-----2--|---------|--------|-------|--------|---------|
|--------|-------|--------|-3-------|--------|-------|-----5--|-2-------|
|--------|-------|--------|------5--|-3------|-------|--------|------3--|

|--------|-------|-------|---------|--------|--------|--------|---------|
|--------|-------|-------|---------|--------|--------|--------|---------|
|-5------|-------|-------|---5--6--|-7------|--------|--------|---------|
|--------|-------|-------|---------|--------|-3------|-5------|---5--5--|

|--------|-------|-------|---------|----------|----------|----------|----------*|
|--------|-------|-------|---------|-5--5--5--|-5--5--5--|----------|----------*|
|-5------|-------|-------|---5--5--|----------|----------|----------|----------*|
|--------|-------|-------|---------|----------|----------|-5--5--5--|-5--5--5--*| fade


---------------
I'm Coming Home
---------------

176BPM, 4/4

Intro

||-----------|---------|---------|-----------|
||o-3--------|---------|---------|-------1-2-|
||o----------|---------|---------|-----------|
||-----------|---------|---------|-----------|

|----------|---------|---------|-------------||
|-3--------|---------|---------|---3--1-----o||
|----------|---------|---------|---------1--o||
|----------|---------|---------|-------------||

Verse

|----------|-------------|----------|-------------|
|-3--------|-------------|-3--------|-------------|
|----------|-------3--5--|----------|-------3--5--|
|----------|--5-5--------|----------|--5-5--------|

|----------|-------------|-----------|------------|
|-3--------|-------------|-3--3------|---3--1-----|
|----------|-------3--5--|-----------|---------1--|
|----------|--5-5--------|-----------|------------|

Pre-Chorus

|---------------|----------------|--------------|-----------------|
|---------------|----------------|--------------|-----------------|
|-1--1----1-----|-1-----1--1-----|-1--1-------1-|-0h1--1--0h1-----|
|-----------3-x-|---x-3------3-1-|--------1-1---|-------------3-1-|

|------------|---------------|------------|------------|
|------------|---------------|------------|------------|
|-1--1-----x-|-1-1---x-1-----|------------|---3--3--5--|
|------------|------------1--|-3---5---6--|------------|

Chorus

|-----------|-------------|----------|-----------|
|-3--3------|-------------|-3--------|-----------|
|-----------|-------3--5--|----------|-----------|
|-----------|--5-5--------|----------|-----5--1--|

|-----------|------------|-----------|-------------|
|-----------|------------|-----------|-------------|
|-----------|-3--3-------|---------x-|-5--5--------|
|-3--3------|---------6--|-5---------|-------5--1--|

|------------|------------|-----------|-------------|
|------------|------------|-3---------|-------------|
|------------|---3--3--3--|-----------|-----x-3--5--|
|-3---5---6--|------------|---------5-|-5-----------|

|-----------|--------------|------------|------------|
|-3---------|--------------|------------|------------|
|-----------|--------3--5--|------------|---3--3--3--|
|---------5-|-5----5-------|-3---5---6--|------------|

|-----------|--------------|----------|------------|
|-3---------|--------------|-3--------|---3--1-----|
|-----------|--------3--5--|----------|---------1--|
|---------5-|-5----5-------|----------|------------|

Verse

|-----------|-------------|-----------|-------------|
|-3---------|-------------|-3---------|-------------|
|-----------|-------3--5--|-----------|-------3--5--|
|---------5-|-5---5-------|---------5-|-5---5-------|

|-----------|-------------|----------|------------|
|-3---------|-------------|-3--------|-3----1-----|
|-----------|-------3--5--|----------|---------1--|
|---------5-|-5---5-------|----------|------------|

Pre-Chorus

|------------|--------------|------------|--------------|
|------------|--------------|------------|--------------|
|-1--1-----x-|------1-------|-1--1-----1-|-x-1----------|
|------------|-1------3--1--|------------|-----3--1--3--|

|------------|--------------|------------|------------|
|------------|--------------|------------|------------|
|-1--1-----x-|-1---1-1------|------------|---3--3--5--|
|------------|----------1-1-|-3---5---6--|------------|

Chorus

|------------|-------------|-----------|-----------|
|-3--3-------|-------------|-3--3------|-----------|
|------------|-------3--5--|-----------|-----------|
|----------5-|-5---5-------|-----------|-----5--1--|

|------------|------------|------------|-------------|
|------------|------------|------------|-------------|
|------------|-3--3-------|----------5-|-5--5--------|
|-3------5-6-|---------6--|-5------5---|-------5--1--|

|------------|------------|------------|-------------|
|------------|------------|-3----------|-------------|
|------------|---3--3--5--|------------|-------3--5--|
|-3---5---6--|------------|--------5-5-|-5---5-------|

|------------|-------------|------------|------------|
|-3--3-------|-------------|------------|------------|
|------------|-------3--5--|------------|---3--3--3--|
|----------5-|-5---5-------|-3---5---6--|------------|

|------------|-------------|--------------|-------------|
|------------|-------------|-3--3-3---3-x-|-3--3--1-----|
|------------|-------3--5--|--------------|----------1--|
|-1------5-5-|-5---5-------|--------------|-------------|

Verse

|------------|-------------|-----------|-------------|
|------------|-------------|-----------|-------------|
|------------|-------3--5--|-----------|-------3--5--|
|-1------5-5-|-6---6-------|-1-------5-|-5---5-------|

|-----------|-------------|-----------|-------------|
|-----------|-------------|-3-------x-|-3--3--1-----|
|-----------|-------3--5--|-----------|----------1--|
|-1-------5-|-5---5-------|-----------|-------------|

Pre-Chorus

|----------|-------------|------------|---------------|
|----------|-------------|------------|---------------|
|-1-------1|---1---------|-1--1-----1-|-1-1--1--1-----|
|----------|-3--3--1--3--|------------|----3------3-1-|

|------------|---------------|------------|------------|
|------------|---------------|------------|------------|
|-1--1-----x-|-1-1--1-1------|------------|---3--3--5--|
|------------|-----------1-1-|-3---5---6--|------------|

Chorus

|-------------|-------------|-------------|--------------|
|-3--3--------|-------------|-3--3--------|--------------|
|-------------|-------3--5--|-------------|--------------|
|---------5-5-|-6---6-------|---------5-5-|-6-6--6-5--1--|

|-------------|------------|------------|-------------|
|-------------|------------|------------|-------------|
|-------0-1-2-|-3--3-------|------------|-5---5-------|
|-3-----------|---------6--|-5------5-5-|-------5--1--|

|------------|------------|-------------|--------------|
|------------|------------|-3----3------|--------------|
|------------|---3--3--3--|-------------|--------3--5--|
|-3---5---6--|------------|---------5-5-|-6-6--6-------|

|-----------|--------------|------------|------------|
|-3--3------|--------------|------------|------------|
|-----------|--------3--5--|------------|---3--3--3--|
|-----------|-5-5--5-------|-3---5---6--|------------|

|------------|------------|------------|------------|
|------------|------------|------------|------------|
|------------|---5--5--5--|------------|---3--3--3--|
|-3---5---6--|------------|-3---5---6--|------------|

Break

|----------|---------|---------|----------|
|----------|---------|---------|----------|
|----------|---------|---------|-------3--|
|-6--------|---------|---------|----------|

Chorus

|-----------|-------------|-------------|------------|
|-3---------|-------------|-3--3--------|------------|
|-----------|-------3--5--|-------------|------3--5--|
|---------5-|-5---5-------|---------5-5-|-5----------|

|-------------|-------------|------------|--------------|
|-3--3--------|-------------|-3--3-------|--------------|
|-------------|-------3--5--|------------|--------3--5--|
|---------5-5-|-5---5-------|----------5-|-5-x-5--------|

|--------------|----------------|-------------|-------------|
|-3--3--3--3-3-|-6p5-3----------|-------------|-------------|
|--------------|--------5p3-----|-------------|-------3--5--|
|--------------|------------5-5-|-1--1----5-5-|-6---6-------|

|-------------|--------------|-------------|--------------|
|-------------|--------------|-3--3--------|--------------|
|-------------|--------3--5--|-------------|--------3--5--|
|-1--1----5-5-|-6-6--6-------|---------5-5-|-6-6--6-------|

|-------------|--------------|--------------|-------------|
|-3--3--------|--------------|-3--3---------|-------------|
|-------------|------5-3--5--|--------------|--5----3--5--|
|---------5-5-|-6-6----------|--------5-5-6-|----6--------|

|-------------|-------------|--------------|-------------|
|-------------|-------------|-3--3---------|-------------|
|-------------|-------3--5--|--------------|-------3--5--|
|-1--1----5-5-|-6-6---------|--------5-5-5-|-5---5-------|

|-------------|-------------|-----------|-------------|
|-3--3--------|-------------|-3---------|-------------|
|-------------|-------3--5--|-----------|-------3--5--|
|---------5-5-|-5---5-------|---------5-|-5---5-------|

|------------|-------------|------------|--------------|
|-3----------|-------------|------------|--------------|
|------------|-------3--5--|------------|--------3--5--|
|--------5-5-|-6---6-------|-1------5-5-|-6-6--6-------|

|------------|--------------|-----------|-------------|
|-3----------|--------------|-3--3------|-------------|
|------------|--------3--5--|-----------|-------3--5--|
|--------5-5-|-6-6--6-------|-----------|-5--6--------|

|------------|--------------|------------|-------------|
|------------|--------------|-3----------|-------------|
|------------|--------3--5--|------------|-------3--5--|
|-1------5-5-|-6-6--6-------|--------5-x-|-6---6-------|

|------------|------------|-----------|-------------|
|-3----------|------------|-----------|-------------|
|------------|------3--5--|-----------|-------3--5--|
|--------5-5-|-6----------|-1-------5-|-6---6-------|

|-----------|-------------|------------|-------------|
|-3---------|-------------|-3----------|-------------|
|-----------|-------3--5--|------------|-------3--5--|
|---------5-|-5---5-------|--------5-5-|-6---6-------|

|----------|---------|---------|---------*|
|-3--------|---------|---------|---------*|
|----------|---------|---------|---------*|
|----------|---------|---------|---------*|


------------------------------
He'll Never Love You Like I Do
------------------------------

100BPM, 4/4

Intro
 
|------|
|------|
|----2-|
|------|

|---------|----------|-----------|-----------|
|---------|----------|---------2-|-------2-4-|
|---------|--------4-|-2---------|-----------|
|---------|----------|-----------|-----------|

|------------|
|-----4-4----|
|----------2-|
|------------|

|----------|--------------|-----------|------------|
|----------|--------------|-----------|------------|
|--------4-|----4--4-4--4-|-2---------|------------|
|----------|--4-----------|---------0-|-----0-0--2-|

|------------|------------|----------|-------------|
|------------|------------|----------|-------------|
|----------2-|------2-2-2-|----------|-------------|
|------2-2---|------------|--------0-|-----0-2-5-5-|

Verse

|--------------|--------------|--------------|---------------|
|--------------|--------------|--------------|---------------|
|--------------|------------2-|--------------|---------------|
|--5-5--5-5--5-|--5-5---0-2---|-5--5---5-5-5-|--5-5--0-2-5-5-|

|--------------|--------------|--------------|--------------|
|--------------|--------------|--------------|--------------|
|--------------|------------2-|--------------|--------------|
|--5-5--5-5--5-|--5-5---0-2---|-5--5--5-5--5-|--5-5---5-5-2-|

Pre-Chorus

|--------------|--------------|--------------|--------------|
|--------------|--------------|--------------|--------------|
|------------2-|--2-2--2-2----|------------2-|--2-2--2-2--2-|
|--2-2--2-2----|------------2-|--2-2--2-2----|--------------|

|--------------|-------------|-----------|--------------|
|--------------|-------------|-2---2-----|--2-2--4-4----|
|--2-2--2-2--4-|--4-4---4-4--|-----------|------------2-|
|--------------|-------------|-----------|--------------|

Chorus

|------------|------------|-------------|--------------|
|------------|------------|-------------|--------------|
|------2-2-4-|------4-4-4-|-2---2-2-----|--------------|
|------------|------------|-----------0-|-0---0-0-0--2-|

|------------|
|------------|
|----------2-|
|-----2-2----|

|------------|------------|-------------|-------------|
|------------|------------|-------------|-------------|
|------2-2-4-|------4-4-4-|-2---2-2-----|-------------|
|------------|------------|-----------0-|----0-0-0--2-|

|-------------|-------------|-----------|-------------|
|-------------|-------------|-----------|-------------|
|-------------|-----------2-|------2--2-|----2-2-2----|
|----2-2-2--2-|----2-2-2----|-----------|-----------2-|

|-------------|-------------|-------------|-------------|
|-------------|-------------|-----------2-|----2-2-2----|
|-------------|-----------2-|----2-2-2----|-------------|
|----2-2-2--2-|----2-2-2----|-------------|-----------5-|

Verse

|--------------|--------------|--------------|---------------|
|--------------|--------------|--------------|---------------|
|--------------|------------2-|--------------|---------------|
|--5-5--5-5--5-|--5-5---0-2---|-5--5---5-5-5-|--5-5--0-2-5-5-|

|--------------|--------------|--------------|--------------|
|--------------|--------------|--------------|--------------|
|--------------|------------2-|--------------|--------------|
|--5-5--5-5--5-|--5-5---0-2---|-5--5---5-5-5-|--5-5---5-5-2-|

Pre-Chorus

|--------------|---------------|--------------|--------------|
|--------------|---------------|--------------|--------------|
|------------2-|--2-2--2-2-4---|------------2-|--2-2--2-2--2-|
|--2-2--2-2----|-------------2-|--2-2--2-2----|--------------|

|--------------|--------------|-----------|--------------|
|--------------|--------------|-2---2-----|--2-2--4-4----|
|--2-2--2-2--4-|--4-4--4-4--4-|-----------|------------2-|
|--------------|--------------|-----------|--------------|

Chorus

|------------|------------|-------------|--------------|
|------------|------------|-------------|--------------|
|------2-2-4-|------4-4-4-|-2---2-2-----|--------------|
|------------|------------|-----------0-|-0---0-0-0--2-|

|-------------|
|-------------|
|-----------2-|
|----2-2-2----|

|------------|-------------|---------------|-------------|
|------------|-------------|---------------|-------------|
|-----2-2--4-|----4-4-4--4-|-2---2-2-2-2---|-------------|
|------------|-------------|-------------0-|----0-0-0--2-|

|--------------|-------------|------------|-------------|
|--------------|-------------|------------|-------------|
|--------------|-----------2-|------2-2-2-|-----2-2-2-2-|
|----2-2-2-2-2-|-----2-2-2---|------------|-------------|

|------------|------------|-------------|---------------|
|------------|------------|-------------|---------------|
|------2-2-4-|------4-4-4-|-2---2-2-----|---------------|
|------------|------------|-----------0-|-0---0-0-0-0-2-|

|--------------|
|--------------|
|------------2-|
|----2-2-2-2---|

Chorus/Ending

|-------------|------------|-------------|--------------|
|-------------|------------|-------------|--------------|
|----2-2-2--4-|------4-4-4-|-2---2-2-----|--------------|
|-------------|------------|-----------0-|-0---0-0-0--2-|

|---------------|
|---------------|
|-------------2-|
|--2-2--2-2-5---|

|-------------|-------------|-------------|--------------|
|-------------|-------------|-------------|--------------|
|----2-2-2--4-|----4-4-4--4-|-2---2-2-----|--------------|
|-------------|-------------|-----------0-|-0---0-0-0--2-|

|---------------|
|---------------|
|-------------2-|
|--2-2--2-2-5---|

|------------|------------|-------------|-------------|
|------------|------------|-------------|-------------|
|------2-2-4-|------4-4-4-|-2---2-2-----|-------------|
|------------|------------|-----------0-|----0-0-0--2-|

|--------------|
|--------------|
|------------2-|
|----2-2-2-5---|

|------------|------------|-------------|-------------*|
|------------|------------|-------------|-------------*|
|------2-2-4-|------4-4-4-|-2---2-2-----|-------------*|
|------------|------------|-----------0-|----0-0-0--2-*| fade


------------------
Love Has Gone Away
------------------

120BPM, 4/4

Intro

|----|
|--5-|
|----|
|----|
                                                       3x
||----5-5------|----------|---5-5---5----|-------------||
||o-8----------|--------5-|-8-----8------|----------5-o||
||o------------|----------|--------------|----6--8----o||
||-------------|----------|--------------|-------------||

|---5-5------|----------|---5-5---5----|-----------|
|-8----------|--------5-|-8-----8------|-----------|
|------------|----------|--------------|----6--8---|
|------------|----------|--------------|-----------|

Verse

|----------------|-------------|-------------|-------------|
|----------------|-------------|-------------|-------------|
|-3---3--3---3---|---------3---|---------3-5-|-------0-1-2-|
|---6------6---4-|-----4-6---4-|-----4-6-----|----3--------|

|----------------|-------------|-------------|-------------|
|----------------|-------------|-------------|-------------|
|-3---3--3---3---|---------3---|---------3-5-|-------------|
|---6------6---4-|-----4-6---4-|-----4-6-----|----3--3-3-3-|

Pre-Chorus

|-----------|-----3------|-----------|-----3------|
|-----------|---3--------|-1---------|---3--------|
|-3---1-----|-1----------|-----1-----|-1----------|
|-----------|------------|-----------|------------|

|---------------|----------------|
|-6---6-5-5-5-5-|-3-3-3-5--5-5-5-|
|---------------|----------------|
|---------------|----------------|

Chorus

|-----------------|-----------------|-----------------|-----------------|
|-----------------|-----------------|-----------------|-----------------|
|-3-3-3-3-3-3-3-3-|-3-3-3-3-3-3-3-3-|-3-3-3-3-3-3-3-3-|-3-3-3-3-3-3-3-3-|
|-----------------|-----------------|-----------------|-----------------|

|-----------------|---------------|
|-----------------|---------------|
|-3-3-3-3-3-------|---------------|
|-----------6-5-4-|--4-4-6--6-6-6-|

Verse

|----------------|-------------|-------------|-------------|
|----------------|-------------|-------------|-------------|
|-3---3--3---3---|---------3---|---------3-5-|-----------5-|
|---6------6---4-|-----4-6---4-|-----4-6-----|----3--5-6---|

|----------------|-------------|-------------|------------|
|----------------|-------------|-------------|------------|
|-3---3--3---3---|---------3---|---------3-5-|------------|
|---6------6---4-|-----4-6---4-|-----4-6-----|----3--1-3--|

Pre-Chorus

|----------|-----3------|-----------|-----3------|
|----------|---3--------|-1---------|---3--------|
|----1-----|-1----------|-----1-----|-1----------|
|----------|------------|-----------|------------|

|-------------|----------------|
|-6---6-5-5---|-3-3-3-5--5-5-5-|
|-------------|----------------|
|-------------|----------------|

Chorus

|-----------------|----------------|-----------------|----------------|
|-----------------|----------------|-----------------|----------------|
|-3-3-3-3-3-3-3-3-|--3-3-3-3-3-3-3-|-3-3-3-3-3-3-3-3-|--3-3-3-3-3-3-1-|
|-----------------|----------------|-----------------|----------------|

|---------------|--------------|
|---------------|----------5-8-|
|-3--3--3-------|--------------|
|---------6-5-4-|--4-4-6-------|

Break

|-5--------|----------|---5-5---5----|------------|
|----------|--------5-|-8-----8------|----------5-|
|----------|----------|--------------|----6--8----|
|----------|----------|--------------|------------|

|---5-5------|----------|---5-5---5----|-----------|
|-8----------|--------5-|-8-----8------|-----------|
|------------|----------|--------------|----6--8---|
|------------|----------|--------------|-----------|

Pre-Chorus

|-----------|-----3------|-----------|-----3------|
|-----------|---3--------|-1---------|---3--------|
|-3---1-----|-1----------|-----1-----|-1----------|
|-----------|------------|-----------|------------|

|-------------|----------------|
|-6---6-5---5-|-3-3-3-5--5-5-5-|
|-------------|----------------|
|-------------|----------------|

Chorus/Ending

||------------------|----------------|-----------------|----------------|
||o-----------------|----------------|-----------------|----------------|
||o-3-3-3-3-3-3-3-3-|--3-3-3-3-3-3-3-|-3-3-3-3-3-3-3-3-|--3-3-3-3-3-3-3-|
||------------------|----------------|-----------------|----------------|
                                   3x
|-----------------|----------------||
|-----------------|---------------o||
|-3-3-3-3-3-------|---------------o||
|-----------6-5-4-|--4-4-6--6-6-6--||

|-----------------|----------------|-----------------|----------------|
|-----------------|----------------|-----------------|----------------|
|-3-3-3-3-3-3-3-3-|--3-3-3-3-3-3-3-|-3-3-3-3-3-3-3-3-|--3-3-3-3-------|
|-----------------|----------------|-----------------|----------6-6-66|

|-----------------|---------------|
|-----------------|---------------|
|-3-3-3-3-3-------|---------------|
|-----------6-5-4-|--4-4-6--6-6-6-|

|-----------------|----------------|-----------------|----------------|
|-----------------|----------------|-----------------|----------------|
|-3-3-3-3-3-3-3-3-|--3-3-3-3-3-3-3-|-3-3-3-3-3-3-3-3-|--3-3-3-3-3-3-3-|
|-----------------|----------------|-----------------|----------------|

|----------------|---------------|
|----------------|---------------|
|-3-3-3--3-------|---------------|
|----------6-5-4-|--4-4-6--6-6-6-|

|-----------------|----------------|-----------------|----------------|
|-----------------|----------------|-----------------|----------------|
|-3-3-3-3-3-3-3-3-|--3-3-3-3-3-3-3-|-3-3-3-3-3-3-3-3-|--3-3-3-3-3-3-3-|
|-----------------|----------------|-----------------|----------------|

|---------------|---------------*|
|---------------|---------------*|
|-3--3--3-------|---------------*|
|---------6-5-4-|--4-4-6--6-6-6-*| fade


----------------------
Love Don't Love Nobody
----------------------

144BPM, 3/4

Intro

|--------|---------|--------|--------|--------|-------|--------|--------|
|-1------|---1--1--|-1------|-1------|--------|-------|--------|--------|
|--------|---------|--------|--------|-3------|-------|-3------|-1------|
|--------|---------|--------|--------|--------|-------|--------|--------|

|--------|-------|--------|--------|--------|-------|--------|-------|
|--------|-------|--------|--------|--------|-------|--------|-------|
|--------|-------|--------|--------|-1------|-------|--------|-------|
|-4------|-------|-3------|-4------|--------|-------|-4------|-------|

|--------|--------|--------|----------|--------|--------|--------|--------|
|--------|--------|--------|----------|--------|--------|--------|--------|
|--------|--------|--------|----1--2--|-3------|-1------|--------|-3------|
|-3------|-----1--|-3------|-3--------|--------|--------|-4------|--------|

|--------|--------|--------|--------|--------|--------|--------|--------|
|--------|--------|--------|--------|--------|--------|--------|--------|
|-1------|-2------|-3------|-1------|-4------|-3------|-1------|--------|
|--------|--------|--------|--------|--------|--------|--------|-4------|

|--------|---------|--------|----------|
|--------|---------|--------|----------|
|--------|---------|--------|-------2--|
|-3------|---3--3--|-3------|-3--5-----|

Verse

|--------|-------|-------|--------|--------|-------|-------|--------|
|--------|-------|-------|--------|--------|-------|-------|--------|
|-3------|-------|-------|-----3--|--------|-------|-------|--------|
|--------|-------|-------|--------|-0------|-------|-------|-----0--|

|--------|-------|-------|--------|--------|--------|--------|----------|
|--------|-------|-------|--------|--------|--------|--------|-------2--|
|--------|-------|-------|--------|--------|--------|-3------|-3--5-----|
|-5------|-------|-------|-----5--|-3------|-----3--|--------|----------|

|--------|--------|--------|--------|--------|---------|--------|----------|
|--------|--------|--------|--------|--------|---------|--------|----------|
|--------|--------|--------|--------|--------|---------|--------|----2--3--|
|-1------|-----1--|-1------|-----1--|-0------|---1--3--|-5------|-5--------|

|--------|---------|--------|---------|--------|---------|--------|----------|
|--------|---------|--------|---------|--------|---------|--------|----------|
|-1------|---1--1--|--------|---------|--------|---------|--------|-------2--|
|--------|---------|-5------|---5--5--|-3------|---3--3--|-3------|-3--5-----|

|--------|-------|-------|--------|--------|-------|-------|--------|
|--------|-------|-------|--------|--------|-------|-------|--------|
|-3------|-------|-------|-----3--|--------|-------|-------|--------|
|--------|-------|-------|--------|-0------|-------|-------|-----0--|

|--------|-------|-------|--------|--------|--------|--------|----------|
|--------|-------|-------|--------|--------|--------|--------|-------2--|
|--------|-------|-------|--------|--------|--------|-3------|-3--5-----|
|-5------|-------|-------|-----5--|-3------|-----3--|--------|----------|

|--------|--------|--------|--------|--------|---------|--------|---------|
|--------|--------|--------|--------|--------|---------|--------|---------|
|--------|--------|--------|--------|--------|---------|--------|---2--3--|
|-1------|-----1--|-1------|-----1--|-0------|---1--3--|-5------|---------|

|--------|---------|--------|---------|----------|----------|----------|----------|
|--------|---------|--------|---------|----------|----------|----------|----------|
|-1------|---1--1--|--------|---------|----------|----------|----------|----------|
|--------|---------|-5------|---5--5--|-3--3--3--|-3--3--3--|-3--3--3--|-5--5--5--|

Chorus

|--------|--------|--------|--------|--------|--------|--------|----------|
|--------|--------|--------|--------|--------|-2------|--------|----------|
|--------|--------|--------|--------|-5------|--------|--------|----------|
|-1------|-----1--|-0------|-----0--|--------|--------|-3------|-5--5--5--|

|--------|--------|--------|--------|---------|---------|--------|----------|
|--------|--------|--------|--------|---------|-2----2--|--------|----------|
|--------|--------|--------|--------|-5----5--|---------|--------|----------|
|-1------|-----1--|-0------|-----0--|---------|---------|-3------|-5--5--5--|

|--------|--------|--------|--------|---------|---------|--------|----------|
|--------|--------|--------|--------|---------|-2----2--|--------|----------|
|--------|--------|--------|--------|-5----5--|---------|--------|----------|
|-1------|-----1--|-0------|-----0--|---------|---------|-3------|-5--5--5--|

|--------|--------|--------|--------|---------|---------|--------|--------|
|--------|--------|--------|--------|---------|-2----2--|--------|--------|
|--------|--------|--------|--------|-5----5--|---------|--------|--------|
|-1------|-----1--|-0------|-----0--|---------|---------|-3------|-----3--|

|--------|----------|
|--------|----------|
|--------|-------2--|
|-3------|-3--5-----|

Verse

|--------|-------|-------|--------|--------|-------|-------|--------|
|--------|-------|-------|--------|--------|-------|-------|--------|
|-3------|-------|-------|-----3--|--------|-------|-------|--------|
|--------|-------|-------|--------|-0------|-------|-------|-----0--|

|--------|-------|-------|--------|--------|--------|--------|----------|
|--------|-------|-------|--------|--------|--------|--------|-------2--|
|--------|-------|-------|--------|--------|--------|-3------|-3--5-----|
|-5------|-------|-------|-----5--|-3------|-----3--|--------|----------|

|--------|--------|--------|--------|--------|---------|--------|----------|
|--------|--------|--------|--------|--------|---------|--------|----------|
|--------|--------|--------|--------|--------|---------|--------|----2--3--|
|-1------|-----1--|-1------|-----1--|-0------|---1--3--|-5------|-5--------|

|--------|---------|--------|---------|----------|----------|----------|----------|
|--------|---------|--------|---------|----------|----------|----------|----------|
|-1------|---1--1--|--------|---------|----------|----------|----------|----------|
|--------|---------|-5------|---5--5--|-3--3--3--|-3--3--3--|-3--3--3--|-5--5--5--|

Chorus

|--------|--------|--------|--------|---------|---------|-------|----------|
|--------|--------|--------|--------|------0--|-2----2--|-------|----------|
|--------|--------|--------|--------|-5-------|---------|-------|----------|
|-1------|-----1--|-0------|-----0--|---------|---------|-------|-5--5--5--|

|--------|--------|--------|--------|---------|---------|--------|----------|
|--------|--------|--------|--------|---------|-2----2--|--------|----------|
|--------|--------|--------|--------|-5----5--|---------|--------|----------|
|-1------|-----1--|-0------|-----0--|---------|---------|-3------|-5--5--5--|

|--------|--------|--------|--------|--------|--------|--------|----------|
|--------|--------|--------|--------|--------|-2------|--------|----------|
|--------|--------|--------|--------|-5------|--------|--------|----------|
|-1------|-----1--|-0------|-----0--|--------|--------|-3------|-5--5--5--|

|--------|--------|--------|--------|--------|--------|--------|-------|
|--------|--------|--------|--------|--------|-2------|--------|-------|
|--------|--------|--------|--------|-5------|--------|--------|-------|
|-1------|-----1--|-0------|-----0--|--------|--------|-3------|-------|

|----------|----------|----------|----------|----------|----------|
|----------|----------|----------|----------|----------|----------|
|----------|----------|----------|----------|----------|-1--1--1--|
|-3--3--3--|-3--3--3--|-4--4--4--|-4--4--4--|-4--4--4--|----------|

Chord Change

|--------|--------|--------|--------|--------|--------|--------|----------|
|--------|--------|--------|--------|-1------|--------|--------|----------|
|--------|--------|--------|--------|--------|--------|--------|-1--1--1--|
|-2------|-----2--|-1------|-----1--|--------|-1------|-4------|----------|

|--------|--------|--------|--------|--------|--------|--------|----------|
|--------|--------|--------|--------|-1------|--------|--------|----------|
|--------|--------|--------|--------|--------|--------|--------|-1--1--1--|
|-2------|-----2--|-1------|-----1--|--------|-1------|-4------|----------|

|--------|--------|--------|-------|--------|--------|--------|----------|
|--------|--------|--------|-------|-1------|--------|--------|----------|
|--------|--------|--------|-------|--------|--------|--------|-1--1--1--|
|-2------|-----2--|-1------|-------|--------|-1------|-4------|----------|

|--------|--------|--------|--------|--------|--------|----------|----------|
|--------|--------|--------|--------|-1------|--------|----------|----------|
|--------|--------|--------|--------|--------|--------|----------|----------|
|-2------|-----2--|-1------|-----1--|--------|-1------|-4--4--4--|-4--4--4--|

|----------|----------|
|----------|----------|
|----------|----------|
|-4--4--4--|-4--4--4--|

Break

|--------|---------|--------|--------|--------|-------|--------|--------|
|--------|---------|--------|--------|--------|-------|--------|--------|
|-4------|---4--4--|-4------|-4------|-1------|-------|-1------|--------|
|--------|---------|--------|--------|--------|-------|--------|-4------|

|--------|--------|--------|--------|--------|--------|--------|--------|
|--------|--------|--------|--------|--------|--------|--------|--------|
|--------|--------|--------|--------|--------|--------|--------|--------|
|-2------|-----2--|-1------|-2------|-4------|-----4--|-2------|-----2--|

|--------|--------|--------|----------|--------|--------|--------|--------|
|--------|--------|--------|----------|--------|--------|--------|--------|
|--------|--------|--------|----------|--------|--------|--------|--------|
|-1------|-----1--|-1------|-1--3--5--|-6------|-4------|-2------|-3------|

|--------|--------|-------|--------|--------|--------|--------|--------|
|--------|--------|-------|--------|--------|--------|--------|--------|
|--------|--------|-------|--------|-2------|-1------|--------|--------|
|-4------|-5------|-------|-4------|--------|--------|-4------|-2------|

|--------|----------|--------|----------|
|--------|----------|--------|----------|
|--------|----------|--------|-1--1--3--|
|-1------|-1--1--1--|-1------|----------|

Chorus

|--------|--------|-------|--------|--------|--------|--------|----------|
|--------|--------|-------|--------|--------|--------|--------|----------|
|-6------|-----6--|-------|-----5--|-3------|-5------|--------|----------|
|--------|--------|-------|--------|--------|--------|-1------|-6--3--6--|

|--------|--------|--------|--------|--------|--------|--------|----------|
|--------|--------|--------|--------|--------|--------|-3------|----------|
|-6------|-----6--|-5------|-----5--|-3------|-5------|--------|----------|
|--------|--------|--------|--------|--------|--------|--------|-6--3--6--|

|--------|-------|--------|--------|--------|--------|--------|----------|
|--------|-------|--------|--------|--------|--------|-3------|----------|
|-6------|-------|-5------|-----5--|-3------|-5------|--------|----------|
|--------|-------|--------|--------|--------|--------|--------|-6--3--6--|

|--------|--------|--------|--------|--------|--------|--------|----------|
|--------|--------|--------|--------|--------|--------|-3------|----------|
|-6------|-----6--|-5------|-----5--|-3------|-5------|--------|----------|
|--------|--------|--------|--------|--------|--------|--------|-6--3--6--|

|--------|--------|--------|--------|--------|--------|--------|----------|
|--------|--------|--------|--------|--------|--------|-3------|----------|
|-6------|-----6--|-5------|-----5--|-3------|-5------|--------|----------|
|--------|--------|--------|--------|--------|--------|--------|-6--3--6--|

|--------|--------|--------|--------|--------|--------|--------|----------|
|--------|--------|--------|--------|--------|--------|-3------|-5--3-----|
|-6------|-----6--|-5------|-----5--|-3------|-5------|--------|----------|
|--------|--------|--------|--------|--------|--------|--------|-------6--|

|--------|--------|--------|--------|--------|--------|--------|----------|
|--------|--------|--------|--------|--------|--------|-3------|----------|
|-6------|-----6--|-5------|-----5--|-3------|-5------|--------|----------|
|--------|--------|--------|--------|--------|--------|--------|-6--3--6--|

|--------|--------|--------|--------*|
|--------|--------|--------|--------*|
|-6------|-----6--|-5------|-----5--*|
|--------|--------|--------|--------*| fade


-----------
Mighty Love
-----------

112BPM, 4/4

Intro

|--------------|--------------|----------------|--------------|
|--------------|--------------|--------------5-|--------------|
|-3--3-3--3-3--|-3-2-----5----|----------5-7---|-3--3-3--3-3--|
|--------------|------5-----2-|-3-5-6-7--------|--------------|

|--------------|----------------|------------|-----------------|
|--------------|----------------|------------|-----------5-5---|
|-3-2-----5----|---0-2--------2-|-3--3-3-----|-3-3-3-3-57----7-|
|------5-----2-|-3-----2--3-5---|------------|-----------------|

Verse

|-------------|-------------|-------------|--------------|
|-------------|-------------|-------------|--------------|
|-------------|----2-5------|-------------|---------3--5-|
|-3--3---3-3--|--5--------3-|-5--5--5-5---|-3--3--3------|

|--------------|------------|-------------|-----------|
|--------------|------------|-------------|-----------|
|-6--6---6-6-5-|--5-5-7-----|-------2---3-|-----------|
|--------------|------------|-5---5-------|----3----3-|

|--------------|---------------|--------------|
|--------------|-------------2-|--------------|
|-3--3-5--5----|---------2-5---|-3--3-5--6--7-|
|------------3-|--3-3--3-------|--------------|

Pre-Chorus

|----------|--------------|----------------|--------------|
|----------|--------------|----------------|--------------|
|----------|--------------|----------------|--------------|
|--------2-|--2-2--2-2--2-|-1-1-1-1-1-1--1-|-0-0--0-0-0---|

|---------------|--------------|-------------|-----------|
|---------------|--------------|-------------|-----------|
|-6--6--6-6-6-5-|--5-5-7--7-7--|-------2---3-|-----------|
|---------------|--------------|-5---5-------|----3----3-|

Chorus

|--------------|--------------|----------------|--------------|
|--------------|--------------|--------------5-|--------------|
|-3--3-3--3-3--|-3-2-----5----|----------5-7---|-3--3-3--3-3--|
|--------------|------5-----2-|-3-5-6-7--------|--------------|

|--------------|---------------|--------------|------------|
|--------------|---------------|--------------|------------|
|-3-2-----5----|---0-2---------|-2--2-2--2-2--|-3--3-3-----|
|------5-----2-|-3-----2--3-5--|--------------|------------|

|-----------------|
|-----------5-5---|
|-3-3-3-3-57----7-|
|-----------------|

Verse

|--------------|-------------|-----------|--------------|
|--------------|-------------|-----------|--------------|
|--------------|----2-5------|-----------|---------3--5-|
|-3--3---3-3-2-|--5--------3-|-5--5------|-3---2-3------|

|--------------|---------------|-------------|-----------|
|--------------|---------------|-------------|-----------|
|-6--6---6-6-5-|--5-5-7--7-7-7-|-------2---3-|-----------|
|--------------|---------------|-5---5-------|----3----3-|

|--------------|---------------|--------------|
|--------------|-------------2-|--------------|
|-3--3-5--5----|---------2-5---|-3--3-5--6--7-|
|------------3-|--3-3--3-------|--------------|

Pre-Chorus

|----------------|--------------|----------------|---------------|
|----------------|--------------|----------------|---------------|
|--7-7-7-7---2---|--------------|----------------|---------------|
|----------5---2-|--2-2--2-2--2-|-1-1-1-1-1-1--1-|-0-0--0-0-0--0-|

|--------------|--------------|-------------|-----------|
|--------------|--------------|-------------|-----------|
|-6--6--6-6--5-|--5-5-7--7-7--|-------2---3-|-----------|
|--------------|--------------|-5---5-------|----3----3-|

Chorus

|--------------|--------------|----------------|--------------|
|--------------|--------------|--------------5-|--------------|
|-3--3-3--3-3--|-3-2-----5----|----------5-7---|-3--3-3--3-3--|
|--------------|------5-----2-|-3-5-6-7--------|--------------|

|--------------|---------------|---------------|------------|
|--------------|---------------|---------------|------------|
|-3-2-----5----|---0-2---------|-2-2-2-2--2-2--|-3--3-3-----|
|------5-----2-|-3-----2--3-5--|---------------|------------|

|-----------------|
|-----------5-5---|
|-3-3-3-3-57----7-|
|-----------------|

Chorus

||---------------|--------------|-----------------||
||o--------------|--------------|--------------5-o||
||o-3--3-3--3-3--|-3-2-----5----|----------5-7---o||
||---------------|------5-----2-|-3-5-6-7---------|| til end


------------------------------
(Oh Lord) I Wish I Could Sleep
------------------------------

196BPM, 4/4

Intro

[lullaby-like intro]

||---------------|--------------|--------------|---------------||
||o-6-6--6--6-6--|----------6---|-6-6--6--6-6--|----------6---o||
||o--------------|---6--6-8---8-|--------------|---6--6-8---8-o||
||---------------|--------------|--------------|---------------||

|-----------|----------|-----------|-------------|
|-----------|----------|-----------|----------6--|
|-----------|----------|---6---6---|---6--6-8----|
|---4---4---|-4--------|-----------|-------------|

Verse

||---------------|-------------|--------------|--------------||
||o--------------|-------------|--------------|-------------o||
||o--------------|---------1---|--------------|---------3---o||
||--4-4--4--4-4--|---4-1-4-----|-4-4--4--4-4--|---4-1-4------||

Pre-Chorus

|-------------|--------5--5-|-3--3-------|-----------------|
|-------------|-------------|---------3--|-----------------|
|-4-----4-----|-3--3--------|------------|---------------3-|
|-----4-----3-|-------------|------------|-4-4-4-4-4-4-6---|

|--------------|---5--5-----1h|=3--3------|----3----------|
|--------------|---------5----|-----------|--3---3----3---|
|-4-----4--4---|-3------------|-----------|--------1----4-|
|-----4------3-|--------------|-----------|---------------|

|-----------|-------------|-----------|--------------|
|-----------|-------------|-----------|--------------|
|-1----3----|-4--3--4--6--|-----6--6--|---6--6-3---6-|
|-----------|-------------|-----------|----------6---|

Chorus

|--------------|--------------|---------------|----------|
|--------------|------------1h|-3-3-3---3-3---|---3------|
|----------1-2-|-3-3----3-----|-------3-------|----------|
|-4---4-4------|------3-------|---------------|----------|

|-----------|-------------|------------|--------------|
|-----------|-------------|------------|--------------|
|---4----3--|---3-3-3--3--|-1--1-------|--------------|
|-----------|-------------|---------4--|----4-4-1-2-3-|

|--------------|--------------|---------------|-------------|
|--------------|------------1h|-3-3-3---3--1--|-1--3--3--3--|
|----------1-2-|-3-3----3-----|-------3-------|-------------|
|-4---4-4------|------3-------|---------------|-------------|

|-----------|--------------|------------|------------|
|-----------|--------------|------------|------------|
|---4----3--|---3-3-3-3-3--|-1--1-------|------------|
|-----------|--------------|---------4--|---4--4--4--|

|--------------|--------------|---------------|---------------|
|-6-6--6--6-6--|----------6---|-6-6--6--6-6-6-|-6---------6---|
|--------------|---6--6-8---8-|---------------|----6--6-8---8-|
|--------------|--------------|---------------|---------------|

Verse

||---------------|-------------|--------------|--------------||
||o--------------|-------------|--------------|-------------o||
||o--------------|---------1---|--------------|---------3---o||
||--4-4--4--4-4--|---4-1-4-----|-4-4--4--4-4--|---4-1-4------||

Pre-Chorus

|---------------|---------5---5-|-3--3---------|---------------|
|---------------|-----------5---|--------3-----|---------------|
|-4--4---4--4-1-|-3-3-3---------|----------3---|-----------1-3-|
|------4--------|---------------|------------1-|-4---4-4-4-----|

|--------------|--------------|------------|-3------------|
|--------------|--------------|----------3-|-----3--3-----|
|-4-4----4-----|-3--3---3---3-|-1--1-------|----------4-3-|
|------4-----3-|----------3---|------------|--------------|

|-----------|-------------|-----------|--------------|
|-----------|-------------|-----------|--------------|
|-1----3----|-4--3--4--6--|-----6--6--|---6--6-3---6-|
|-----------|-------------|-----------|----------6---|

Verse

|--------------|--------------|-------------|----------|
|--------------|------------1-|-3-----3--3--|---3------|
|----------1-2-|-3--3---3-----|----3--------|----------|
|-4---4-4------|------3-------|-------------|----------|

|-----------|-------------|------------|--------------|
|-----------|-------------|------------|--------------|
|---4----3--|---3-3-3--3--|-1--1-------|--------------|
|-----------|-------------|---------4--|----4-4-1-2-3-|

|--------------|-------------|---------------|-----------|
|--------------|-----------1-|-3-3-3---3--3--|---3--3----|
|----------1-2-|-3-----3-----|-------3-------|-----------|
|-4---4-4------|-----3-------|---------------|-----------|

|-----------|--------------|------------|---------------|
|-----------|--------------|------------|---------------|
|---4----3--|---3-3-3--3-3-|-1--1-------|---------------|
|-----------|--------------|---------4--|---4-4-4-1-2-3-|

Bridge

|----------|----------|------------|--------------|
|----------|----------|------------|--------------|
|----------|----------|-3----3-----|-3---3--3-----|
|-4--------|-------4--|----------4-|---4-------4--|

|---------------|-------------|--------------|--------------|
|-------------1-|-3-----------|--------------|--------------|
|-3-------------|---3---------|-3--3--3-3----|-3---3--3-----|
|---1-1-1-1-----|-----1----4--|------------4-|---4-------4--|

|---------------|-------------|--------------|--------------|
|------------1--|-1----1-1----|-1---1-----1--|-1-1-1--1-----|
|---------3-----|-----------1-|---1----1-----|------------1-|
|-1-1-1-1-------|-------------|--------------|--------------|

|--------------|------------|----------------|
|-1---1-----1--|-1----1-----|-1---1----------|
|---1----1-----|----------1-|---1----4-4-4-4-|
|--------------|------------|----------------|

Break

|---6----6-6-6-|-6---6----6-6-|---6-6-6-6--6-6-|-6----6----6--|
|--------------|--------------|----------------|--------------|
|-4------------|--------4-----|-4--------------|----4----4----|
|--------------|--------------|----------------|--------------|

|---6-6--6-6-6-6-|-6-6-6-6-6-6-----|-------------|-------------|
|----------------|-----------------|-------------|-------1-----|
|-4--------------|-------------4-4-|-6--6--6--6--|---6-----1---|
|----------------|-----------------|-------------|-----------1-|

Chorus/Ending

|--------------|--------------|---------------|----------|
|--------------|------------1-|-3-3-3---3--3--|---3------|
|----------1-2-|-3--3---3-----|-------3-------|----------|
|-4---4-4------|------3-------|---------------|----------|

|-----------|--------------|------------|---------------|
|-----------|--------------|------------|---------------|
|---4----3--|---3-3-3--3-3-|-1--1-------|---------------|
|-----------|--------------|---------4--|---4-4-4-1-2-3-|

|--------------|---------------|---------------|----------|
|--------------|-------------1-|-3-3-3---3--3--|---3------|
|----------1-2-|-3-3-3---3-----|-------3-------|----------|
|-4---4-4------|-------3-------|---------------|----------|

|-----------|--------------|------------|--------------|
|-----------|--------------|------------|--------------|
|---4----3--|---3-3-3--3-3-|-1--1-------|--------------|
|-----------|--------------|---------4--|----4-4-1-2-3-|

|--------------|--------------|------------|----------|
|--------------|------------1-|-3----------|----------|
|----------1-2-|-3-3----3-----|---3--------|----------|
|-4---4-4------|------3-------|-----1------|---1------|

|-----------|----------------|------------|-------------|
|-----------|----------------|------------|---------6---|
|---4----3--|-3--3-3-3-3-3-3-|-1--1-------|----6------6-|
|-----------|----------------|---------4--|------4------|

|--------------|---------------|---------------|----------|
|--------------|-------------1-|-3-3-3---3--3--|---3------|
|----------1-2-|-3-3-3---3-----|-------3-------|----------|
|-4---4-4------|-------3-------|---------------|----------|

|-----------|---------------|------------|-------------|
|-----------|---------------|------------|-------------|
|---4----3--|-3--3-3-3--3-3-|-1--1-------|-------------|
|-----------|---------------|---------4--|----4-4--4-1-|

|--------------|---------------|---------------|----------|
|--------------|-------------1-|-3-3-3---3--3--|---3------|
|----------1-2-|-3-3-3---3-----|-------3-------|----------|
|-4---4-4------|-------3-------|---------------|----------|

|-----------|--------------|------------|---------------*|
|-----------|--------------|------------|---------------*|
|---4----3--|---3-3-3--3-3-|-1--1-------|---------------*|
|-----------|--------------|---------4--|---4-4-4-1-2-3-*|


---------------------------
I Just Gotta Make It Happen
---------------------------

168BPM, 4/4

Intro

|---------|---------|
|---------|---------|
|---------|---------|
|---------|---------|

|---------------|-------------|---------------|-------------|
|-5--5--------5-|-5--5--------|-5--5--------5-|-5--5--------|
|-------7-5-7---|-------7-5---|-------7-5-7---|-------7-5---|
|---------------|-------------|---------------|-------------|

|--------------|-------------|-------------|--------------|
|--------------|-------------|-------------|----------5---|
|-5--5------5--|---5---------|------2-3-5--|---5--5-7---7-|
|-------5-7----|------7-5-0--|-3-----------|--------------|

|---------------|-------------|---------------|-------------|
|-5--5--------5-|-5--5--------|-5--5--------5-|-5--5--------|
|-------7-5-7---|-------7-5---|-------7-5-7---|-------7-5---|
|---------------|-------------|---------------|-------------|

|--------------|-------------|-------------|--------------|
|--------------|-------------|-------------|----------5---|
|-5--5------5--|---5---------|------2-3-5--|---5--5-7---7-|
|-------5-7----|------7-5p0--|-3-----------|--------------|

|---------------|-------------|---------------|-------------|
|-5--5--------5-|-5--5--------|-5--5--------5-|-5--5--------|
|-------7-5-7---|-------7-5---|-------7-5-7---|-------7-5---|
|---------------|-------------|---------------|-------------|

|--------------|------------|-----------|-----------|
|--------------|---------5--|-----5-----|-----------|
|-5--5------5--|---5--7-----|--------5--|---5----5--|
|-------5-7----|------------|-----------|-----------|

Verse

||----------------|-------------|---------------|-------------|
||o-5--5--------5-|-5--5--------|---------------|-------------|
||o-------7-5-7---|-------7-5---|-5--5--------5-|-5--5--------|
||----------------|-------------|-------7-5-7---|-------5-7---|

|--------------|---------------|--------------|------------||
|--------------|---------------|-2--2---------|-----------o||
|-3--3------3--|-3--3------3-5-|-------2-3-5--|---5----5--o||
|-------3-5----|-------3-5-----|--------------|------------||

Chorus

|---------------|-------------|---------------|-------------|
|-5--5--------5-|-5--5--------|-5--5--------5-|-5--5--------|
|-------7-5-7---|-------7-5---|-------7-5-7---|-------7-5---|
|---------------|-------------|---------------|-------------|

|--------------|------------|--------------|--------------|
|--------------|------------|--------------|----------5---|
|-5--5------5--|---5--------|-------2-3-5--|---5--5-7---7-|
|-------5-7----|------7-5---|-3--3---------|--------------|

|---------------|-------------|---------------|-------------|
|-5--5--------5-|-5--5--------|-5--5--------5-|-5--5--------|
|-------7-5-7---|-------7-5---|-------7-5-7---|-------7-5---|
|---------------|-------------|---------------|-------------|

|--------------|------------|-----------|-----------|
|--------------|---------5--|-----5-----|-----------|
|-5--5------5--|---5--7-----|--------5--|---5----5--|
|-------5-7----|------------|-----------|-----------|

Verse

||----------------|-------------|---------------|-------------|
||o-5--5--------5-|-5--5--------|---------------|-------------|
||o-------7-5-7---|-------7-5---|-5--5--------5-|-5--5--------|
||----------------|-------------|-------7-5-7---|-------5-7---|

|--------------|---------------|--------------|------------||
|--------------|---------------|-2--2---------|-----------o||
|-3--3------3--|-3--3------3-5-|-------2-3-5--|---5----5--o||
|-------3-5----|-------3-5-----|--------------|------------||

Chorus

|---------------|-------------|---------------|-------------|
|-5--5--------5-|-5--5--------|-5--5--------5-|-5--5--------|
|-------7-5-7---|-------7-5---|-------7-5-7---|-------7-5---|
|---------------|-------------|---------------|-------------|

|--------------|------------|--------------|--------------|
|--------------|------------|--------------|----------5---|
|-5--5------5--|---5--------|-------2-3-5--|---5--5-7---7-|
|-------5-7----|------7-5---|-3--3---------|--------------|

|---------------|-------------|---------------|-------------|
|-5--5--------5-|-5--5--------|-5--5--------5-|-5--5--------|
|-------7-5-7---|-------7-5---|-------7-5-7---|-------7-5---|
|---------------|-------------|---------------|-------------|

|--------------|------------|------------|-----------|
|--------------|---------5--|---5--5-----|-----------|
|-5--5------5--|---5--7-----|---------5--|---5----5--|
|-------5-7----|------------|------------|-----------|

Bridge

|--------------|--------------|------------|-------------|
|--------------|--------------|------------|-2--2--------|
|-3-3-3-3-3----|--3-3-3-3---3-|-2------2-5-|-------5--5--|
|--------------|--------------|------------|-------------|

|-------------|--------------|------------|--------------|
|-------------|--------------|----------4-|-5------------|
|-3--3----3-3-|-3--3---5-2---|--------5---|----5------2--|
|-------------|------------5-|-3----------|------3--5----|

|-------------|-----------|------------|-----------|
|-------------|-----------|------------|-2---------|
|-3--3----3-3-|-3----3----|-2------2-5-|------5----|
|-------------|-----------|------------|-----------|

|------------|-------------|------------|----------------|
|------------|-------------|------------|----------------|
|-3------3-3-|-3-----5-2---|------------|--------------2-|
|------------|-----------5-|-3--3--3----|--3-3-3-3-3-5---|

|--------------|------------|--------------|-------------|
|--------------|------------|--------------|-------------|
|-3-3-3--3--3--|---3--2-----|--------------|----------2--|
|--------------|---------5--|-3-3-3--3--3--|---3--5-5----|

|------------|------------|-------------|-------------|
|------------|------------|-------------|-------------|
|-3--3----3--|-------2-3--|-5---5-5---5-|-5---5-5---5-|
|------------|-----5------|-------------|-------------|

|-------------|------------|
|-------------|------------|
|-5--5--5--5--|---------5--|
|-------------|-----5-7----|

Chorus

|---------------|-------------|---------------|-------------|
|-5--5--------5-|-5--5--------|-5--5--------5-|-5--5--------|
|-------7-5-7---|-------7-5---|-------7-5-7---|-------7-5---|
|---------------|-------------|---------------|-------------|

|--------------|------------|--------------|--------------|
|--------------|------------|--------------|----------5---|
|-5--5------5--|---5--------|-------2-3-5--|---5--5-7---7-|
|-------5-7----|------7-5---|-3--3---------|--------------|

|---------------|-------------|---------------|-------------|
|-5--5--------5-|-5--5--------|-5--5--------5-|-5--5--------|
|-------7-5-7---|-------7-5---|-------7-5-7---|-------7-5---|
|---------------|-------------|---------------|-------------|

|--------------|------------|-----------|-----------|
|--------------|---------5--|-----5-----|-----------|
|-5--5------5--|---5--7-----|--------5--|---5----5--|
|-------5-7----|------------|-----------|-----------|

|---------------|-------------|---------------|-------------|
|-5--5--------5-|-5--5--------|-5--5--------5-|-5--5--------|
|-------7-5-7---|-------7-5---|-------7-5-7---|-------7-5---|
|---------------|-------------|---------------|-------------|

|--------------|-------------|--------------|--------------|
|--------------|-------------|--------------|----------5---|
|-5--5------5--|---5---------|-------2-3-5--|---5--5-7---7-|
|-------5-7----|------7-5-0--|-3--3---------|--------------|

|---------------|-------------|---------------|-------------|
|-5--5--------5-|-5--5--------|-5--5--------5-|-5--5--------|
|-------7-5-7---|-------7-5---|-------7-5-7---|-------7-5---|
|---------------|-------------|---------------|-------------|

|--------------|------------|-----------|-----------*|
|--------------|---------5--|-----5-----|-----------*|
|-5--5------5--|---5--7-----|--------5--|---5----5--*|
|-------5-7----|------------|-----------|-----------*| fade


-----------
Mr. Big Man
-----------

212BPM, 4/4

Intro
                                                    6x
||------------|-----------|------------|------------||
||o----3------|------3----|----6-------|-----------o||
||o-4---------|---4-------|-6-------8--|---7----6--o||
||------------|-----------|------------|------------||

Verse
                                                    8x
||------------|-----------|------------|------------||
||o----3------|------3----|----6-------|-----------o||
||o-4---------|---4-------|-6-------8--|---7----6--o||
||------------|-----------|------------|------------||

Chorus

|-------------|--------------|------------|--------------|
|-------------|--------------|------------|--------------|
|-------------|--------------|------------|--------------|
|-6--6-6-6----|--6-6-6-6--5--|---5-5-5----|--/5--5-5--4--|

|--------------|-------------|-------------|--------------|
|--------------|-------------|-------------|--6-8-8-------|
|--------------|--4----4-----|-------------|--------8-8---|
|-4--4-4-4--4--|----4-----3--|-3--3-3-3----|--------------|

|-------------|----------|-------------|--------------|
|-------------|----------|-------------|--------------|
|-------------|----------|-------------|--------------|
|-6--6-6-6----|-------5--|-5--5-5-5----|--5-5-5-5--4--|

|-------------|-------------|-------------|-------------|
|-------------|-------------|-------------|-------------|
|-------------|--4----4-----|-------------|-----------3-|
|-4--4-4-4----|----4-----3--|-3--3-3-3----|-4--4----6---|

Verse
                                                    8x
||------------|-----------|------------|------------||
||o----3------|------3----|----6-------|-----------o||
||o-4---------|---4-------|-6-------8--|---7----6--o||
||------------|-----------|------------|------------||

Chorus

|-------------|--------------|------------|---------------|
|-------------|--------------|------------|---------------|
|-------------|--------------|------------|---------------|
|-6--6-6-6----|--6-6-6-6--5--|-5--5--5----|-0-/5--0-5--4--|

|-------------|-------------|--------------|--------------|
|-------------|-------------|--------------|---8-8-8-8----|
|-------------|--4----4-----|------------6-|-8------------|
|-4--4-4-4----|----4-----3--|-3--3-3-3-----|--------------|

|------------|-------------|-------------|--------------|
|------------|-------------|-------------|--------------|
|------------|-------------|-------------|--------------|
|-6---0-6----|--6-6--6--5--|-5--5---0-5--|--5-0-0-5--4--|

|-------------|-------------|--------------|-------------|
|-------------|-------------|--------------|-------------|
|-------------|--4----4-----|--------------|-----------3-|
|-4--4-4-4----|----4-----3--|-3--3-3-3--3--|-4--4----6---|

Verse
                                                    7x
||------------|-----------|------------|------------||
||o----3------|------3----|----6-------|-----------o||
||o-4---------|---4-------|-6-------8--|---7----6--o||
||------------|-----------|------------|------------||

|-----------|-----------|------------|-----------|
|----3------|------3----|----6----6--|---6----6--|
|-4---------|---4-------|-6----------|-----------|
|-----------|-----------|------------|-----------|

Rap
                                                    6x
||------------|-----------|------------|------------||
||o----3------|------3----|----6-------|-----------o||
||o-4---------|---4-------|-6-------8--|---7----6--o||
||------------|-----------|------------|------------||

Verse/Ending

|-----------|----------|------------|-----------|
|----3------|-----3----|----6-------|-----------|
|-4---------|----------|-6-------8--|---7----6--|
|-----------|----------|------------|-----------|
                                                    8x
||------------|-----------|------------|------------||
||o----3------|------3----|----6-------|-----------o||
||o-4---------|---4-------|-6-------8--|---7----6--o||
||------------|-----------|------------|------------|| fade


------------------
You Sure Are Nasty
------------------

228BPM, 4/4

Intro

|---------------|---------------|----------4--|---4--------|
|-4-4-4-4-------|-4-4-4-4-------|-------4-----|------6--4--|
|---------6--4--|---------6--4--|-2--6--------|------------|
|---------------|---------------|-------------|------------|

|---------------|---------------|------------|-------------|
|-4-4-4-4-------|-4-4-4-4-------|------------|-------------|
|---------6--4--|---------6--4--|-4----4--4--|-------2h=3--|
|---------------|---------------|------------|-4--6--------|

|-----------|----------|---------|-----------|
|-----------|----------|---------|-----------|
|-4------4--|-------4--|---------|-------4-4-|
|-----------|----------|---------|-----------|

Verse
                                                              4x
||----------------|---------------|----------4--|---4---------||
||o-4-4-4-4-------|-4-4-4-4-------|-------4-----|------6--4--o||
||o---------6--4--|---------6--4--|-2--6--------|------------o||
||----------------|---------------|-------------|-------------||

Pre-Chorus

|-------------|---------------|----------|-4---6-x-8\----|
|-------------|------------6--|---6------|---6-----------|
|-------------|-6-6-6-6-6-----|----------|---------------|
|-4---4-7---7-|---------------|----------|---------------|

|---6---6----6-|----6--6--6--|---6--6--6--|-6--6-----------|
|--------------|-------------|------------|----------------|
|-4----4---4---|--4----------|------------|------4-4-4-6---|
|--------------|-------------|------------|----------------|

Chorus

|-------------|---------------|----------4--|---4--------|
|-4--4--------|-4-4-4-4-------|-------4-----|------6--4--|
|-------6--4--|---------6--4--|-2--6--------|------------|
|-------------|---------------|-------------|------------|

|---------------|---------------|----------4--|---4--------|
|-4-4-4-4-------|-4-4-4-4-------|-------4-----|------6--4--|
|---------6--4--|---------6--4--|-2--6--------|------------|
|---------------|---------------|-------------|------------|

|---------------|---------------|------------|------------|
|-4-4-4-4-------|-4-4-4-4-------|------------|------------|
|---------6--4--|---------6--4--|-4----4--4--|------------|
|---------------|---------------|------------|-4--6--7----|

|-----------|----------|---------|-----------|
|-----------|----------|---------|-----------|
|-4------4--|-------4--|---------|-------4-4-|
|-----------|----------|---------|-----------|

Verse
                                                              4x
||----------------|---------------|----------4--|---4---------||
||o-4-4-4-4-------|-4-4-4-4-------|-------4-----|------6--4--o||
||o---------6--4--|---------6--4--|-2--6--------|------------o||
||----------------|---------------|-------------|-------------||

Pre-Chorus

|-------------|---------------|---------|-4--6--8\----|
|-------------|------------6--|---------|-------------|
|-------------|-6-6-6-6-6-----|---------|-------------|
|-4---4-7---7-|---------------|---------|-------------|

|---6---6----6-|-----6--6--|---------6---|--6-6----------|
|--------------|-----------|-------------|-------------3-|
|-4----4---4---|-----------|---4--4----4-|-------4-4-6---|
|--------------|-----------|-------------|---------------|

Chorus

|---------------|--------------|----------4--|---4---------|
|-4-4-4-4-------|-4-4-4--------|-------4-----|------6--4-4-|
|---------6--4--|--------6--4--|-2--6--------|-------------|
|---------------|--------------|-------------|-------------|

|---------------|---------------|----------4--|---4--------|
|-4-4-4-4-------|-4-4-4-4-------|-------4-----|------6--4--|
|---------6--4--|---------6--4--|-2--6--------|------------|
|---------------|---------------|-------------|------------|

|---------------|---------------|------------|------------|
|-4-4-4-4-------|-4-4-4-4-------|------------|------------|
|---------6--4--|---------6--4--|-4----4--4--|------------|
|---------------|---------------|------------|-4--6--7----|

|-----------|----------|---------|-----------|
|-----------|----------|---------|-----------|
|-4------4--|-------4--|---------|-------4-4-|
|-----------|----------|---------|-----------|

Bridge

||--------------|-----------|-------------|-------------|
||o-------------|-----------|---------4-4-|-------------|
||o-6--6--------|-6--6------|-6--6--------|-6--6--------|
||----------6-6-|-----------|-------------|---------6-x-|
                                                           3x
|-------------|-------------|-------------|----------------||
|-------------|-------------|-------------|---------------o||
|---------6-x-|-------------|---------6-6-|-------------4-o||
|-4--4--------|-4--4----2-2-|-4--4--------|-4-4--4-4--6----||

|-------------|-----------|-------------|-------------|
|-------------|-----------|---------4-4-|-------------|
|-6--6--------|-6--6------|-6--6--------|-6--6--------|
|---------6-6-|-----------|-------------|---------6-x-|

|-------------|------------|---------|-------------|
|-------------|------------|---------|-4-4---------|
|---------6-x-|------------|---------|-----4--4----|
|-4--4--------|-4--4----4--|---------|-------------|

Instrumental

|-------------|---------------|---6-6--6----6-|--6-6---------|
|-4-4-4--4----|---------------|---------------|------------3-|
|-------4-----|-----------2-3-|-4-----4---4---|--------4-6---|
|-------------|--2-2-2-2------|---------------|--------------|

|-----------|----------------|---6-6--6----6-|--6-6--6-------|
|-4----4----|----------------|---------------|-------------3-|
|-----4-----|--------1-1-2-2-|-4-----4---4---|---------4-6---|
|-----------|--2-2-2---------|---------------|---------------|

|-------------|-----------|------------|---------------|
|-4------4----|-------4---|------------|---------------|
|---4---------|---------4-|-6--6--6----|---------------|
|-----2-------|-----------|------------|--1-1-1-2-2--3-|

|-------------|----------------|------------|----------|
|-----6--6----|----6-----------|------------|----------|
|---6---------|--6---6-----4-4-|-4--4----4--|-----4----|
|-4-----------|--------4-4-----|------------|----------|

Verse
                                                              4x
||----------------|---------------|----------4--|---4---------||
||o-4-4-4-4-------|-4-4-4-4-------|-------4-----|------6--4--o||
||o---------6--4--|---------6--4--|-2--6--------|------------o||
||----------------|---------------|-------------|-------------||

Pre-Chorus

|-------------|------------|----------|-4---6---8\----|
|-------------|---------6--|-6--------|---6---6-------|
|-------------|-6----6-----|----------|---------------|
|-4---4-7---7-|------------|----------|---------------|

|---6---6----6-|----6--6--6--|---6--6--6--|------6---------|
|--------------|-------------|------------|--------------3-|
|-4----4---4---|--4----------|------------|-4--4---4-4-6---|
|--------------|-------------|------------|----------------|

Chorus/Ending
                                                              
||----------------|---------------|----------4--|---4--------|
||o-4-4-4-4-------|-4-4-4-4-------|-------4-----|------6--4--|
||o---------6--4--|---------6--4--|-2--6--------|------------|
||----------------|---------------|-------------|------------|
 
|---------------|---------------|----------4--|---4--------|
|-4-4-4-4-------|-4-4-4-4-------|-------4-----|------6--4--|
|---------6--4--|---------6--4--|-2--6--------|------------|
|---------------|---------------|-------------|------------|

|---------------|---------------|------------|------------|
|-4-4-4-4-------|-4-4-4-4-------|------------|------------|
|---------6--4--|---------6--4--|-4----4--4--|------------|
|---------------|---------------|------------|-4--6--7----|

|-----------|----------|---------|------------||
|-----------|----------|---------|-----------o||
|-4------4--|-------4--|---------|-------4-4-o||
|-----------|----------|---------|------------|| til fade


----------
Tabbed by W.g.Wilson (199X) using Powertab Editor.
I make no money from the writing of these tabs.
comments
We did not receive enough feedback on this tab! Please rate:
print report bad tab
1 2 3 4 5
I want to post or [tab]
guest
You may want to rate the tab now too:
select rating
Please do not post tabs as comments. Select "correction" instead!