Oops, an error
Loading. Please wait.

Pick Of The Litter Bass Tab

152 views 3 this week
no commentswrite comment
1 2 3 4 5
please rate
Autoscroll
+/-
esc
set tempo
stop
Contributor
WARNING: You are trying to view
                                    content from Ultimate-Guitar.com
                                    in an unauthorized application,
                                    which is prohibited.

                                    Please use an official Ultimate
                                    Guitar Tabs application for iPhone,
                                    iPad or Android to access legitimate
                                    chords, guitar, bass, and drum tabs
                                    from Ultimate-Guitar.com database.

                                    Type "ultimate guitar tabs" in Apple
                                    App Store's or Android Market's
                                    search to find the application.
------------------
Pick of the Litter
------------------
The Spinners
Bass Tabs
Bass played by Bob Babbitt

Track Listing

1. Honest I Do (Thom Bell, Sherman Marshall, Philip T. Pugh)
2. I Don't Want to Lose You (Bell, Linda Creed)
3. Love or Leave (Bruce Hawes, Joseph P. Jefferson, Charles Simmons)
4. Sweet Love of Mine (Vinnie Barrett, Bobby Eli)

5. All That Glitters Ain't Gold (T.G. Conway, Theodore Life, Phil Terry)
6. You Made a Promise to Me (Hawes, Jefferson, Simmons)
7. They Just Can't Stop It (The Games People Play) (Hawes, Jefferson, Simmons)
8. Just as Long as We Have Love (Barrett, Hawes)


-----------
Honest I Do
-----------

108BPM, 4/4

Intro

|-------------|
|-----4-4-4-5-|
|-------------|
|-------------|

|---------2-4--|-4------------|---------------|---------------|
|----2-5-------|----2--4--4-5-|---------------|-------4-4-4-5-|
|--5-----------|--------------|-----------2-2-|--2------------|
|--------------|--------------|--3-3--3-5-----|----5----------|

|---------2-4--|-4-------------|---------------|---------------|
|----2-5-------|----2----------|---------------|-------4-4-4-5-|
|--5-----------|-----2---------|-----------2-2-|--2------------|
|--------------|------0-2--2-3-|--3-3--3-5-----|----5----------|

|---------2-4--|-4------------|---------------|-------------|
|----2-5-------|----2--4--4-5-|---------------|-------------|
|--5-----------|--------------|-----------2-2-|--2----------|
|--------------|--------------|--3-3--3-5-----|----5--3--5--|

Verse

|---------------|--------------|--------------|--------------|
|---------------|----4---------|--------------|------22--2---|
|---------------|------22--2---|--------------|----2---2---2-|
|-2---2-2-3-2-5-|--------2---2-|-0---0-0-2--0-|--------------|

|--------------|--------------|--------------|--------------|
|--------------|--------------|--------------|--------------|
|-3---3-3-3--3-|-------3--3---|---3----------|--------------|
|--------------|-3---3------5-|-----5-5--5-3-|--3-3---2-3-5-|

|---------------|--------------|-------------|--------------|
|---------------|----4---------|-------------|------22------|
|---------------|------22------|-------------|----2---2-5-2-|
|-2---2-2-3-2-5-|--------2-5-2-|-0----0-2--0-|--------------|

|---------------|-------------|---------------|---------------|
|---------------|-------------|---------------|---------------|
|-3---3-3-3-3-3-|-------3-----|---------------|---2---5-------|
|--------------5|-3---3-----5-|-5-5--5-5-5--5-|-5---5-----2-5-|

Pre-Chorus

|-------------|-------------|--------------|-------------|
|-------------|-------------|--------------|-------------|
|-------------|------2--2-2-|------------5-|--4--2-------|
|-3---3-3---2-|----2-------2|-0---235--5---|--------2--3-|

|--------------|-------------|---------------|-----------------|
|--------------|----4--------|---------------|-----------------|
|--------------|------2--2-2-|---------------|-----------------|
|-3-3--3-3---2-|------------2|-0---0-0-0-2-3-|-5-5-5-5-5-5-5-5-|

|--------------|
|------4-4-4-5-|
|--------------|
|-5------------|

Chorus

|----------2-4--|-4------------|---------------|---------------|
|-5---2-5-------|----2--4--4-5-|---------------|-------4-4-4-5-|
|---5-----------|--------------|-----------2-2-|--2------------|
|---------------|--------------|--3-3--3-5-----|----5----------|

|----------2-4--|-4--4----------|---------------|---------------|
|-5---2-5-------|-----2---------|---------------|-------4-4-4-5-|
|---5-----------|------2--------|-----------2-2-|--2------------|
|---------------|--------2--2-3-|--3-3--3-5-----|----5----------|

|---------2-4--|-4-4-----------|---------------|-------------|
|----2-5-------|-----2--4--4-5-|---------------|-------------|
|--5-----------|---------------|-----------2-2-|--2----------|
|--------------|---------------|--3-3--3-5-----|----5--3--5--|

Verse

|----------------|--------------|---------------|--------------|
|----------------|----4---------|---------------|------22------|
|----------------|------22------|---------------|----2---2-5-2-|
|-2-2--2-2-5-2-5-|--------2-5-5-|-0-0--0-0-2--0-|--------------|

|---------------|---------------|------------|--------------|
|---------------|---------------|------------|--------------|
|-3-3--3-3-3----|--------3-3----|------------|--------------|
|------------5--|-3-3--3------5-|---5-5--5-3-|--3-3---3-5-5-|

|-------------|--------------|--------------|--------------|
|-------------|--------------|--------------|------22------|
|-----------2-|------22------|--------------|----2---2-5-2-|
|-2-----5-2---|----2---2-5-2-|-0---0-0-2--0-|--------------|

|---------------|---------------|--------------|---------------|
|---------------|---------------|--------------|---------------|
|-3-3--333-3--3-|-----------3---|--------2-x---|---2---5-------|
|--------------5|-3-3--3-3----5-|----5-5-----5-|-5---5-----2-5-|

Pre-Chorus

|---------------|------------|--------------|-------------|
|---------------|------------|--------------|-------------|
|---------------|-----2--2---|------------5-|--4--2-------|
|-3-3--3-3-3--2-|---------52-|-0---3-5-5----|--------2--3-|

|--------------|-------------|---------------|-----------------|
|--------------|-------------|---------------|-----------------|
|--------------|------2--2---|---------------|-----------------|
|-3-3--3-3---2-|----2-----52-|-0---0-0-2-3-0-|-5-5-5-5-5-5-5-5-|

|--------------|
|------4-4-4-5-|
|--------------|
|-5------------|

Chorus/Coda

|----------2-4--|-4------------|---------------|---------------|
|-x---2-5-------|----2--4--4-5-|---------------|-------4-4-4-5-|
|---5-----------|--------------|-----------2-2-|--2------------|
|---------------|--------------|--3-3--3-5-----|----5----------|

|----------2-4--|-4-------------|---------------|---------------|
|-x---2-5-------|----2----------|---------------|-------4-4-4-5-|
|---5-----------|-----2---------|-----------2-2-|--2------------|
|---------------|------0-2--2-3-|--3-3--3-5-----|----5----------|

|----------2-4--|-4------------|---------------|---------------|
|-5---2-5-------|----2--4--4-5-|---------------|-------4-4-4-5-|
|---5-----------|--------------|-----------2-2-|--2------------|
|---------------|--------------|--3-3--3-5-----|----5----------|

|---------2-4--|-4-------------|---------------|---------------|
|----2-5-------|----2----------|---------------|-------4-4-4-5-|
|--5-----------|-----2---------|-----------2-2-|--2------------|
|--------------|------0-2--2-3-|--3-3--3-5-----|----5----------|

|----------2-4--|-4------------|---------------|---------------|
|-5---2-5-------|----2--4--4-5-|---------------|-------4-4-4-5-|
|---5-----------|--------------|-----------2-2-|--2------------|
|---------------|--------------|--3-3--3-5-----|----5----------|

|----------2-4--|-4-------------|---------------|---------------|
|-x---2-5-------|----2----------|---------------|-------4-4-4-5-|
|---5-----------|-----2---------|-----------2-2-|--2------------|
|---------------|------0-2--2-3-|--3-3--3-5-----|----5----------|

|---------2-4--|-4------------|---------------|---------------|
|----2-5-------|----2--4--4-5-|---------------|-------4-4-4-5-|
|--5-----------|--------------|-----------2-2-|--2------------|
|--------------|--------------|--3-3--3-5-----|----5----------|

|----------2-4--|-4-------------|---------------|---------------*|
|-5---2-5-------|----2----------|---------------|-------4-4-4-5-*|
|---5-----------|-----2---------|-----------2-2-|--2------------*|
|---------------|------0-2--2-3-|--3-3--3-5-----|----5----------*| fade


------------------------
I Don't Want to Lose You
------------------------

136BPM, 4/4, Drop-D Tuning

Intro

||----------|---------|---------|----------||
||o---------|---------|---------|---------o||
||o---------|---------|---------|---------o||
||----------|---------|---------|----------||
                          2/4
|-----------|------------|-------|
|-----------|------------|-------|
|-1------1--|-3------3\--|----0--|
|-----------|------------|-3-----|

|----------|------------|----------|------------|
|----------|------------|----------|------------|
|-1--------|---------5--|----------|---------0--|
|----------|---8--7-----|-5--------|---5--3-----|

|----------|------------|----------|----------|
|----------|------------|----------|----------|
|-1--------|---------5--|----------|-3--------|
|----------|---8--7-----|-5--------|----------|

Verse

|-----------|-----------|-----------|----------|
|-----------|-----------|-----------|----------|
|--------3--|-----------|-3------3--|----------|
|-3---------|-3------3--|-----------|-3--------|

|------------|-----------|------------|----------|
|------------|-----------|------------|----------|
|------0--3--|-5----3----|--------6-5-|-3--------|
|-3----------|-----------|-1----------|----------|

|-----------|-----------|-----------|----------|
|-----------|-----------|-----------|----------|
|--------3--|-----------|-3------3--|----------|
|-3---------|-3------3--|-----------|-3--------|

|------------|-----------|------------|-----------|
|------------|-----------|------------|-----------|
|------0--3--|-5----3----|--------6-5-|-3------3--|
|-3----------|-----------|-1----------|-----------|

Pre-Chorus

|-----------|-----------|-----------|------------|
|-----------|-----------|-----------|------------|
|-----------|-----------|------1----|------------|
|-6------6--|-5------5--|-3---------|-1------3-5-|

|-----------|-----------|-----------|----------|
|-----------|-----------|-----------|----------|
|-----------|------3----|--------1--|-----1----|
|-6------6--|---5-------|-3---------|----------|

Chorus

|------------|-----------|-----------|-----------|
|------------|-----------|-1---------|-----------|
|------------|-1------1--|--------1--|-3------1--|
|-6------5-3-|-----------|-----------|-----------|

|------------|-----------|-----------|-------------|
|------------|-----------|-1---------|-------------|
|------------|-1------1--|--------1--|-3-----------|
|-6------5-3-|-----------|-----------|----8-6-5----|

|------------|-----------|-------|----------|
|------------|-----------|-------|----------|
|------------|-1------1--|-6-----|-3--------|
|-6------5-3-|-----------|----5--|----------|

|------------|----------|
|------------|----------|
|---------3--|----------|
|---6--5-----|-3--------|

|------------|----------|------------|-----------|
|------------|----------|------------|-----------|
|------------|----------|---------5--|-----------|
|---3--5--7--|-8--------|---8--7-----|-5------5--|

|------------|
|------------|
|-3-------3--|
|-------5----|

Verse

|-----------|-----------|-----------|----------|
|-----------|-----------|-----------|----------|
|--------3--|-----------|-3------3--|----------|
|-3---------|-3------3--|-----------|-3--------|

|------------|-----------|------------|----------|
|------------|-----------|------------|----------|
|------0--3--|-5----3----|--------6-5-|-3--------|
|-3----------|-----------|-1----------|----------|

|-----------|-----------|-----------|----------|
|-----------|-----------|-----------|----------|
|--------3--|-----------|-3------3--|----------|
|-3---------|-3------3--|-----------|-3--------|

|------------|-----------|------------|-----------|
|------------|-----------|------------|-----------|
|------0--3--|-5----3----|--------6-5-|-3------3--|
|-3----------|-----------|-1----------|-----------|

Pre-Chorus

|-----------|-----------|-----------|------------|
|-----------|-----------|-----------|------------|
|-----------|-----------|------1----|------------|
|-6------6--|-5------5--|-3---------|-1------3-5-|

|-----------|-----------|-----------|----------|
|-----------|-----------|-----------|----------|
|-----------|------3----|--------1--|-----1----|
|-6------6--|---5-------|-3---------|----------|

Chorus

|------------|-----------|-----------|-----------|
|------------|-----------|-1---------|-----------|
|------------|-1------1--|--------1--|-3------1--|
|-6------5-3-|-----------|-----------|-----------|

|------------|-----------|-----------|-------------|
|------------|-----------|-1---------|-------------|
|------------|-1------1--|--------1--|-3-----------|
|-6------5-3-|-----------|-----------|----8-6-5----|

|------------|-----------|-------|----------|
|------------|-----------|-------|----------|
|------------|-1------1--|-6-----|-3--------|
|-6------5-3-|-----------|----5--|----------|

|------------|-----------|--------------|
|------------|-----------|--------------|
|---------3--|-----------|-1--1-1-1--1--|
|---6--5-----|-3------3--|--------------|

Coda

||-------------|-----------|-----------|------------||
||o------------|-----------|-1---------|-----------o||
||o------------|-1------1--|--------1--|-3------1--o||
||--6------5-3-|-----------|-----------|------------|| til fade


-------------
Love or Leave
-------------

112BPM, 4/4

Intro

||----------------|-----6-----|---------------|--4--6------||
||o-----6-7--6----|--9--------|-----4-7--6--4-|-----------o||
||o-7-9---------9-|-----------|-5-7-----------|-----------o||
||----------------|-----------|---------------|------------||
 2/4
|--6-6--|
|-------|
|-------|
|-------|

Verse

|---------------|-----6--6-6-6-|---------------|--4--6-----|
|-----6-7--6----|--9-----------|-----4-7--6--4-|-----------|
|-7-9---------9-|--------------|-5-7-----------|-----------|
|---------------|--------------|---------------|-----------|
 2/4
|--6-6--|
|-------|
|-------|
|-------|

|---------------|-----6--6-6-6-|---------------|-----------|
|-----6-7--6----|--9-----------|-----4-7--6--4-|-----------|
|-7-9---------9-|--------------|-5-7-----------|--2--4-----|
|---------------|--------------|---------------|-----------|
 2/4
|-------|
|-------|
|-------|
|--4--4-|

Pre-Chorus

|-------------|---------------|-------------|---------------|
|-------------|---------------|-------------|---------------|
|-----------2-|--4-x-2--------|-----------2-|--4-x-2--------|
|-5-4--2------|--------0-0-2--|-5-4--2------|--------0-0-2--|

|-------------|-----------|-------------|-----------------|
|-------------|-----------|-------------|-----------------|
|-------------|-----------|------2----2-|-2-2-2-2-2-2-2-2-|
|-5-4--2----54|-2----2----|-5-4---------|-----------------|

Chorus

|---------------|--------------|---------------|---------------|
|-----4-7--6--4-|--------------|-----4-7--6--4-|---------------|
|-5-7-----------|--2--2-2-2-4--|-5-7-----------|--2--2-4-2x2x4-|
|---------------|--------------|---------------|---------------|

|---------------|--------------|---------------|--------------|
|-----4-7--6--4-|--------------|-----4-7--6--4-|--------------|
|-5-7-----------|--2--2-2-2-4--|-5-7-----------|--2--2-2-2-4--|
|---------------|--------------|---------------|--------------|
 2/4
|-------|
|-------|
|--4-4--|
|-------|

Verse

|---------------|--------------|---------------|-----------|
|---------------|--------------|-----4-7--6--4-|-----------|
|---------------|--2--4--4-4-4-|-5-7-----------|--2--4-----|
|-0-2-4-5--4--2-|--------------|---------------|-----------|
 2/4
|-------|
|-------|
|--4-4--|
|-------|

|---------------|--------------|---------------|-----------|
|---------------|--------------|-----4-7--6--4-|-----------|
|---------------|--2--4--4-4-4-|-5-7-----------|--2--4-----|
|-0-2-4-5--4--2-|--------------|---------------|-----------|
 2/4
|-------|
|-------|
|-------|
|--4--4-|

Pre-Chorus

|-------------|---------------|-------------|----------------|
|-------------|------4-4------|-------------|----------------|
|-----------2-|--4-4----------|-----------2-|--4-x-2---------|
|-5-4--2------|----------0-2--|-5-4--2------|--------0-0-2-4-|

|-------------|-----------|-------------|-----------------|
|-------------|-----------|-------------|-----------------|
|-------------|-----------|------2----2-|-2-2-2-2-2-2-2-2-|
|-5-4--2----54|-2----2----|-5-4---------|-----------------|

Chorus

|---------------|--------------|---------------|---------------|
|-----4-7--6--4-|--------------|-----4-7--6--4-|---------------|
|-5-7-----------|--2--2-2-2-4--|-5-7-----------|--2--2-2x2x2x4-|
|---------------|--------------|---------------|---------------|

|---------------|--------------|---------------|--------------|
|-----4-7--6--4-|--------------|-----4-7--6--4-|--------------|
|-5-7-----------|--2--2-2-2-4--|-5-7-----------|--2--2-2-2-4--|
|---------------|--------------|---------------|--------------|
 2/4
|-------|
|-------|
|--4-4--|
|-------|

Chorus

||----------------|--------------|---------------|----------------||
||o-----4-7--6--4-|--------------|-----4-7--6--4-|---------------o||
||o-5-7-----------|--2--2-2-2-4--|-5-7-----------|--2--2-2x2x2x4-o||
||----------------|--------------|---------------|----------------|| til fade


------------------
Sweet Love of Mine
------------------

88BPM, 4/4

Intro

|------------|------------|
|------------|------------|
|-3---3-3----|-3---3-3----|
|------------|------------|

|------------|------------|--------------|-------------|
|------------|------------|----------5-3-|-2----3-2----|
|-3---3-3----|-3---3-3----|-2---2-2------|----------5--|
|------------|------------|--------------|-------------|

|-----245------|-------------|----------------|---------|
|-5-------5-2--|-3-2---------|----------------|---------|
|--------------|-----5-------|----------------|---------|
|--------------|--------3----|-5-5-5-5-5--1-3-|---------|

Verse

|-------------|-----------|------------|------------|
|-------------|-----------|------------|------------|
|-3---3-3-----|-----------|------------|------------|
|-----------1-|----1-1----|-0---0-0----|-1---1-1----|

|-------------|------------|------------|------------|
|-------------|------------|------------|------------|
|---------3---|------------|------------|---------2--|
|-0---013-----|-1---1-1----|-1-3--3-----|---3--5-----|

|-------------|-----------|------------|------------|
|-------------|-----------|------------|------------|
|-3---3-3-----|-----------|------------|------------|
|-----------1-|----1-1----|-0---0-0----|-1---1-1----|

|-------------|------------|------------|--------------|
|-------------|------------|------------|--------------|
|---------3---|------------|------------|--------5-----|
|-0---013-----|-1---1-1----|-1-3--3-----|-3-3-3-----3--|

Pre-Chorus

|-------------|-------------|-------------|-------------|
|-------------|-------------|-------------|-------------|
|-----------5-|--5-5--5-----|-----------5-|--5-5--5-----|
|-1---5--5----|----------3--|-1---5--5----|----------3--|

|-------------|------------|
|-------------|------------|
|-----------5-|----------3-|
|-1---5--5----|---3---3----|

Chorus

|------------|-------------|------------|-------------|
|------------|-------------|------------|-------------|
|----3-3-----|-----------5-|----5-5---5-|-----------3-|
|----------3-|--5--5-5-----|------------|-3----3-3----|

|------------|-------------|------------|-------------|
|------------|-------------|------------|-------------|
|----3-3-----|-----------5-|----5-5---5-|-------------|
|----------3-|--5--5-5-----|------------|-3----3-3--5-|

Verse

|-------------|-----------|------------|------------|
|-------------|-----------|------------|------------|
|-3---3-3-----|-----------|------------|------------|
|-----------1-|----1-1----|-0---0-0----|-1---1-1----|

|-------------|------------|------------|------------|
|-------------|------------|------------|------------|
|---------3---|------------|------------|---------2--|
|-0---013-----|-1---1-1----|-1-3--3-----|---3--5-----|

|-------------|-----------|------------|------------|
|-------------|-----------|------------|------------|
|-3---3-3-----|-----------|------------|------------|
|-----------1-|----1-1----|-0---0-0----|-1---1-1----|

|-------------|------------|------------|--------------|
|-------------|------------|------------|--------------|
|---------3---|------------|------------|--------5-----|
|-0---013-----|-1---1-1----|-1-3--3-----|-3-3-3-----3--|

Pre-Chorus

|-------------|-------------|-------------|-------------|
|-------------|-------------|-------------|-------------|
|-----------5-|--5-5--5-----|-----------5-|--5-5--5-----|
|-1---5--5----|----------3--|-1---5--5----|----------3--|

|-------------|------------|
|-------------|------------|
|-----------5-|----------3-|
|-1---5--5----|---3---3----|

Chorus

|------------|-------------|------------|-------------|
|------------|-------------|------------|-------------|
|----3-3-----|-----------5-|----5-5---5-|-----------3-|
|----------3-|--5--5-5-----|------------|-3----3-3----|

|------------|-------------|------------|-------------|
|------------|-------------|------------|-------------|
|----3-3-----|-----------5-|----5-5---5-|-------------|
|----------3-|--5--5-5-----|------------|-3----3-3--5-|

Break

|-------------|-----------|------------|------------|
|-------------|-----------|------------|------------|
|-3---3-3-----|-----------|------------|------------|
|-----------1-|----1-1----|-0---0-0----|-1---1-1----|

|-------------|------------|------------|--------------|
|-------------|------------|------------|--------------|
|---------3---|------------|------------|--------5-----|
|-0---013-----|-1---1-1----|-1-3--3-----|-3-3-3-----3--|

Pre-Chorus

|-------------|-------------|-------------|-------------|
|-------------|-------------|-------------|-------------|
|-----------5-|--5-5--5-----|-----------5-|--5-5--5-----|
|-1---5--5----|----------3--|-1---5--5----|----------3--|

|-------------|------------|
|-------------|------------|
|-----------5-|----------3-|
|-1---5--5----|---3---3----|

Chorus

||-------------|-------------|------------|--------------||
||o------------|-------------|------------|-------------o||
||o----3-3-----|-----------5-|----5-5---5-|-----------3-o||
||-----------3-|--5--5-5-----|------------|-3----3-3-----|| til fade


----------------------------
All That Glitters Ain't Gold
----------------------------

200BPM, 4/4

Intro

|--------------|----------|--------------|----------|
|--------------|----------|--------------|-------2--|
|--------------|----------|-------2-3-4--|----------|
|-0---0-2-3-4--|-------4--|-5---5--------|----------|

|--------------|----------|--------------|--------------|
|--------------|----------|--------------|----2---2--2--|
|--------------|----------|-------2-3-4--|--4---4-------|
|-0---0-2-3-4--|-------4--|-5---5--------|--------------|

|--------------|----------|--------------|----------|
|--------------|----------|--------------|-------2--|
|--------------|----------|-------2-3-4--|----------|
|-0---0-2-3-4--|-------4--|-5---5--------|----------|

||-----------|------------|----------|--------------||
||o----------|----------2-|-2--------|-------------o||
||o----------|-------24---|----------|--5--5-------o||
||--0--------|----24------|----------|-------5--5---||

Verse

|----------|------------|----------|--------------|
|----------|------------|-2--------|------2-------|
|----------|------2-4-2-|----------|----2---2-5-2-|
|-0--------|------------|----------|--------------|

|-----------|--------2h4-|----------|------------|
|-----------|------2-----|-2--------|------------|
|-3---------|------------|----------|------2-4-2-|
|--------5--|------------|----------|------------|

|----------|------------|----------|--------------|
|----------|------------|-2--------|------2-------|
|----------|------2-4-2-|----------|----2---2-5-2-|
|-0--------|------------|----------|--------------|

|------------|-------------|----------|------------|
|------------|-------------|----------|------------|
|-3--3-------|-------------|----------|---------2--|
|---------5--|-5----5-5--5-|-0--------|---0--4-----|

Pre-Chorus

|-------------|-------------|---------6---|-4----6----|
|-------------|-------------|-------6---6-|-----------|
|-------------|-------------|-4-----------|-----------|
|-4--0--2--4--|----4-4-4--4-|-------------|-----------|

|-------------|-------------|-----------|-----------|
|-------------|-------------|-----------|---------2-|
|-------------|-----------2-|-4---------|-------4---|
|-4--0--2--4--|----4-4-4----|--------2--|-----------|

|--------------|----------------|----------4--|-2----4----|
|-4---4-2-2--2-|----------------|--------4----|-----------|
|--------------|-4-4-4-4--------|-2--2--------|-----------|
|--------------|---------5-5--5-|-------------|-----------|

|--------------|--------------|-----------|----------|
|-2--2--2------|--------------|-----------|----------|
|---------2----|-4------------|-------4-2-|-------2--|
|-----------4--|---4---0--4-2-|-----------|----------|

Chorus

|--------------|----------|--------------|----------|
|--------------|----------|--------------|-------2--|
|--------------|----------|-------2-3-4--|----------|
|-0---0-2-3-4--|-------4--|-5---5--------|----------|

|--------------|----------|--------------|--------------|
|--------------|-------2--|--------------|----2---2--2--|
|--------------|----------|-------2-3-4--|--4---4-------|
|-0---0-2-3-4--|----------|-5---5--------|--------------|

|--------------|----------|--------------|----------|
|--------------|----------|--------------|----------|
|--------------|----------|-------2-3-4--|----------|
|-0---0-2-3-4--|-------4--|-5---5--------|-------5--|

|----------|----------|----------|----------|
|----------|----------|----------|----------|
|-5--------|-------5--|----------|----------|
|----------|----------|-5--------|-------5--|

||-----------|------------|----------|--------------||
||o----------|----------2-|-2--------|-------------o||
||o----------|-------24---|----------|--5--5-------o||
||--0--------|----24------|----------|-------5--5---||

Verse

|----------|------------|-----------|--------------|
|----------|------------|-2--2------|------2-------|
|----------|------2-4-2-|-----------|----2---2-5-2-|
|-0--------|------------|-----------|--------------|

|-----------|-----------|----------|------------|
|-----------|-----------|----------|------------|
|-3---------|-----------|----------|------2-4-2-|
|--------5--|-------5-2-|-0--------|------------|

|----------|------------|----------|--------------|
|-2--------|------------|-2--------|------2-------|
|----------|------2-4-2-|----------|----2---2-5-2-|
|----------|------------|----------|--------------|

|-----------|----------|----------|------------|
|-----------|----------|----------|------------|
|-3---------|----------|----------|---------2--|
|--------5--|-------5--|-0--------|---0--4-----|

Pre-Chorus

|-------------|------------|---------6--|-4----6----|
|-------------|------------|-------6----|-----------|
|-------------|----------2-|-4----------|-----------|
|-4--0--2--4--|----4-4-----|------------|-----------|

|-------------|------------|-----------|-----------|
|-------------|------------|-----------|---------2-|
|-------------|------------|-4---------|-------4---|
|-4--0--2--4--|----4-4-4---|--------2--|-----------|

|---------------|---------------|----------4--|-2----4----|
|-4-4-4-42-2--2-|---------------|--------4----|-----------|
|---------------|-4-4--4--------|-2--2--------|-----------|
|---------------|--------5-5--5-|-------------|-----------|

|--------------|--------------|-----------|----------|
|-2--2--2------|--------------|-----------|----------|
|---------2----|-4------------|-------4-2-|-------2--|
|-----------4--|---4---0--4-2-|-----------|----------|

Chorus

|--------------|----------|--------------|----------|
|--------------|----------|--------------|-------2--|
|--------------|----------|-------2-3-4--|----------|
|-0---0-2-3-4--|-------4--|-5---5--------|----------|

|--------------|----------|--------------|------------|
|--------------|-------2--|--------------|------2-----|
|--------------|----------|-------2-3-4--|--------4-2-|
|-0---0-2-3-4--|----------|-5---5--------|------------|

|-----------|----------|--------------|----------|
|-----------|----------|--------------|----------|
|-----------|----------|-------2-3-4--|----------|
|-0------4--|-------4--|-5---5--------|-------5--|

|----------|----------|----------|----------|
|----------|----------|----------|----------|
|-5--------|-------5--|----------|----------|
|----------|----------|-5--------|-------5--|

||-----------|------------|----------|--------------||
||o----------|----------2-|-2--------|-------------o||
||o----------|-------24---|----------|--5--5-------o||
||--0--------|----24------|----------|-------5--5---||

Chorus

||---------------|----------|--------------|----------|
||o--------------|----------|--------------|-------2--|
||o--------------|----------|-------2-3-4--|----------|
||--0---0-2-3-4--|-------4--|-5---5--------|----------|
                                                         3x
|--------------|----------|--------------|---------------||
|--------------|-------2--|--------------|----2---2--2--o||
|--------------|----------|-------2-3-4--|--4---4-------o||
|-0---0-2-3-4--|----------|-5---5--------|---------------||

|--------------|----------|--------------|----------|
|--------------|----------|--------------|-------2--|
|--------------|----------|-------2-3-4--|----------|
|-0---0-2-3-4--|-------4--|-5---5--------|----------|

||---------------|----------|--------------|---------------||
||o--------------|----------|--------------|----2---2--2--o||
||o--------------|----------|-------2-3-4--|--4---4-------o||
||--0---0-2-3-4--|-------4--|-5---5--------|---------------|| til fade


------------------------
You Made a Promise to Me
------------------------

84BPM, 4/4

Intro

|---------|---------|---------|---------|
|---------|---------|---------|---------|
|---------|---------|---------|---------|
|---------|---------|---------|---------|

|--------------|-------------|--------------|-----------|
|--------------|-----------2-|----24542-542-|-----------|
|------------2-|----2-3--5---|--------------|-----5-----|
|-3---3-3--5---|-------------|--------------|-5---------|

|-------------|------------|
|-------------|------------|
|-------------|------------|
|-3---3-3---3-|-3---3-3----|

Verse

|----------------|-----------|----------------|-----------|
|----------------|-----------|----------------|-----------|
|-----2--------2-|----2-2----|-----2--------2-|----2-2----|
|-3-5---0--3-5---|-----------|-3-5---0--3-5---|-----------|

 3/4       4/4
|---------|------------|--------------|------------|
|---------|------------|--------------|------------|
|-3---2---|-3---2----2-|-3--3-2---2---|---------2--|
|---------|------------|------------5-|-----5-5----|

|---------------|-------------|
|---------------|-------------|
|-3--2----2-3-5-|----5-5-5-5--|
|------5--------|-------------|

|----------------|-----------|----------------|-----------|
|----------------|-----------|----------------|-----------|
|-----2--------2-|----2-2----|-----2--------2-|----2-2----|
|-3-5---0--3-5---|-----------|-3-5---0--3-5---|-----------|

 3/4       4/4
|---------|------------|--------------|------------|
|---------|------------|--------------|------------|
|-3---2---|-3---2----2-|-3--3-2---2---|---------2--|
|---------|------------|------------5-|-----5-5----|

|---------------|-------------|
|---------------|-------------|
|-3--2----2-3-5-|-----5-5-----|
|------5--------|---------1-1-|

Chorus

|----------------|-------------|-------------|-------------|
|----------------|-------------|-------------|-------------|
|--------------5-|----5-5--5---|-------------|-3---3--3----|
|-6-6--6-6-5-3---|-----------5-|----5-5-5--5-|----------1--|

|----------------|-------------|-------------|-----------|
|----------------|-------------|-------------|-----------|
|--------------5-|----5-5--5---|-------------|-----------|
|-6-6--6-6-5-3---|-----------5-|----5-5-5--5-|-1---1-----|

|-----------------|-----------|----------------|
|-----------------|-----------|----------------|
|-----------------|-5---5-----|-5-5-5-5-5-5-5--|
|-1-1-1-1-1-1-1-1-|-----------|----------------|

Verse

|----------------|-----------|----------------|-----------|
|----------------|-----------|----------------|-----------|
|-----2--------2-|----2-2----|-----2--------2-|----2-2----|
|-3-5---0--3-5---|-----------|-3-5---0--3-5---|-----------|

 3/4       4/4
|---------|------------|--------------|------------|
|---------|------------|--------------|------------|
|-3---2---|-3---2----2-|-3--3-2---2---|---------2--|
|---------|------------|------------5-|-----5-5----|

|---------------|-------------|
|---------------|-------------|
|-3--2----2-3-5-|----5-5-5-5--|
|------5--------|-------------|

|----------------|-----------|----------------|-----------|
|----------------|-----------|----------------|-----------|
|-----2--------2-|----2-2----|-----2--------2-|----2-2----|
|-3-5---0--3-5---|-----------|-3-5---0--3-5---|-----------|

 3/4       4/4
|---------|------------|--------------|------------|
|---------|------------|--------------|------------|
|-3---2---|-3---2----2-|-3--3-2---2---|---------2--|
|---------|------------|------------5-|-----5-5----|

|---------------|-------------|
|---------------|-------------|
|-3--2----2-3-5-|-----5-5-----|
|------5--------|---------1-1-|

Chorus

|----------------|-------------|-------------|-------------|
|----------------|-------------|-------------|-------------|
|--------------5-|----5-5--5---|-------------|-3---3--3----|
|-6-6--6-6-5-3---|-----------5-|----5-5-5--5-|----------1--|

|----------------|-------------|-------------|-----------|
|----------------|-------------|-------------|-----------|
|--------------5-|----5-5--5---|-------------|-----------|
|-6-6--6-6-5-3---|-----------5-|----5-5-5--5-|-1---1-----|

|-----------------|-----------|----------------|
|-----------------|-----------|----------------|
|-----------------|-5---5-----|-5-5-5-5-5-5-5--|
|-1-1-1-1-1-1-1-1-|-----------|----------------|

Ending

|----------------|-------------|-------------|-------------|
|----------------|-------------|-------------|-------------|
|--------------5-|----5-5--5---|-------------|-3---3--3----|
|-6-6--6-6-5-3---|-----------5-|----5-5-5--5-|----------1--|

|----------------|-------------|-------------|-------------|
|----------------|-------------|-------------|-------------|
|--------------5-|----5-5--5---|------------5|-3---3--3----|
|-6-6--6-6-5-3---|-----------5-|----5-5-5-5--|----------1--|

|----------------|-------------|------------|-------------|
|----------------|-------------|------------|-------------|
|--------------5-|----5-5--5---|------------|-3---3--3----|
|-6-6--6-6-5-3---|-----------5-|----5-5---5-|----------1--|

|----------------|-------------|------------|-------------|
|----------------|-------------|------------|-------------|
|--------------5-|----5-5--5---|------------|-3---3--3----|
|-6-6--6-6-5-3---|-----------5-|----5-5---5-|----------1--| fade


-----------------------------------------------
They Just Can't Stop It (The Games People Play)
-----------------------------------------------

152BPM, 4/4

Intro
                                                   4x
||------------|-----------|------------|-----------||
||o-----------|-----------|------------|----------o||
||o-----------|-----------|------------|----------o||
||--5--5------|--02--5----|-5---5---5--|-------0-2-||

|------------|----------|
|------------|----------|
|------------|----------|
|-5---5---5--|-------0-2|

Verse

|-----------|-----------|-----------|------------|
|-----------|-----------|-----------|------------|
|-----------|-----------|-----------|------------|
|-5--5------|--02--5----|-5--5------|--02--5--2-0|

|-----------|-----------|-----------|------------|
|-----------|-----------|-----------|------------|
|-----------|-----------|-----------|------------|
|-5--5------|--02--5----|-5--5------|--02--5--2--|

||--------------|-------------|-----------|------------||
||o-------------|-------------|-----------|-----------o||
||o-5--5--5--5--|-4--4--4--4--|-----------|-----------o||
||--------------|-------------|-2------2--|----22-2----||

Pre-Chorus

|-------------|-------------|-------------|-------------|
|-------------|-------------|-------------|-------------|
|-7--7--7--7--|-6--6--6--6--|-5--5--5--5--|-4--4--4--4--|
|-------------|-------------|-------------|-------------|

|-------------|-------------|-------------|
|-------------|-------------|-2--2--2--2--|
|-3--3--3--3--|-2--2--2--2--|-------------|
|-------------|-------------|-------------|

Verse

|-----------|-----------|-----------|------------|
|-----------|-----------|-----------|------------|
|-----------|-----------|-----------|------------|
|-5--5------|--02--5----|-5--5------|--02--5--2-0|

|-----------|-----------|-----------|------------|
|-----------|-----------|-----------|------------|
|-----------|-----------|-----------|------------|
|-5--5------|--02--5----|-5--5------|--02--5--2--|

||--------------|-------------|-----------|------------||
||o-------------|-------------|-----------|-----------o||
||o-5--5--5--5--|-4--4--4--4--|-----------|-----------o||
||--------------|-------------|-2------2--|----22-2----||

Pre-Chorus

|-------------|-------------|-------------|-------------|
|-------------|-------------|-------------|-------------|
|-7--7--7--7--|-6--6--6--6--|-5--5--5--5--|-4--4--4--4--|
|-------------|-------------|-------------|-------------|

|-------------|-------------|--------------|
|-------------|-------------|--------------|
|-3--3--3--3--|-5--5--5--5--|-5--5--5-553--|
|-------------|-------------|------------5-|

Chorus

|-------------|-------------|-------------|-------------|
|-------------|-------------|-------------|-------------|
|-------------|-2--2--2--2--|-------------|-------5--5--|
|-3--3--3--3-5|-------------|-5--5--5--5--|-5--5-------5|

|-------------|-------------|-------------|-------------|
|-------------|-------------|-------------|-------------|
|-------------|-2--2--2--2--|-2--2--2--2--|-5--5--5--5--|
|-3--3--3--3-5|-------------|-------------|-------------|

|--------------|
|--------------|
|-5--5--5--53--|
|------------5-|

|-------------|-------------|-------------|-------------|
|-------------|-------------|-------------|-------------|
|-------------|-2--2--2--2--|-------------|-------5--5--|
|-3--3--3--3-5|-------------|-5--5--5--5--|-5--5-------5|

|-------------|-------------|-------------|-------------|
|-------------|-------------|------------0|-2--2--2--2--|
|-------------|-2--2--2--2--|-2--2--2--2--|-------------|
|-3--3--3--3-5|-------------|-------------|-------------|

|--------------|-------------|-------------|
|-2--2--2------|-------------|-------------|
|----------42--|-------------|-------------|
|------------4-|-0--0--0--0--|-0--0--0--0--|

Verse

|-----------|-----------|-----------|------------|
|-----------|-----------|-----------|------------|
|-----------|-----------|-----------|------------|
|-5--5------|--02--5----|-5--5------|--02--5--2-0|

|-----------|-----------|-----------|------------|
|-----------|-----------|-----------|------------|
|-----------|-----------|-----------|------------|
|-5--5------|--02--5----|-5--5------|--02--5--2--|

||--------------|-------------|-----------|------------||
||o-------------|-------------|-----------|-----------o||
||o-5--5--5--5--|-4--4--4--4--|-----------|-----------o||
||--------------|-------------|-2------2--|----22-2----||

Pre-Chorus

|-------------|-------------|-------------|-------------|
|-------------|-------------|-------------|-------------|
|-7--7--7--7--|-6--6--6--6--|-5--5--5--5--|-4--4--4--4--|
|-------------|-------------|-------------|-------------|

|-------------|-------------|--------------|
|-------------|-------------|--------------|
|-3--3--3--3--|-5--5--5--5--|-5--5--5--53--|
|-------------|-------------|------------5-|

Chorus

|-------------|-------------|-------------|-------------|
|-------------|-------------|-------------|-------------|
|-------------|-2--2--2--2--|-------------|-------5--5--|
|-3--3--3--3-5|-------------|-5--5--5--5--|-5--5-------5|

|-------------|-------------|-------------|-------------|
|-------------|-------------|-------------|-------------|
|-------------|-2--2--2--2--|-2--2--2--2-3|-5--5--5--5--|
|-3--3--3--345|-------------|-------------|-------------|

|--------------|
|--------------|
|-5--5--5-553--|
|------------5-|

|-------------|-------------|-------------|-------------|
|-------------|-------------|-------------|-------------|
|-------------|-2--2--2--2--|-------------|-------5--5--|
|-3--3--3--3-5|-------------|-5--5--5--5--|-5--5-------5|

|-------------|-------------|-------------|-------------|
|-------------|-------------|-----------01|-2--2--2--2-2|
|-------------|-2--2--2--2--|-2--2--2--2--|-------------|
|-3--3--3--3-5|-------------|-------------|-------------|

|--------------|-------------|-------------|
|-2--2--2------|-------------|-------------|
|----------42--|-------------|-------------|
|------------4-|-0--0--0--0--|-0--0--0--0--|

Solo

|-----------|-----------|-----------|------------|
|-----------|-----------|-----------|------------|
|-----------|-----------|-----------|------------|
|-5--5------|--02--5----|-5--5------|--02--5--2-0|

|-----------|-----------|-----------|------------|
|-----------|-----------|-----------|------------|
|-----------|-----------|-----------|------------|
|-5--5------|--02--5----|-5--5------|--02--5--2-0|

||--------------|-------------|-----------|------------||
||o-------------|-------------|-----------|-----------o||
||o-5--5--5--5--|-4--4--4--4--|-----------|-----------o||
||--------------|-------------|-2------2--|----22-2----||

Pre-Chorus

|-------------|-------------|-------------|-------------|
|-------------|-------------|-------------|-------------|
|-7--7--7--7--|-6--6--6--6--|-5--5--5--5--|-4--4--4--4--|
|-------------|-------------|-------------|-------------|

|-------------|-------------|--------------|
|-------------|-------------|--------------|
|-3--3--3--3--|-5--5--5--5--|-5--5--5--53--|
|-------------|-------------|------------5-|

Chorus

|-------------|-------------|-------------|-------------|
|-------------|-------------|-------------|-------------|
|-------------|-2--2--2--2--|-------------|-------5--5--|
|-3--3--3--3-5|-------------|-5--5--5--5--|-5--5-------5|

|-------------|-------------|-------------|-------------|
|-------------|-------------|-------------|-------------|
|-------------|-2--2--2--2--|-2--2--2--2-3|-5--5--5--5--|
|-3--3--3--3-5|-------------|-------------|-------------|

|--------------|
|--------------|
|-5--5--5-553--|
|------------5-|

|-------------|-------------|-------------|-------------|
|-------------|-------------|-------------|-------------|
|-------------|-2--2--2--2--|-------------|-------5--5--|
|-3--3--3--3-5|-------------|-5--5--5--5--|-5--5-------5|

|-------------|-------------|-------------|-------------|
|-------------|-------------|-------------|-------------|
|-------------|-2--2--2--2--|-2--2--2--2-3|-5--5--5--5--|
|-3--3--3--345|-------------|-------------|-------------|

|--------------|
|--------------|
|-5--5--5--53--|
|------------5-|

|-------------|-------------|-------------|-------------|
|-------------|-------------|-------------|-------------|
|-------------|-2--2--2--2--|-------------|-------5--5--|
|-3--3--3--3-5|-------------|-5--5--5--5--|-5--5-------5|

|-------------|-------------|-------------|-------------|
|-------------|-------------|-------------|-------------|
|-------------|-2--2--2--2--|-2--2--2--2-3|-5--5--5--5--|
|-3--3--3--35-|-------------|-------------|-------------|

|--------------|
|--------------|
|-5--5--5--53--|
|------------5-| fade


----------------------------
Just as Long as We Have Love
----------------------------

136BPM, 4/4

Intro

||-----------|-------------|-----------|-----------|
||o----------|-------------|-----------|-----------|
||o-3--------|-----3-3-3-3-|-----------|-----------|
||-----------|-------------|-1------1--|-1------1--|

|----------|-------------|-----------|------------||
|----------|-------------|-----------|-----------o||
|-1--------|-----1-1-1-1-|-----------|-----------o||
|----------|-------------|-3------3--|-3------3---||

Verse

|----------|----------|-----------|-----------|
|----------|----------|-----------|-----------|
|-3--------|----------|-1------1--|-5---------|
|----------|-1--------|-----------|------3----|

|-----------|-----------|-----------|-----------|
|-----------|-----------|-----------|-----------|
|-----------|-----------|-1------1--|-5------5--|
|-1------1--|-1------1--|-----------|-----------|

|-----------|-----------|------------|-----------|
|-----------|-----------|----------2-|-4------4--|
|-----------|-3------3--|-5------5---|-----------|
|-3------3--|-----------|------------|-----------|

|-----------|-----------|-----------|---------------|
|-----------|-----------|-----------|---------------|
|-----------|-3------3--|-----------|---------------|
|-3------3--|-----------|-1------1--|-1--1--1-1-1-1-|

|----------|----------|
|----------|----------|
|----------|----------|
|-1--------|-------1--|

|-----------|-----------|-----------|-----------|
|-----------|-----------|-----------|-----------|
|-1------1--|-5---------|-----------|-----------|
|-----------|------3----|-1------1--|-1------1--|

|-----------|-----------|-----------|-----------|
|-----------|-----------|-----------|-----------|
|-1------1--|-5------5--|-----------|-3------3--|
|-----------|-----------|-3------3--|-----------|

|------------|-----------|-----------|-----------|
|----------2-|-4------4--|-----------|-----------|
|-5------5---|-----------|-----------|-3------3--|
|------------|-----------|-3------3--|-----------|

|-------------|------------|
|-------------|---------6--|
|-------------|------6-----|
|-1--1--1--1--|-1----------|

Chorus

|-----------|------------|----------|-----------|
|-----------|---------1--|-------1--|-1------1--|
|-----------|----1-------|----------|-----------|
|-2------2--|-1----------|----------|-----------|

|-----------|------------|----------|------------|
|-----------|------------|----------|---------6--|
|-----------|------------|----------|------6-----|
|-1------1--|-1----1--2--|-------2--|-2----------|

|-----------|------------|----------|-----------|
|-----------|---------1--|-------1--|-1------1--|
|-----------|----1-------|----------|-----------|
|-2------2--|-1----------|----------|-----------|

|-------------|--------------|-------------|-------------|
|-------------|--------------|-------------|-------------|
|-------------|--------------|-------------|-------------|
|-4--4--4--4--|-4--4--4--4-2-|-1--1--1--1--|-1--1--1--1--|

|------------|----------|
|-------3----|-------3--|
|----3-------|----------|
|-1----------|----------|

Verse

|-----------|-----------|-----------|-----------|
|-----------|-----------|-----------|-----------|
|-1------1--|-5---------|-----------|-----------|
|-----------|------3----|-1------1--|-1------1--|

|-----------|-----------|-----------|-----------|
|-----------|-----------|-----------|-----------|
|-1------1--|-5------5--|-----------|-3------3--|
|-----------|-----------|-3------3--|-----------|

|------------|-----------|-----------|-----------|
|----------2-|-4------4--|-----------|-----------|
|-5------5---|-----------|-----------|-3------3--|
|------------|-----------|-3------3--|-----------|

|-----------|---------------|----------|----------|
|-----------|---------------|----------|----------|
|-----------|---------------|----------|----------|
|-1------1--|-1--1--1-1-1-1-|-1--------|-------1--|

|-----------|-----------|-----------|-----------|
|-----------|-----------|-----------|-----------|
|-1------1--|-5---------|-----------|-----------|
|-----------|------3----|-1------1--|-1------1--|

|-----------|-----------|-----------|-----------|
|-----------|-----------|-----------|-----------|
|-1------1--|-5------5--|-----------|-3------3--|
|-----------|-----------|-3------3--|-----------|

|------------|-----------|-----------|-----------|
|----------2-|-4------4--|-----------|-----------|
|-5------5---|-----------|-----------|-3------3--|
|------------|-----------|-3------3--|-----------|

|-------------|------------|
|-------------|---------6--|
|-------------|------6-----|
|-1--1--1--1--|-1----------|

Chorus

|-----------|------------|----------|-----------|
|-----------|---------1--|-------1--|-1------1--|
|-----------|----1-------|----------|-----------|
|-2------2--|-1----------|----------|-----------|

|-----------|------------|----------|------------|
|-----------|------------|----------|---------6--|
|-----------|------------|----------|------6-----|
|-1------1--|-1----1--2--|-------2--|-2----------|

|-----------|------------|----------|-----------|
|-----------|---------1--|-------1--|-1------1--|
|-----------|----1-------|----------|-----------|
|-2------2--|-1----------|----------|-----------|

|-------------|-------------|-------------|------------|
|-------------|-------------|-------------|---------6--|
|-------------|-------------|-------------|------6-----|
|-4--4--4--4--|-4--4--4--4--|-4--4--4--4--|-4----------|

Chorus

||------------|------------|----------|-----------|
||o-----------|---------1--|-------1--|-1------1--|
||o-----------|----1-------|----------|-----------|
||--2------2--|-1----------|----------|-----------|

|-----------|------------|----------|-------------||
|-----------|------------|----------|---------6--o||
|-----------|------------|----------|------6-----o||
|-1------1--|-1----1--2--|-------2--|-2-----------|| til fade


----------
Tabbed by W.g.Wilson (199X) using Powertab Editor.
I make no money from the writing of these tabs.
comments
We did not receive enough feedback on this tab! Please rate:
print report bad tab
1 2 3 4 5
I want to post or [tab]
guest
You may want to rate the tab now too:
select rating
Please do not post tabs as comments. Select "correction" instead!