Oops, an error
Loading. Please wait.

Spinners Bass Tab

460 views 9 this week
no commentswrite comment
1 2 3 4 5
please rate
Autoscroll
+/-
esc
set tempo
stop
Contributor
Hey! There's an official Ultimate Guitar app which is ideal
for learning songs when you're away from computer. Get the app
WARNING: You are trying to view
                                    content from Ultimate-Guitar.com
                                    in an unauthorized application,
                                    which is prohibited.

                                    Please use an official Ultimate
                                    Guitar Tabs application for iPhone,
                                    iPad or Android to access legitimate
                                    chords, guitar, bass, and drum tabs
                                    from Ultimate-Guitar.com database.

                                    Type "ultimate guitar tabs" in Apple
                                    App Store's or Android Market's
                                    search to find the application.
--------
Spinners
--------
The Spinners
Bass Tabs
Bass played by Ronnie Baker

Track Listing

1. Just Can't Get You Out of My Mind
2. Just You and Me Baby
3. Don't Let the Green Grass Fool You
4. I Could Never (Repay Your Love)
5. I'll Be Around

6. One of a Kind (Love Affair)
7. We Belong Together
8. Ghetto Child
9. How Could I Let You Get Away
10. Could It Be I'm Falling in Love


---------------------------------
Just Can't Get You Out of My Mind
---------------------------------

212-224BPM, 4/4

Intro

|---------|---------|---------|---------|
|---------|---------|---------|---------|
|---------|---------|---------|---------|
|---------|---------|---------|---------|

|---------|---------|---------|----------|
|---------|---------|---------|-------2--|
|---------|---------|---------|----------|
|---------|---------|---------|----------|

|-----------|-------2-----|----------|-------------|
|-2------2--|-2--4--------|----------|-------2-----|
|-----------|----------4--|-------4--|-4--5-----4--|
|-----------|-------------|----------|-------------|

|-----------|-----------|-----------|-----------|
|-----------|-----------|-----------|-----------|
|-5------5--|-5------5--|-5------5--|-----------|
|-----------|-----------|-----------|-3------0--|

Verse

|-----------|-------------|-----------|-------------|
|-----------|-------7-----|-----------|-------------|
|-----------|-4--7-----5--|---4--5----|-------------|
|-5------7--|-------------|-----------|-0--2--0--2--|

|-----------|-------------|-----------|------------|
|-----------|-------7-----|-----------|------------|
|-----------|-4--7-----5--|---4----5--|------------|
|-5------7--|-------------|-----------|---2--0--2--|

|-----------|-------------|-----------|-------------|
|-----------|-------7-----|-----------|-------------|
|-----------|-x--7-----5--|---4--5----|-------------|
|-5------7--|-------------|-----------|-0--2--0--2--|

|-----------|-------------|-----------|------------|
|-----------|-------7-----|-----------|------------|
|-----------|-4--7-----5--|---4-------|------------|
|-5------7--|-------------|--------5--|---2--0--2--|

Pre-Chorus

|-----------|-------------|----------|-------------|
|-----------|-------------|----------|-------------|
|-----------|-------------|----------|-------------|
|-5------5--|-5--5--5--3--|-------3--|-3--3--3--3--|

|-----------|-------------|----------|-------------|
|-----------|-------------|----------|-------------|
|-----------|-------------|----------|-------------|
|-2------2--|-2--2--2--1--|-------1--|-1--3--3--1--|

|------------|-------------|----------|-------------|
|------------|-------------|----------|-------------|
|------------|-------------|----------|-------------|
|-0----0--0--|-0--0--0--3--|-------3--|-3--3--3--3--|

|-------------|-------------|-----------|-------------|
|-------------|-------------|-----------|-------------|
|-------------|-------------|-----------|-------------|
|-2--2--2--2--|-2--2--2--1--|-----1--1--|-1--1--1--0--|

|------------|-----------|----------|-------------|
|------------|-----------|----------|-------------|
|------------|-----------|----------|-------------|
|-5----5--5--|-5------5--|-------5--|-5--5--5--5--|

|------------|------------|----------|-------------|
|------------|------------|----------|-------------|
|------------|------------|----------|---------4-2-|
|-5----5--5--|-5----5--5--|-------5--|-5--5--5-----|

Chorus

|-----------|----------|------------|-------------|
|-----------|----------|------------|-4--4--4--2--|
|-5------4--|----------|-4--4--4----|-------------|
|-----------|-----5----|------------|-------------|

|------------|----------|--------------|-------------|
|------------|----------|----------2-3-|-4--4--4--2--|
|-5----5--4--|----------|-4--4--4------|-------------|
|------------|-----5----|--------------|-------------|

|------------|----------|-------------|-------------|
|------------|----------|---------2-3-|-4--4--4--2--|
|-5--5----4--|----------|-4--4--------|-------------|
|------------|-----5----|-------------|-------------|

|----------|--------------|-------------|------------|
|----------|--------------|-2--2--2--2--|-2--2----2--|
|-------2--|-2--2--2--4-5-|-------------|------------|
|----------|--------------|-------------|------------|

Verse

|-----------|-------------|-----------|-------------|
|-----------|-------7-----|-----------|-------------|
|-----------|-x--7-----5--|---4--5----|-------------|
|-5------7--|-------------|-----------|-0--2--0--2--|

|-----------|-------------|-----------|------------|
|-----------|-------7-----|-----------|------------|
|-----------|-4--7-----5--|---4-------|------------|
|-5------7--|-------------|--------5--|---2--0--2--|

|-----------|-------------|-----------|-------------|
|-----------|-------7-----|-----------|-------------|
|-----------|-4--7-----5--|---4--5----|-------------|
|-5------7--|-------------|-----------|-0--2--0--2--|

|-----------|-------------|-----------|------------|
|-----------|-------7-----|-----------|------------|
|-----------|-4--7-----5--|---4-------|------------|
|-5------7--|-------------|--------5--|---2--0--2--|

Pre-Chorus

|-----------|-------------|----------|-------------|
|-----------|-------------|----------|-------------|
|-----------|-------------|----------|-------------|
|-5------5--|-5--5--5--3--|-------3--|-3--3--3--3--|

|-----------|-------------|----------|-------------|
|-----------|-------------|----------|-------------|
|-----------|-------------|----------|-------------|
|-2------2--|-2--2--2--1--|-------1--|-1--1--1--1--|

|-----------|-------------|----------|-------------|
|-----------|-------------|----------|-------------|
|-----------|-------------|----------|-------------|
|-0------0--|-0--0--0--3--|-------3--|-3--3--3--3--|

|-----------|-------------|----------|-------------|
|-----------|-------------|----------|-------------|
|-----------|-------------|----------|-------------|
|-2------2--|-2--2--2--1--|-------1--|-1--1--1--1--|

|-----------|------------|----------|------------|
|-----------|------------|----------|---------7--|
|-----------|------------|----------|------7-----|
|-5------5--|-5--5----5--|-------5--|-5----------|

|------------|-------------|----------|-------------|
|------------|-------------|----------|----------7--|
|------------|-------------|----------|-------7-----|
|-5----5--5--|-5--5--5--5--|-------5--|-5--5--------|

Chorus

|-----------|-----------|------------|-------------|
|-----------|-----------|--------2-3-|-4--4--4--2--|
|-5------4--|-----0--0--|-4----------|-------------|
|-----------|-----------|------------|-------------|

||------------|----------|-------------|--------------||
||o-----------|----------|---------2-3-|-4--4--4--2--o||
||o-5------4--|----------|-4--4--------|-------------o||
||------------|-----5----|-------------|--------------||

|-----------|-----------|-----------|-------------|
|-----------|-----------|-2------2--|-2--2--2-----|
|-----2--2--|-2------2--|-----------|----------2--|
|-----------|-----------|-----------|-------------|

Instrumental
                                                      3x
||------------|----------|-------------|--------------||
||o-----------|----------|---------2-3-|-4--4--4--2--o||
||o-5------4--|----------|-4--4--------|-------------o||
||------------|-----5----|-------------|--------------||

|-----------|-------------|-----------|-------------|
|-----------|---------0h1-|-2--2------|-2--2----2---|
|-2------2--|-2--2--------|-----------|-----------2-|
|-----------|-------------|-----------|-------------|

Chorus/Ending
                                                      3x
||------------|----------|-------------|--------------||
||o-----------|----------|---------2-3-|-4--4--4--2--o||
||o-5------4--|----------|-4--4--------|-------------o||
||------------|-----5----|-------------|--------------||

|-----------|------------|-----------|-------------|
|-----------|------------|-2--2------|-2--2----2---|
|-2------2--|-2--2----2--|-----------|-----------2-|
|-----------|------------|-----------|-------------|
                                                      3x
||------------|----------|-------------|--------------||
||o-----------|----------|---------2-3-|-4--4--4--2--o||
||o-5------4--|----------|-4--4--------|-------------o||
||------------|-----5----|-------------|--------------||

|-----------|------------|------------|------------|
|-----------|------------|-2--2----2--|-2--2----2--|
|-2------2--|-2--2----2--|------------|------------|
|-----------|------------|------------|------------|

|-----------|-----------|-------------|-------------|
|-----------|-----------|---------2-3-|-4--4--4--2--|
|-5------4--|-----0--0--|-4--4--------|-------------|
|-----------|-----------|-------------|-------------|

|-----------|----------|-------------|-------------|
|-----------|----------|---------2-3-|-4--4--4--2--|
|-5------4--|----------|-4--4--------|-------------|
|-----------|-----5----|-------------|-------------|

|------------|-----------|-------------|------------|
|------------|-----------|---------2-3-|-4--4--4----|
|-5----5--4--|---4-------|-4--4--------|------------|
|------------|------5----|-------------|------------|

|-------------|-------------|-----------|-------------|
|-------------|-------------|-2--2------|-2--2--2-----|
|-2--2----2-2-|-2--2----4-2-|-----------|----------2--|
|-------------|-------------|-----------|-------------|

|-----------|----------|-----------|-------------|
|-----------|----------|-----------|-4--4--4--2--|
|-5------4--|----------|-4--4------|-------------|
|-----------|-----5----|-----------|-------------|

|------------|-----------|-----------|-------------*|
|------------|-----------|-----------|-4--4--4--2--*|
|-5--5----4--|-----0--0--|-4--4------|-------------*|
|------------|-----------|-----------|-------------*| fade


--------------------
Just You and Me Baby
--------------------

140BPM, 4/4

Intro

|-----------|-----------|------------|------------|
|-----------|-----------|------------|------------|
|-4------4--|-----------|------------|----3--5----|
|-----------|-6----6----|-1--1----1--|-5----------|

|-----------|-----------|-----------|-------------|
|-----------|-----------|-----------|---------0---|
|-4------4--|-----------|-----------|-----------3-|
|-----------|-6----6----|-1--1------|-1--1--------|

Verse

|------------|------------|------------|------------|
|------------|------------|------------|------------|
|------------|------------|------------|------------|
|-1--1-----1-|-1--1-----1-|-1--1-----1-|-1--1-----1-|

|-------------|------------|------------|-------------|
|-------------|------------|------------|---------0---|
|-4--4----4-3-|-1--1----1--|------------|-----------3-|
|-------------|------------|-1--1-----1-|-1--1--------|

|------------|------------|------------|------------|
|------------|------------|------------|------------|
|------------|------------|------------|------------|
|-1--1-----1-|-1--1-----1-|-1--1-----1-|-1--1----1--|

|------------|------------|------------|------------|
|------------|------------|------------|------------|
|-4--4-----4-|-1--1----1--|------------|------------|
|------------|------------|-1--1-----1-|-1--1----1--|

Chorus

||-------------|------------|------------|-------------||
||o------------|------------|------------|------------o||
||o------------|------------|------------|------------o||
||--6--6----6--|-5--5----5--|-3--3----3--|-5--5----5---||

|------------|------------|-------------|---------------|
|------------|-5--5----5--|-------------|---------------|
|------------|------------|-3--3--3--3--|-3--3--5-3-----|
|-3--3----3--|------------|-------------|-----------5-3-|

Verse

|------------|------------|------------|------------|
|------------|------------|------------|------------|
|------------|------------|------------|------------|
|-1--1-----1-|-1--1-----1-|-1--1-----1-|-1--1-----1-|

|-------------|------------|------------|---------------|
|-------------|------------|------------|---------------|
|-4--4----4-3-|-1--1-----1-|------------|-------5-3-----|
|-------------|------------|-1--1-----1-|-1--1------5-3-|

|------------|------------|------------|------------|
|------------|------------|------------|------------|
|------------|------------|------------|------------|
|-1--1-----1-|-1--1-----1-|-1--1-----1-|-1--1-----1-|

|------------|------------|------------|------------|
|------------|------------|------------|------------|
|-4--4-----4-|-1--1----1--|------------|------------|
|------------|------------|-1--1-----1-|-1--1----1--|

Chorus

||-------------|------------|------------|-------------||
||o------------|------------|------------|------------o||
||o------------|------------|------------|------------o||
||--6--6----6--|-5--5----5--|-3--3----3--|-5--5----5---||

|------------|------------|-------------|--------------|
|------------|-5--5----5--|-------------|----------0---|
|------------|------------|-3--3--3--3--|-3--3--3----3-|
|-3--3----3--|------------|-------------|--------------|

Instrumental

|------------|------------|------------|------------|
|------------|------------|------------|------------|
|------------|------------|------------|------------|
|-1--1----1--|-1--1-----1-|-1--1-----1-|-1--1----1--|

|------------|------------|------------|---------------|
|------------|------------|------------|---------------|
|-4--4-----4-|-1--1----1--|------------|-------5-3-----|
|------------|------------|-1--1-----1-|-1--1------5-3-|

|------------|------------|------------|------------|
|------------|------------|------------|------------|
|------------|------------|------------|------------|
|-1--1-----1-|-1--1-----1-|-1--1-----1-|-1--1----1--|

|------------|------------|------------|------------|
|------------|------------|------------|------------|
|-4--4-----4-|-1--1----1--|------------|------------|
|------------|------------|-1--1-----1-|-1--1----1--|

Chorus/Ending

|------------|------------|------------|------------|
|------------|------------|------------|------------|
|------------|------------|------------|------------|
|-6--6-----6-|-5--5----5--|-3--3----3--|-5--5----5--|

|------------|------------|------------|------------|
|------------|------------|------------|------------|
|------------|------------|------------|------------|
|-6--6----6--|-5--5----5--|-3--3----3--|-5--5----5--|

|------------|------------|-------------|--------------|
|------------|------------|-------------|--------------|
|------------|------------|-3--3--3--3--|-3--3--3------|
|-3--3----3--|-3--3----3--|-------------|----------3-5-|

||-------------|------------|------------|-------------||
||o------------|------------|------------|------------o||
||o------------|------------|------------|------------o||
||--6--6----6--|-5--5----5--|-3--3----3--|-5--5----5---||

|------------|------------|-------------|--------------*|
|------------|------------|-------------|--------------*|
|------------|------------|-3--3--3--3--|-3--3--3------*|
|-3--3----3--|-3--3----3--|-------------|----------3-5-*| fade


----------------------------------
Don't Let the Green Grass Fool You
----------------------------------

120BPM, 4/4

Intro

|---------------|--------------|----------|--------------| *First bar all triplets
|-1-1-1-1--1--1-|-3--1---------|----------|--------------|
|---------------|-------3----1-|--------6-|---5--6-xx7-7-|
|---------------|---------1----|----------|--------------|

|----------------|------------------|-----------------|-------------|
|----------------|-----10--11-1112--|-13-x----10-x----|-------------|
|-8--10--11--12--|-13---------------|-----13----------|-8-x------8-7|
|----------------|------------------|-------------11--|----8--6-----|

Verse

|------------|-------------|-------------|----5-x---3--|
|------------|------------2|-3--5--6--7--|-8-----5-----|
|-6-x---6----|----------1--|-------------|-------------|
|----6-------|-6--3-31-----|-------------|-------------|

|-------------|---x5-----3--|-------------|--------------|
|-3--5--6-67--|-8-----3-----|-------5--6-5|--------------|
|-------------|------------5|-6--8--------|-8--3--1--1S==|
|-------------|-------------|-------------|--------------|

|-------------|-------5-----|-------------|-------5-----|
|---x5--5--8--|-8-x8-x------|----5--------|-6--5--------|
|-6----6-----x|----------7--|-8--------8--|----------7--|
|-------------|-------------|-------8-----|-------------|

|-------------|----------7--|-8--7--8-x9--|-10--------109--|
|----5--6-x---|----7--8-8---|-------------|-----10-98------|
|-8--------7--|-8-----------|-------------|----------------|
|-------------|-------------|-------------|----------------|

Chorus

|-8-----5-----|-------------|-------------|-------------|
|----5-----8--|-5-----------|----5--6--5--|-------------|
|---6---------|----6-----6--|-8-----------|-8--6-----6--|
|-------------|-------8-----|-------------|-------8-----|

|-------------|-------------|--------------|----------7-7|
|----5--6-----|----7--8-----|--------10----|-------------|
|-8-------x6--|-8--------5--|-6-x6--8---8-x|-8-x---------|
|-------------|-------------|--------------|----8--6-x---|

|-8-87--5-----|-------------|-------------|-------------|
|----------8-x|-8-x8--8-x---|----5--6--8--|-5-----------|
|-------------|----------6--|-8-----------|----------7--|
|-------------|-------------|-------------|----8--6-----|

|-------------|----5--------|-------------|-------------|
|----5-x6-x7--|-8-----8-x---|-------5--8--|-------------|
|-8-----------|----------5--|-6--8--------|-8--------5--|
|-------------|-------------|-------------|----8--6-----|

|-------------|-------------|----------5--|-5--7--8--10--|
|-------------|-5--8--------|----5--6-x---|--------------|
|-6-----------|----------6--|-8-----------|--------------|
|----3--5--6--|-------8-----|-------------|--------------|

|-10--8--8-89--|-10--8--8-108-8|-8-----------|-------------|
|--------------|---------------|---x5--6--7--|-8--6--------|
|--------------|---------------|-------------|-------8--7--|
|--------------|---------------|-------------|-------------|

|-------------|-------5-----|-------------|-------------|
|----5--------|-5--8--------|-------------|----5--6-----|
|-6--------6--|----------6--|-8--5--------|-8-------66--|
|-------8-----|-------------|-------8--6--|-------------|

|-------------|-------------|-------------|-------------|
|-------------|-------------|-------------|-------------|
|-8-x---5-----|----------5--|-6-x6-x4-x4-x|-2-x2-x1-1---|
|----8-----8--|-6--6--8-----|-------------|-------------|

|---88-88--6--|-5-----------|-------------|-------------|
|-------------|----8--5--8-x|----5--6--8--|-8--6--5--4--|
|-6-----------|-------------|-8-----------|-------------|
|-------------|-------------|-------------|-------------|

|-------------|-------------|-------------|----5--6--7--|
|-------------|-------------|----5-56--7--|-8-8---------|
|-8--6-----6--|-8-------55--|-6-6---------|-------------|
|-------8-----|----8--6-----|-------------|-------------|

Middle Eight

|-----------7|-8-87--8--9-9|-10--8--7--5--|-------------|
|------------|-------------|--------------|-6--5--------|
|-6--8--6----|-------------|--------------|----------6--|
|------------|-------------|--------------|-------8-----|

|-------------|-------------|--------------|-------------|
|----5--6-6---|----8--8--7--|-8--10-x------|-------------|
|-8--------6--|-8-----------|--------6-6--6|-------8-x5-x|
|-------------|-------------|--------------|-6--6--------|

Chorus

|----5-----8--|-7--5-----5--|-------------|-------------|
|-------5-----|-------8-----|----5--6-----|----5--------|
|-6-----------|-------------|-8--------6--|-8--------6--|
|-------------|-------------|-------------|-------8-----|

|-------------|-------------|-------------|----------5-7|
|-3-x1--5-x6--|-6--6--8--8--|-------------|----5--8-8---|
|-------------|-------------|-6--6-66--6-6|-8-----------|
|-------------|-------------|-------------|-------------|

|-8-87--8-87--|-8-87--8-89--|-10-108--10--8--|-7--8--7-x8--|
|-------------|-------------|----------------|-------------|
|-------------|-------------|----------------|-------------|
|-------------|-------------|----------------|-------------|

|-10--8----------|-------------|--------------|------------|
|--------12-x10--|-8--5--------|----8--5------|--------5---|
|----------------|-------8--5-x|-6-------6--8-|---8--8----5|
|----------------|-------------|--------------|------------|

|-------5--8--|-----10--8-----x|-10-108--7------|-------------|
|----5--------|-10-------------|------------10--|-8--5--------|
|-6-6---------|------------10--|----------------|----------6--|
|-------------|----------------|----------------|-------8-----|

|-------------|-------------|--------------|-------------|
|----5--6-67--|-6-x7--8-----|----8--------x|-9-x9-x86----|
|-8-----------|---------x5--|-6-----10--8--|---------8---|
|-------------|-------------|--------------|----------6-x|

|-8-87--5-----|-------------|-------------|--------------|
|----------8--|-5-----------|----5--6-----|----10--8-5---|
|-------------|----6-----6--|-8--------8--|-8---------6--|
|-------------|-------8-8---|-------------|--------------|

|-------------|--------x7-7|-8-87--5-----|-------5-57-7|
|-------------|------------|----------8-8|-8-88-8------|
|-6--5-----6--|-8-x--------|-------------|-------------|
|-------8-8---|----8-------|-------------|-------------|

|-8-87--8-x7--|-8-x10-x8--9-x|-10-x10--8-x8--|-7-x-----------|
|-------------|--------------|---------------|----10--10-----|
|-------------|--------------|---------------|-----------67--|
|-------------|--------------|---------------|---------------|

|-------------|---------x7-7-|-8-8---5--8---|------------|
|-------------|--------------|----5---------|------8-----|
|-8--5-----6--|-8------------|------------8-|---8-----5--|
|-------8-8---|----6--6------|--------------|------------|

|-------------|----------5--|-------------|-------------|
|-------------|----5--8-----|----5--6--5--|-------------|
|-6--------5--|-6----------7|-8-8---------|-8--5----67--|
|----6--8-----|-------------|-------------|-------8-----|

|-------------|----------7-7|-8--7--5-----|--------------|
|----5--6-----|---x8--8-8---|----------8--|-8-x--x86-----|
|-8--------6--|-8-----------|-------------|----8----8---5|
|-------------|-------------|-------------|----------6---|

|----------5--|----5--8--9--|-10--8--7------*|
|----5--8-8---|-8-8---------|-----------10--*|
|-6-6---------|-------------|---------------*|
|-------------|-------------|---------------*| fade


-------------------------------
I Could Never (Repay Your Love)
-------------------------------

180BPM, 3/4

Intro

|--------|-------|--------|-------|---------|---------|--------|--------|
|--------|-------|--------|-------|---------|---------|--------|--------|
|-7------|-------|-6------|-------|-5----4--|-3----2--|--------|--------|
|--------|-------|--------|-------|---------|---------|-5------|-4------|

|--------|--------|--------|--------|--------|--------|---------|---------|
|--------|--------|--------|--------|--------|--------|---------|---------|
|--------|-2------|-7------|-----7--|-6------|-----6--|-5----4--|-3----2--|
|-2------|--------|--------|--------|--------|--------|---------|---------|

|--------|--------|--------|--------|
|--------|--------|--------|--------|
|--------|--------|--------|-2------|
|-5------|-4------|-2------|--------|

Verse

|--------|--------|--------|--------|--------|-------|--------|---------|
|-2------|-----2--|-1------|-----1--|--------|-------|--------|---------|
|--------|--------|--------|--------|-4------|-------|-2------|---------|
|--------|--------|--------|--------|--------|-------|--------|-0----2--|

|--------|--------|--------|--------|--------|---------|--------|---------|
|--------|--------|--------|--------|--------|---------|--------|---------|
|--------|--------|--------|-4------|--------|---------|-2------|---2--4--|
|-5------|-----5--|-4------|--------|-2------|---4--5--|--------|---------|

|--------|-------|--------|--------|--------|--------|--------|--------|
|-2------|-------|-1------|--------|--------|--------|--------|--------|
|--------|-------|--------|--------|-4------|-----4--|-2------|--------|
|--------|-------|--------|-4-----4|--------|--------|--------|-0------|

|--------|--------|--------|--------|--------|----------|--------|--------|
|--------|--------|--------|--------|--------|----------|--------|--------|
|--------|--------|--------|-4-----x|--------|----------|-6------|-5------|
|-5------|-----5--|-4------|--------|-2------|-2--1--0--|--------|--------|

Chorus

|--------|-------|--------|-------|--------|-------|--------|---------|
|--------|-------|--------|-------|--------|-------|--------|---------|
|-4------|------x|-2------|------x|-1------|------x|--------|---------|
|--------|-------|--------|-------|--------|-------|-5------|-----2-3-|

|--------|----------|--------|---------|--------|----------|--------|---------|
|--------|----------|--------|---------|--------|----------|--------|---------|
|--------|-------2--|--------|---2-----|--------|-------2--|--------|---2-----|
|-4------|-4--5-----|-5------|------5--|-4------|-4--5-----|-5------|------5--|

|--------|----------|--------|----------|--------|---------|
|--------|----------|--------|----------|--------|---------|
|--------|-------2--|--------|----------|-2------|---2--4--|
|-4------|-4--5-----|-2------|-2--4--5--|--------|---------|

Verse

|--------|--------|--------|---------|--------|-------|--------|---------|
|-2------|-----2--|-1------|---------|--------|-------|--------|-2-------|
|--------|--------|--------|-----2-3-|-4------|-------|-2------|------2--|
|--------|--------|--------|---------|--------|-------|--------|---------|

|--------|-------|--------|--------|--------|---------|--------|---------|
|--------|-------|--------|--------|--------|---------|--------|------2--|
|--------|-------|--------|-4-----x|--------|---------|-2------|---4----4|
|-5------|------x|-4------|--------|-2------|---4--5--|--------|---------|

|--------|--------|--------|--------|--------|--------|--------|---------|
|-2------|-----2--|-1------|--------|--------|--------|--------|---------|
|--------|--------|--------|--------|-4------|-----4--|-2------|---------|
|--------|--------|--------|-4-----4|--------|--------|--------|-0----2--|

|--------|--------|--------|--------|--------|----------|--------|--------|
|--------|--------|--------|--------|--------|----------|--------|--------|
|--------|--------|--------|-4-----x|--------|----------|-6------|-5-----x|
|-5------|-----5--|-4------|--------|-2------|-2--1--0--|--------|--------|

Chorus

|--------|-------|--------|--------|--------|--------|--------|---------|
|--------|-------|--------|--------|--------|--------|--------|---------|
|-4------|------x|-2------|-----2--|-1------|-----1--|--------|---------|
|--------|-------|--------|--------|--------|--------|-5------|---2--3--|

|--------|----------|--------|---------|--------|----------|--------|---------|
|--------|----------|--------|---------|--------|----------|--------|---------|
|--------|-------2--|--------|---2-----|--------|-------2--|--------|---2-----|
|-4------|-4--5-----|-5------|------5--|-4------|-4--5-----|-5------|------5--|

|--------|----------|--------|----------|--------|---------|
|--------|----------|--------|----------|--------|---------|
|--------|-------2--|--------|----------|-2------|---1--2--|
|-4------|-4--5-----|-2------|-2--4--5--|--------|---------|

Chord Change

|--------|--------|--------|--------|--------|-------|----------|----------|
|--------|--------|--------|--------|--------|-------|----------|----------|
|-3------|-----3--|--------|--------|--------|-------|----------|-------1--|
|--------|--------|-6------|-----6--|-5------|------x|-4--4--3--|-1--3-----|

|--------|--------|--------|--------|--------|-------|---------|----------|
|--------|--------|--------|--------|--------|-------|---------|----------|
|-3------|-----3--|--------|--------|--------|-------|---------|-------1--|
|--------|--------|-6------|-----6--|-5------|------x|-4----3--|-1--3-----|

|--------|--------|--------|--------|--------|-------|----------|----------|
|--------|--------|--------|--------|--------|-------|----------|----------|
|-3------|-----3--|--------|--------|--------|-------|----------|-------1--|
|--------|--------|-6------|-----6--|-5------|------x|-4--3--1--|-1--3-----|

|--------|--------|--------|--------|--------|-------|---------|----------|
|--------|--------|--------|--------|--------|-------|---------|----------|
|-3------|-----3--|--------|--------|--------|-------|---------|-------1--|
|--------|--------|-6------|-----6--|-5------|------x|-4----3--|-1--3-----|

|--------|--------|--------|--------|--------|-------|----------|----------|
|--------|--------|--------|--------|--------|-------|----------|----------|
|-3------|-----3--|--------|--------|--------|-------|----------|-------1--|
|--------|--------|-6------|-----6--|-5------|------x|-4--3--1--|-1--3-----|

|--------|--------|--------|--------|--------|-------|---------|----------|
|--------|--------|--------|--------|--------|-------|---------|----------|
|-3------|-----3--|--------|--------|--------|-------|---------|-------1--|
|--------|--------|-6------|-----6--|-5------|------x|-4----3--|-1--3-----|

|--------|-------|--------|--------|--------|-------|----------|----------|
|--------|-------|--------|--------|--------|-------|----------|----------|
|-3------|------x|--------|--------|--------|-------|----------|-------1--|
|--------|-------|-6------|-----6--|-5------|------x|-4--3--1--|-1--3-----|

|--------|--------|--------|--------|--------|--------|---------|----------|
|--------|--------|--------|--------|--------|--------|---------|----------|
|-3------|-----3--|--------|--------|--------|--------|---------|-------1--|
|--------|--------|-6------|-----6--|-5------|-----5--|-4----3--|-1--3-----|

|--------|--------|--------|--------|--------|-------|----------|----------|
|--------|--------|--------|--------|--------|-------|----------|----------|
|-3------|-----3--|--------|--------|--------|-------|----------|-------1--|
|--------|--------|-6------|-----6--|-5------|------x|-4--4--3--|-1--3-----|

Bridge

|--------|-------|--------|----------|--------|-------|----------|----2-----|
|--------|-------|--------|-------2--|-3------|------x|-3--3--3--|-3-----5--|
|-3------|------x|-3------|-3--5-----|--------|-------|----------|----------|
|--------|-------|--------|----------|--------|-------|----------|----------|

|-5------|--------|--------|---------|--------|-------|-------5|-5--------|
|--------|--------|--------|-2----5--|-3------|-------|-3------|----------|
|--------|-----3--|-5------|---------|--------|------3|--------|----------|
|--------|--------|--------|---------|--------|-------|--------|----3--6--|

|--------|-------|---------|----------|--------|-------|--------|---------|
|--------|-------|---------|-0--1--2--|-3------|------x|-3------|---------|
|-3------|------x|-3----3--|----------|--------|-------|--------|------1--|
|--------|-------|---------|----------|--------|-------|--------|-1-------|

|--------|--------|--------|----------|--------|-------|--------|----------|
|--------|------5-|--------|-------2--|-3------|------x|-3------|----------|
|-3------|--------|-3------|-5p3------|--------|-------|--------|-------1--|
|--------|--------|--------|----------|--------|-------|--------|-1--3----3|

|--------|-------|--------|----------|--------|--------|--------|-3--3--3--|
|--------|-------|--------|-------2--|-3------|--------|-3-----5|---5--5--5|
|-3------|-------|-3------|-5p3------|--------|-----3--|--------|----------|
|--------|------3|--------|----------|--------|--------|--------|----------|

|-5------|----------|--------|----------|--------|-------|--------|----------|
|--------|---/7--5--|--------|----------|--------|-------|--------|----------|
|--------|----------|-3------|----------|--------|-------|--------|-------1--|
|--------|----------|--------|-6--5--3--|-1------|------x|-1-----x|-1--3----3|

|--------|-------|--------|----------|--------|-------|--------5|----------|
|--------|-------|--------|-------2--|-3------|------x|-3--3----|-3--------|
|-3------|------x|-3-----x|-3--5-----|--------|-------|---------|----------|
|--------|-------|--------|----------|--------|-------|---------|---63--6-3|

|--------|-------|--------|----------|--------|-------|--------|----------|
|--------|-------|--------|----------|--------|------2|-3------|----------|
|-3------|------x|-3------|----------|--------|-------|--------|-1-----1--|
|--------|-------|--------|-6--5--3--|-1------|-------|--------|----3-----|

Ending

|--------|--------|--------|--------|--------|-------|----------|----------|
|--------|--------|--------|--------|--------|-------|----------|----------|
|-3------|-----3-x|--------|--------|--------|-------|----------|-------1--|
|--------|--------|-6------|-----6--|-5------|------x|-6--4--3--|-1--3-----|

|--------|--------|--------|--------|--------|-------|---------|----------|
|--------|--------|--------|--------|--------|-------|---------|----------|
|-3------|-----3-x|--------|--------|--------|-------|---------|-------1--|
|--------|--------|-6------|-----6--|-5------|------x|-4----3--|-1--3-----|

|--------|--------|--------|--------|--------|-------|----------|----------|
|--------|--------|--------|--------|--------|-------|----------|----------|
|-3------|-----3-x|--------|--------|--------|-------|----------|-------1--|
|--------|--------|-6------|-----6--|-5------|------x|-4--4--3--|-1--3-----|

|--------|--------|--------|--------|--------|--------|---------|----------|
|--------|--------|--------|--------|--------|--------|---------|----------|
|-3------|-----3-x|--------|--------|--------|--------|---------|-------1--|
|--------|--------|-6------|-----6--|-5------|-----5--|-4----3--|-1--3-----|

|--------|--------|--------|--------|--------|-------|----------|----------|
|--------|--------|--------|--------|--------|-------|----------|----------|
|-3------|-----3-x|--------|--------|--------|-------|----------|-------1--|
|--------|--------|-6------|-----6--|-5------|------x|-4--3--1--|-1--3-----|

|--------|-------|-------|-------*|
|--------|-------|-------|-------*|
|-3------|-------|-------|-------*|
|--------|-------|-------|-------*|


--------------
I'll Be Around
--------------

112BPM, 4/4

Intro

|---------|---------|---------|---------|
|---------|---------|---------|---------|
|---------|---------|---------|---------|
|---------|---------|---------|---------|

|---------|---------|---------|-------------|
|---------|---------|---------|-------------|
|---------|---------|---------|---------2---|
|---------|---------|---------|-----2-4---0-|

Verse

|---------------|---------------|---------------|--------------|
|---------------|---------------|---------------|--------------|
|---------------|---------------|---------------|--------------|
|--0-0--0-4-4-2-|--2-2--2-4-x-0-|--0-0--0-4-4-2-|--2-2--2-4--0-|

|---------------|--------------|--------------|---------------|
|---------------|--------------|--------------|---------4-4---|
|---------------|--------------|--------------|-------46-6----|
|--0-0--0-4-4-2-|--2-2--2-4--0-|--0-0--0-4--2-|--2-2--------0-|

|---------------|--------------|--------------|--------------|
|---------------|--------------|--------------|--------------|
|---------------|--------------|--------------|--------------|
|--0-0--0-4-4-2-|--2-2--2-4--0-|--0-0--0-4--2-|--2-2--2-4--0-|

|---------------|--------------|--------------|--------------|
|---------------|--------------|--------------|--------------|
|---------------|--------------|--------------|--------------|
|--0-0--0-4-4-2-|--2-2--2-4--0-|--0-0--0-4--2-|--2-2--2-4--0-|

Chorus

|--------------|--------------|--------------|--------------|
|--------------|--------------|--------------|--------------|
|--------------|--------------|--------------|--------------|
|--0-0--0-4--2-|--2-2--2-4--0-|--0-0--0-4--2-|--2-2--2-4--0-|

|--------------|-------------|---------------|----------------|
|--------------|-------------|--22--2--------|----------------|
|--------------|-------------|----2--2--2----|----------------|
|--0-0--0-4--2-|-----2-2-2-0-|--------4--40--|--0-0-0-0-0-0-0-|

Verse

|---------------|--------------|---------------|--------------|
|---------------|--------------|---------------|--------------|
|---------------|--------------|---------------|--------------|
|-0--0--0-4-4-2-|--2-2--2-4--0-|--0-0--0-4-4-2-|--2-2--2-4--0-|

|--------------|--------------|--------------|---------------|
|--------------|--------------|--------------|---------4-4---|
|--------------|--------------|--------------|-------46-6----|
|--0-0--0-4--2-|--2-2--2-4--0-|--0-0--0-4--2-|--2-2--------0-|

|---------------|--------------|--------------|--------------|
|---------------|--------------|--------------|--------------|
|---------------|--------------|--------------|--------------|
|--0-0--0-4-4-2-|--2-2--2-4--0-|--0-0--0-4--2-|--2-2--2-4--0-|

|--------------|---------------|---------------|--------------|
|--------------|---------4-4---|---------------|--------------|
|--------------|-------46-6----|---------------|--------------|
|--0-0--0-4--2-|--2-2--------0-|--0-0--0-4-x-2-|--2-2--2-4--0-|

Chorus

|--------------|--------------|--------------|--------------|
|--------------|--------------|--------------|--------------|
|--------------|--------------|--------------|--------------|
|--0-0--0-4--2-|--2-2--2-4--0-|--0-0--0-4--2-|--2-2--2-4--0-|

|--------------|-------------|-----------------|-----------------|
|--------------|-------------|--22--2----------|-----------------|
|--------------|-------------|----2--2--2------|-----------------|
|--0-0--0-4--2-|-----2-2-2-0-|--------4---4-0--|-0-0-0-0-0-0-0-0-|

Middle Eight

|--------------|--------------|--------------|--------------|
|--------------|--------------|--------------|--------------|
|--------------|--------------|--------------|--------------|
|-0--0--0-4--2-|--2-2--2-4--0-|--0-0--0-4--2-|--2-2--2-4--0-|

|--------------|--------------|--------------|---------------|
|--------------|--------------|--------------|---------------|
|--------------|--------------|--------------|---------------|
|--0-0--0-4--2-|--2-2--2-4--0-|--0-0--0-4--2-|--2-2--2-4-4-0-|

Chorus/Ending

|--------------|--------------|--------------|--------------|
|--------------|--------------|--------------|--------------|
|--------------|--------------|--------------|--------------|
|--0-0--0-4--2-|--2-2--2-4--0-|--0-0--0-4--2-|--2-2--2-4--0-|

|--------------|-------------|---------------|-----------------|
|--------------|-------------|--22--2--------|-----------------|
|--------------|-------------|----2--2--2----|-----------------|
|--0-0--0-4--2-|-----2-2-2-0-|--------4--40--|-0-0-0-0-0-0-0-0-|

|-------------|--------------|--------------|--------------|
|-------------|--------------|--------------|--------------|
|-------------|--------------|--------------|--------------|
|---0--0-4--2-|--2-2--2-4--0-|--0-0--0-4--2-|--2-2--2-4--0-|

|--------------|-------------|---------------|-----------------|
|--------------|-------------|--22--2--------|-----------------|
|--------------|-------------|----2--2--2----|-----------------|
|--0-0--0-4--2-|-----2-2-2-0-|--------4--40--|-0-0-0-0-0-0-0-0-|

|--------------|--------------|--------------|--------------|
|--------------|--------------|--------------|--------------|
|--------------|--------------|--------------|--------------|
|--0-0--0-4--2-|--2-2--2-4--0-|--0-0--0-4--2-|--2-2--2-4--0-|

|--------------|-------------|---------------|-----------------*|
|--------------|-------------|--22--2--------|-----------------*|
|--------------|-------------|----2--2--2----|-----------------*|
|--0-0--0-4--2-|-----2-2-2-0-|--------4--40--|-0-0-0-0-0-0-0-0-*| fade


---------------------------
One of a Kind (Love Affair)
---------------------------

176BPM, 4/4

Intro

|---------|---------|---------|---------|
|---------|---------|---------|---------|
|---------|---------|---------|---------|
|---------|---------|---------|---------|

||----------|---------|---------|----------||
||o---------|---------|---------|---------o||
||o---------|---------|---------|---------o||
||----------|---------|---------|----------||

||-----------|-----------|----------|------------||
||o----------|-----------|-6--------|-----------o||
||o----------|-----6--8--|----------|-----6--8--o||
||--4--------|-----------|----------|------------||

Chorus

|-------------|------------|------------|------------|
|-------------|------------|------------|------------|
|-------------|------------|-3----------|------------|
|-4--4---4--4-|-4--4----4--|------1--1--|----1-1--1--|

|------------|------------|-----------|-------------|
|------------|------------|-----------|-------------|
|-4--4-------|-3--3-------|-1--1------|-1--1--3--4--|
|---------4--|---------1--|-----------|-------------|

|----------|------------|-----------|---------------|
|----------|------------|-----------|-----6---6-----|
|-------4--|-3--3----3--|-1--1------|-6-8---8-------|
|----------|------------|-----------|------------4--|

|------------|------------|-----------|------------|
|------------|------------|-----------|------------|
|------------|------------|-3---------|------------|
|-4--4---4---|-4--4----4--|--------1--|----1-1--1--|

|------------|------------|-----------|-------------|
|------------|------------|-----------|-------------|
|-4--4----4--|-3--3----3--|-1--1------|-1--1--3--4--|
|------------|------------|-----------|-------------|

|----------|------------|-----------|------------|
|----------|------------|-----------|------------|
|-------4--|-3--3----3--|-1--1------|------------|
|----------|------------|-----------|-6--6----6--|

|-----------|------------|-----------|-----------|
|-----------|------------|-----------|-----------|
|-6------6--|-6----------|-6------6--|-6------6--|
|-----------|------6--8--|-----------|-----------|

Verse

|------------|-----------|-----------|----------|
|------------|-----------|-----------|----------|
|------------|-----------|-----------|----------|
|-4--4---4---|---4---4---|---4---4---|---4------|

|-----------|------------|------------|------------|
|-----------|------------|------------|------------|
|-4------4--|-3--3----3--|------------|------------|
|-----------|------------|-6--6-----6-|-6--6----1--|

|-------------|-------------|------------|-------------|
|-------------|-------------|------------|-------------|
|-------------|-------------|------------|-------------|
|-4--4---4--4-|-4--4---4--4-|-4--4---4---|-4--4---4--4-|

|-----------|------------|-----------|-------------|
|-----------|------------|-----------|-------------|
|-4------4--|-3--3----3--|-----------|-------3--4--|
|-----------|------------|-6--6------|-6--6--------|

|----------|------------|------------|------------|
|----------|------------|------------|------------|
|---4------|-3--3----3--|------------|------------|
|----------|------------|-6--6--6----|-6--6----6--|

|-----------|------------|-----------|------------|
|-----------|------------|-----------|------------|
|-6------6--|-6----------|-6------6--|-6----6--8--|
|-----------|------6--8--|-----------|------------|

Chorus

|------------|-----------|-----------|------------|
|------------|-----------|-----------|------------|
|------------|-----------|-3---------|------------|
|-4--4---4---|-4--4------|--------1--|----1-1--1--|

|------------|------------|-----------|-------------|
|------------|------------|-----------|-------------|
|-4--4----4--|-3--3----3--|-1--1------|-1--1--3--4--|
|------------|------------|-----------|-------------|

|----------|------------|-----------|---------------|
|----------|------------|-----------|-----6---6-----|
|-------4--|-3--3----3--|-1--1------|-6-8---8-------|
|----------|------------|-----------|------------4--|

|----------|-----------|-----------|------------|
|----------|-----------|-----------|------------|
|----------|-----------|-3---------|------------|
|------4---|-4--4------|--------1--|----1-1--1--|

|------------|------------|-----------|-------------|
|------------|------------|-----------|-------------|
|-4--4----4--|-3--3----3--|-1--1------|-1--1--3--4--|
|------------|------------|-----------|-------------|

|----------|------------|------------|------------|
|----------|------------|------------|------------|
|-------4--|-3--3----3--|-1--1-------|-1--1-------|
|----------|------------|---------1--|---------6--|

|-----------|------------|-----------|------------|
|-----------|------------|-----------|------------|
|-6------6--|-6----------|-6------6--|-6----6--8--|
|-----------|------6--8--|-----------|------------|

Instrumental

|-------------|-------------|-----------|-------------|
|-------------|-------------|-----------|-------------|
|-------------|-------------|-3---------|-------------|
|-4--4---4--4-|-4--4----4-6-|--------1--|-1---1-1--1--|

|-----------|-----------|-----------|-------------|
|-----------|-----------|-----------|-------------|
|-4------4--|---3----3--|-----------|-------3--4--|
|-----------|-----------|-6------6--|-6--6--------|

|----------|------------|-----------|---------------|
|----------|------------|-----------|-----6---6-----|
|-------4--|-3--3----3--|-----------|-6-8---8-------|
|----------|------------|-6--6------|------------4--|

Chorus/Ending

||--------------|-------------|-----------|-------------|
||o-------------|-------------|-----------|-------------|
||o-------------|-------------|-3---------|-------------|
||--4--4---4--4-|-4--4----4-4-|--------1--|----1-1--1---|

|------------|------------|------------|---------------||
|------------|------------|------------|----------6---o||
|-4--4----4--|-3--3----3--|------------|-6----6-8---8-o||
|------------|------------|-6--6----6--|---------------|| til fade


------------------
We Belong Together
------------------

144BPM, 4/4

Intro

|--------------|
|--------------|
|-5-7-8--5-----|
|-----------5--|

||-----------|----------|----------|--------------|
||o----------|----------|----------|--------------|
||o-5--------|----------|-5--------|-5-7-8--5-----|
||-----------|-------5--|----------|-----------5--|
                                   2/4   4/4
|----------|----------|-----------|-----|-----------|-----------||
|----------|----------|-----------|-----|-----------|----------o||
|-5--------|----------|-3---------|-----|-3---------|----------o||
|----------|-------3--|--------5--|-----|--------5--|-------5---||

||------------|-----------|-----------|------------||
||o-----------|-----------|-----------|-----------o||
||o-5------5--|-5------5--|-7------7--|-7---------o||
||------------|-----------|-----------|--------5---||

|-----------|------------|
|-----------|------------|
|-----------|------------|
|-3------3--|----3-3--3--|

Verse

|-----------|-----------|-----------|-----------|
|-----------|-----------|-----------|-----------|
|-3------3--|-3------3--|-----------|-5------5--|
|-----------|-----------|-5------5--|-----------|

|----------|--------------|-----------|---------|---------|
|----------|--------------|--------4--|---------|---------|
|-7--------|-2-3-2--------|-2---------|---------|---------|
|----------|--------3--0--|-----------|---------|---------|

|-----------|-----------|-----------|-----------|
|-----------|-----------|-----------|-----------|
|-5------5--|-5---------|-5------5--|-5------5--|
|-----------|------5----|-----------|-----------|

|----------|--------------|-----------|---------|---------|
|----------|--------------|--------4--|---------|---------|
|-7--------|-2-3-2--------|-2---------|---------|---------|
|----------|--------3--0--|-----------|---------|---------|

Pre-Chorus
                                     2/4
|-----------|-----------|-----------|-------|
|-3------3--|-3------3--|-3------3--|-3-----|
|-----------|-----------|-----------|----3--|
|-----------|-----------|-----------|-------|
 4/4
|-----------|-----------|-----------|-----------|
|-3------3--|-3------3--|-2------2--|-----------|
|-----------|-----------|-----------|-----------|
|-----------|-----------|-----------|-5------3--|

|-----------|-----------|-----------|-------------|
|-----------|-----------|-----------|-------------|
|-----------|-----------|-----------|-5----3------|
|-1------1--|-0------0--|-1----0----|---------3-5-|

|------------|-------------|------------|-------------|
|------------|-------------|------------|-------------|
|------------|-------------|------------|-------------|
|-6--6----6--|-6--6---6-5--|-3--3----3--|-3--3--5--5--|

Chorus

|-----------|-----------|-----------|-----------|
|-----------|-----------|-----------|-----------|
|-5------5--|-5------5--|-7------7--|-7---------|
|-----------|-----------|-----------|------5----|

|-----------|-----------|-----------|-----------|
|-----------|-----------|-----------|-----------|
|-5------5--|-5------5--|-----------|-----------|
|-----------|-----------|-0------0--|-0----5----|

|-----------|------------|
|-----------|------------|
|-----------|------------|
|-3------3--|----3-3--3--|

Verse

|-----------|-----------|-----------|-----------|
|-----------|-----------|-----------|-----------|
|-3------3--|-3------3--|-----------|-5------5--|
|-----------|-----------|-5------5--|-----------|

|----------|--------------|-----------|---------|---------|
|----------|--------------|--------4--|---------|---------|
|-7--------|-2-3-2--------|-2---------|---------|---------|
|----------|--------3--0--|-----------|---------|---------|

|-----------|-----------|-----------|-----------|
|-----------|-----------|-----------|-----------|
|-5------5--|-5---------|-5------5--|-5------5--|
|-----------|------5----|-----------|-----------|

|----------|--------------|-----------|---------|---------|
|----------|--------------|--------4--|---------|---------|
|-7--------|-2-3-2--------|-2---------|---------|---------|
|----------|--------3--0--|-----------|---------|---------|

Pre-Chorus
                                     2/4
|-----------|-----------|-----------|-------|
|-3------3--|-3------3--|-3------3--|-3-----|
|-----------|-----------|-----------|----3--|
|-----------|-----------|-----------|-------|
 4/4
|-----------|-----------|-----------|-----------|
|-3------3--|-3------3--|-2------2--|-----------|
|-----------|-----------|-----------|-----------|
|-----------|-----------|-----------|-5------3--|

|-----------|-----------|-----------|-------------|
|-----------|-----------|-----------|-------------|
|-----------|-----------|-----------|-5----3------|
|-1------1--|-0------0--|-1----0----|---------3-5-|

|------------|------------|------------|-------------|
|------------|------------|------------|-------------|
|------------|------------|------------|-------------|
|-6--6----6--|---6--6--5--|-3--3----3--|-3--3--5--5--|

Chorus/Ending

|-----------|-----------|-----------|-----------|
|-----------|-----------|-----------|-----------|
|-5------5--|-5------5--|-7------7--|-7------7--|
|-----------|-----------|-----------|-----------|

|-----------|-----------|-----------|------------|
|-----------|-----------|-----------|------------|
|-5------5--|-5------5--|-7------7--|-7----------|
|-----------|-----------|-----------|--------0-3-|

|-----------|------------|
|-----------|------------|
|-----------|--------2---|
|-5------5--|----5-5-----|

||------------|-----------|-----------|-----------|
||o-----------|-----------|-----------|-----------|
||o-5------5--|-5------5--|-7------7--|-7---------|
||------------|-----------|-----------|------5----|

|-----------|-----------|-----------|------------|
|-----------|-----------|-----------|------------|
|-5------5--|-5------5--|-7------7--|-7----------|
|-----------|-----------|-----------|--------0-3-|

|-----------|-------------||
|-----------|------------o||
|-----------|--------2---o||
|-5------5--|----5-5------|| til fade


------------
Ghetto Child
------------

108BPM, 4/4

Intro

|-------------|-------------|-------------|-------7--------|
|-------------|-------------|-------------|-----7---7------|
|-------------|-------------|-5---5-5---5-|-5---------5-5\-|
|-5---5-5---5-|-5---5-5---5-|-------------|----------------|

|-------------|-------------|---------------|----------|
|-------------|-------------|-3---3-3-------|----------|
|-3---3-3---3-|-3---3-3---3-|-----------3\--|----------|
|-------------|-------------|---------x-----|-1--------|

Verse

|--------------|------------|--------------|-------------|------------|
|--------------|------------|--------------|-------------|------------|
|--------------|-5---5----5-|--------------|-3---3---3---|------------|
|-1---1--3-5-0-|------------|-3---3--5-6-3-|-----------6-|-5---5----5-|
 3/4        4/4
|----------|--------------|------------|------------|
|----------|--------------|------------|------------|
|-5---5h5--|-5h5--5h5--5--|------------|-3---3----3-|
|----------|--------------|-3---3----3-|------------|

|--------------|------------|--------------|-------------|--------------|
|--------------|------------|--------------|-------------|--------------|
|--------------|-5---5----5-|--------------|-3---3---3---|--------------|
|-1---1--3-5-0-|------------|-3---3--5-6-3-|-----------6-|-5---5-5-5--5-|
 3/4         4/4
|-----------|---------------|------------|--------------|
|-----------|---------------|------------|--------------|
|-5h5--5h5--|-5h5--5h5--5-3-|------------|--------------|
|-----------|---------------|-6---6----6-|-5---5--5-5-5-|

Chorus
                3/4         4/4
|--------------|-----------|-----------|--------------|
|------------2-|--2--------|-----------|--------------|
|--------------|----5--3---|-----------|-3---3--3-3-3-|
|-6--5-53-1----|---------6-|----6----6-|--------------|
                3/4         4/4
|--------------|-----------|-----------|--------------|
|--------------|-----------|-----------|--------------|
|--------------|----5--3---|-----------|--------------|
|-6--5-53-1--0-|--0------6-|----6----6-|-5---5--5-5-5-|

Bridge

|------------|------------|------------|------------|
|------------|------------|------------|------------|
|-5---5----5-|------------|-5---5----5-|------------|
|------------|-3---3----5-|------------|-3---3----3-|

|-------------|--------------|-------------|----------|
|-------------|----------0---|-------------|----------|
|-3---3-3---3-|-3---3-3----3-|-------------|----------|
|-------------|--------------|-1---1-1---1-|-1--------|

Verse

|--------------|------------|--------------|-------------|------------|
|--------------|------------|--------------|-------------|------------|
|--------------|-5---5----5-|--------------|-3---3---3---|------------|
|-1---1--3-5-0-|------------|-3---3--5-6-3-|-----------6-|-5---5----5-|

|---------|-------------|------------|-------------|
|---------|-------------|------------|-------------|
|-5---5---|-5h5--5---5--|------------|-3-3--3----3-|
|---------|-------------|-3---3----3-|-------------|

|--------------|------------|--------------|-------------|------------|
|--------------|------------|--------------|-------------|------------|
|--------------|-5---5----5-|--------------|-3---3---3---|------------|
|-1---1--3-5-0-|------------|-3---3--5-6-3-|-----------6-|-5---5----5-|

|----------|--------------|------------|--------------|
|----------|--------------|------------|--------------|
|-5---5h5--|-5---5h5--5-3-|------------|--------------|
|----------|--------------|-6---6----6-|-5---5--5-5-5-|

Chorus

|--------------|----------|-----------|--------------|
|------------2-|----------|-----------|--------------|
|--------------|---5--3---|-----------|-3---3--3-3-3-|
|-6--5-53-1----|--------6-|----6----6-|--------------|

|--------------|----------|------------|--------------|
|--------------|----------|------------|--------------|
|--------------|---5--3---|------------|--------------|
|-6--5-53-1--0-|--------6-|----6-6---6-|-5---5--5-5-5-|

Instrumental

|-------------|------------|-------------|---------------|
|-------------|------------|-------------|---------------|
|-5---5h5---5-|------------|-5---5h5---5-|---------0-1-2-|
|-------------|-3---3h3----|-------------|-3---3-3-------|

|-------------|-------------|-------------|-------------|
|-------------|-------------|-3---3-3---3-|-3---3-3-----|
|-3---3-3---3-|-3---3-3---3-|-------------|-----------5-|
|-------------|-------------|-------------|-------------|

|-------------|-------------|---------------|----------|
|-------------|-------------|---------------|----------|
|-3---3-3---3-|-3---3-3-----|---------------|----------|
|-------------|-----------0-|-1-1--1-1--8\--|-1--------|

Chorus/Ending

|--------------|-----------|-----------|------------|
|--------------|-----------|-----------|------------|
|--------------|----5--3---|-----------|-3---3----3-|
|-6--5--3-1--0-|--0------6-|----6----6-|------------|

|--------------|-----------|------------|------------|
|--------------|-----------|------------|------------|
|--------------|----5--3---|------------|-3---3----3-|
|-6--5--3-1--0-|--0------6-|----6-6---6-|------------|

|--------------|-----------|------------|--------------|
|--------------|-----------|------------|--------------|
|--------------|----5--3---|------------|-3---3--3-3-3-|
|-6--5--3-1--0-|--0------6-|----6-6---6-|--------------|

|--------------|-----------|-----------|--------------|
|--------------|-----------|-----------|--------------|
|--------------|----5--3---|-----------|-3---3--3-3-3-|
|-6--5-53-1--0-|--0------6-|----6----6-|--------------|

|--------------|-----------|-----------|--------------|
|--------------|-----------|-----------|--------------|
|--------------|----5--3---|-----------|-3---3--3-3-3-|
|-6--5--3-1--0-|--0------6-|----6----6-|--------------|

|--------------|-----------|------------|--------------|
|--------------|-----------|------------|--------------|
|--------------|----5--3---|------------|-3---3--3-3-3-|
|-6--5-53-1--0-|--0------6-|----6-6---6-|--------------|

|--------------|-----------|-----------|--------------|
|--------------|-----------|-----------|--------------|
|--------------|----5--3---|-----------|-3---3--3-3-3-|
|-6--5-53-1--0-|--0------6-|----6----6-|--------------| fade


----------------------------
How Could I Let You Get Away
----------------------------

148BPM, 4/4

Intro

[Drum intro]

||------------|---------------|-----------|---------------|
||o-----------|---------------|-----------|---------------|
||o-----------|---------------|-----------|---------------|
||--3------3--|-h3----3-3-3-3-|-3------3--|-h3----3-3-3-3-|

|-----------|---------------|-----------|-----------||
|-----------|---------------|-----------|----------o||
|-----------|---------------|-3------2--|----------o||
|-3------3--|-h3----3-3-3-3-|-----------|---5-------||

|-------------|----------|
|-------------|----------|
|-5--5--5--5--|-5--------|
|-------------|----------|

Verse

|------------|------------|------------|-----------|
|------------|------------|------------|-----------|
|------------|------------|------------|-3---------|
|-3--3-----3-|-3--3----3--|-3--3----3--|------0----|

|------------|-----------|-------------|-----------|
|------------|-----------|-------------|-----------|
|------------|-3---------|-------------|-5------5--|
|-5--5----5--|------0----|-5--5--5--5--|-----------|

|------------|------------|------------|-----------|
|------------|------------|------------|-----------|
|------------|------------|------------|-3---------|
|-3--3-----3-|-3--3----3--|-3--3----3--|------0----|

|------------|-------------|------------|-------------|
|------------|-------------|------------|-------------|
|------------|-3--3--------|------------|-------2-----|
|-5--5----5--|-------0--0--|-5--5----5--|-5--5-----0--|

Pre-Chorus

|------------|-------------|-----------|------------|
|------------|-------------|-----------|------------|
|------------|-------2-----|-----------|-5--5----5--|
|-5--5----5--|-5--5-----5--|---5----5--|------------|

|-------------|------------|-------------|-------------|
|-------------|------------|-------------|-------------|
|-------------|------------|-------------|-------------|
|-3--3----3h3-|---3--3--3--|-3--3----3-2-|-0--0--0--3--|

Chorus

|-------------|------------|-----------|-------------|
|-------------|------------|-----------|-------------|
|-------------|------2-----|-----------|-5--5--5--5--|
|-5--5----5h5-|---5-----5--|---5----5--|-------------|

|-------------|-----------|-------------|-------------|
|-------------|-----------|-------------|-------------|
|-------------|-----------|-------------|-------------|
|-3--3----3h3-|---3----3--|-3--3----3-2-|-0--0--0--3--|

|-------------|------------|-----------|-------------|
|-------------|------------|-----------|-------------|
|-------------|------2-----|-----------|-5--5--5--5--|
|-5--5----5h5-|---5-----5--|---5----5--|-------------|

|-------------|------------|------------|-------------|
|-------------|------------|------------|-------------|
|-------------|------------|------------|-------------|
|-3--3----3h3-|---3--3--3--|-3--3----3--|-3--3--3--3--|

Verse

|------------|------------|------------|-----------|
|------------|------------|------------|-----------|
|------------|------------|------------|-3---------|
|-3--3-----3-|-3--3----3--|-3--3----3--|------0----|

|------------|-----------|-------------|-----------|
|------------|-----------|-------------|-----------|
|------------|-3---------|-------------|-5------5--|
|-5--5----5--|------0----|-5--5--5--5--|-----------|

|------------|------------|------------|-----------|
|------------|------------|------------|-----------|
|------------|------------|------------|-3---------|
|-3--3-----3-|-3--3----3--|-3--3----3--|------0----|

|------------|-------------|------------|-------------|
|------------|-------------|------------|-------------|
|------------|-3--3--------|------------|-------2-----|
|-5--5----5--|-------0--0--|-5--5-----5-|-5--5-----0--|

Pre-Chorus

|------------|-------------|-----------|------------|
|------------|-------------|-----------|------------|
|------------|-------2-----|-----------|-5--5----5--|
|-5--5-----5-|-5--5-----5--|---5----5--|------------|

|------------|------------|-------------|-------------|
|------------|------------|-------------|-------------|
|------------|------------|-------------|-------------|
|-3--3----3--|---3--3--3--|-3--3----3-2-|-0--0--0--3--|

Chorus

|------------|-------------|-----------|-------------|
|------------|-------------|-----------|-------------|
|------------|-------2-----|-----------|-5--5--5--5--|
|-5--5----5--|-5--5-----5--|---5----5--|-------------|

|-------------|------------|-------------|-------------|
|-------------|------------|-------------|-------------|
|-------------|------------|-------------|-------------|
|-3--3----3h3-|---3--3--3--|-3--3----3-2-|-0--0--0--3--|

|-------------|------------|-----------|-------------|
|-------------|------------|-----------|-------------|
|-------------|------2-----|-----------|-5--5--5--5--|
|-5--5----5h5-|---5-----5--|---5----5--|-------------|

|-------------|------------|-------------|-------------|
|-------------|------------|-------------|-------------|
|-------------|------------|-------------|-------------|
|-3--3----3h3-|---3--3--3--|-3--3----3-2-|-0--0--0--3--|

Solo

|-------------|------------|------------|-------------|
|-------------|------------|------------|-------------|
|-------------|------2-----|------------|-5--5--5--5--|
|-5--5----5h5-|---5-----5--|---5--5--5--|-------------|

|-------------|------------|-------------|-------------|
|-------------|------------|-------------|-------------|
|-------------|------------|-------------|-------------|
|-3--3----3h3-|---3--3--3--|-3--3----3-2-|-0--0--0--3--|

|-------------|------------|-----------|-------------|
|-------------|------------|-----------|-------------|
|-------------|------2-----|-----------|-5--5--5--5--|
|-5--5----5h5-|---5-----5--|---5----5--|-------------|

|-------------|------------|-------------|-------------|
|-------------|------------|-------------|-------------|
|-------------|------------|-------------|-------------|
|-3--3----3h3-|---3--3--3--|-3--3----3-2-|-0--0--0--3--|

Chorus/Ending

||--------------|------------|-----------|-------------|
||o-------------|------------|-----------|-------------|
||o-------------|------2-----|-----------|-5--5--5--5--|
||--5--5----5h5-|---5-----5--|---5----5--|-------------|

|-------------|------------|-------------|--------------||
|-------------|------------|-------------|-------------o||
|-------------|------------|-------------|-------------o||
|-3--3----3h3-|---3--3--3--|-3--3----3-2-|-0--0--0--3---|| til fade


-------------------------------
Could It Be I'm Falling in Love
-------------------------------

200BPM, 4/4

Intro

[Drum intro]
                                           3x
||----------|---------|---------|----------||
||o---------|---------|---------|---------o||
||o---------|---------|---------|---------o||
||----------|---------|---------|----------||

|------------|-------------|-----------|-------------|
|------------|-------------|-----------|-------------|
|-5--5----5--|-5--5--5--3--|---3--3----|-3--3--3--2--|
|------------|-------------|-----------|-------------|

|-----------|-------------|------------|------------|
|-----------|-------------|------------|------------|
|---2--2----|-2--2--2--3--|---3--------|------3-----|
|-----------|-------------|------3--1--|---5-----6--|

Verse

|-----------|-------------|-----------|------------|
|-----------|-------------|-----------|------------|
|-----------|----3--5--6--|---6--6----|-6--3-------|
|---6--6----|-6-----------|-----------|---------6--|

|-----------|-------------|-----------|------------|
|-----------|-------------|-----------|------------|
|-----------|----3--5--6--|---6--6----|-6--6-------|
|---6--6----|-6-----------|-----------|---------5--|

|-----------|------------|-----------|------------|
|-----------|------------|-----------|------------|
|-----------|------------|-----------|------------|
|---5--5----|-5--5----5--|-0----0----|-0--0----0--|

|------------|------------|-----------|------------|------------|------------|
|------------|------------|-----------|------------|------------|------------|
|-2----2--2--|---2--2-----|-----------|---------3--|---------3--|------3-----|
|------------|---------0--|-5----5----|-5--3-------|---3--3-----|---5-----6--|

|-----------|-------------|-----------|------------|
|-----------|-------------|-----------|------------|
|-----------|----3--5--6--|---6--6----|-6--3-------|
|---6--6----|-6-----------|-----------|---------6--|

|-----------|-------------|-----------|------------|
|-----------|-------------|-----------|------------|
|-----------|----3--5--6--|---6--6----|-6--6-------|
|---6--6----|-6-----------|-----------|---------5--|

|-----------|------------|------------|-------------|
|-----------|------------|------------|-------------|
|-----------|------------|------------|-------------|
|---5--5----|-5--5----5--|-0--0----0--|-0--0----3-5-|

|------------|------------|-----------|------------|------------|-----------|
|------------|------------|-----------|------------|------------|-----------|
|-2----2--2--|-2--2-------|-----------|---------3--|---------3--|------3----|
|------------|---------0--|-5----5----|-5--3-------|---3--3-----|---3-------|

Chorus

|------------|------------|-----------|------------|
|------------|------------|-----------|------------|
|-3--3----3--|------------|-----------|----2----2--|
|------------|-0--0----5--|---5--5----|-5----------|

|------------|-------------|-----------|------------|
|------------|-------------|-----------|------------|
|-3--3----3--|-------------|-----------|----2----2--|
|------------|-0--0--0--5--|---5--5----|-5----------|

|------------|------------|-----------|----------|
|------------|------------|-----------|----------|
|-3--3----3--|------------|------5----|-------5--|
|------------|-0--0----5--|---5-------|----------|

|-------------|-------------|------------|-------------|
|-------------|-------------|------------|-------------|
|-5-5-----5-5-|-5--5--5--3--|---3--3--3--|-3--3--3--2--|
|-------------|-------------|------------|-------------|

|------------|-------------|------------|------------|
|------------|-------------|------------|------------|
|---2--2--2--|-2--2--2--3--|---3--------|------3-----|
|------------|-------------|------3--1--|---5-----6--|

Verse

|-----------|-------------|-----------|------------|
|-----------|-------------|-----------|------------|
|-----------|----3--5--6--|---6--6----|-6--3-------|
|---6--6----|-6-----------|-----------|---------6--|

|-----------|-------------|-----------|------------|
|-----------|-------------|-----------|------------|
|-----------|----3--5--6--|---6--6----|-6--6-------|
|---6--6----|-6-----------|-----------|---------5--|

|-----------|------------|-----------|-------------|
|-----------|------------|-----------|-------------|
|-----------|------------|-----------|-------------|
|---5--5----|-5--5----5--|-0----0----|-0--0----0-5-|

|------------|------------|-----------|------------|------------|------------|
|------------|------------|-----------|------------|------------|------------|
|-2----2--2--|-2--2-------|-----------|---------3--|---------3--|------3-----|
|------------|---------0--|-5----5----|-5--3-------|---3--3-----|---5-----6--|

|------------|-------------|-----------|------------|
|------------|-------------|-----------|------------|
|------------|----3--5--6--|---6--6----|-6--3-------|
|---6--6--6--|-6-----------|-----------|---------6--|

|-----------|-------------|-----------|------------|
|-----------|-------------|-----------|------------|
|-----------|----3--5--6--|---6--6----|-6--6-------|
|---6--6----|-6-----------|-----------|---------5--|

|-----------|------------|-------------|------------|
|-----------|------------|-------------|------------|
|-----------|------------|-------------|------------|
|---5--5----|-5--5----5--|-0----0--0-0-|---0----0-5-|

|------------|------------|-----------|------------|------------|-----------|
|------------|------------|-----------|------------|------------|-----------|
|-2----2--2--|-2--2-------|-----------|---------3--|---------3--|------3----|
|------------|---------0--|-5----5----|-5--3-------|---3--3-----|---3-------|

Chorus

|------------|------------|-----------|------------|
|------------|------------|-----------|------------|
|-3--3----3--|------------|-----------|----2----2--|
|------------|-0--0----5--|---5--5----|-5----------|

|------------|-------------|-----------|------------|
|------------|-------------|-----------|------------|
|-3--3----3--|-------------|-----------|----2----2--|
|------------|-0--0--0--5--|---5--5----|-5----------|

|-------------|-------------|-----------|----------|
|-------------|-------------|-----------|----------|
|-3--3--3--3--|-------------|------5----|-------5--|
|-------------|-0--0--0--5--|---5-------|----------|

|------------|------------|------------|-------------|
|------------|------------|------------|-------------|
|-5----5--5--|---5--5--3--|---3--3--3--|-3--3--3--2--|
|------------|------------|------------|-------------|

|------------|-------------|------------|------------|
|------------|-------------|------------|------------|
|---2--2--2--|-2--2--2--3--|---3--------|------3-----|
|------------|-------------|------3--1--|---5-----6--|

Instrumental

|-----------|-------------|-----------|------------|
|-----------|-------------|-----------|------------|
|-----------|----3--5--6--|---6--6----|-6--3-------|
|---6--6----|-6-----------|-----------|---------6--|

|-----------|-------------|-----------|------------|
|-----------|-------------|-----------|------------|
|-----------|----3--5--6--|---6--6----|-6--6-------|
|---6--6----|-6-----------|-----------|---------5--|

|-----------|------------|------------|------------|
|-----------|------------|------------|------------|
|-----------|------------|------------|------------|
|---5--5----|-5--5----5--|-0----0--0--|---0----0-5-|

|------------|------------|------------|------------|------------|------------|
|------------|------------|------------|------------|------------|------------|
|-2----2--2--|---2--2-----|------------|---------3--|---------3--|------3-----|
|------------|---------0--|-5----5--x--|-5--3-------|---3--3-----|---5-----6--|

|------------|-------------|-----------|------------|
|------------|-------------|-----------|------------|
|------------|----3--5--6--|---6--6----|-6--3-------|
|---6--6--6--|-6-----------|-----------|---------6--|

|------------|-------------|-----------|------------|
|------------|-------------|-----------|------------|
|------------|----3--5--6--|---6--6----|-6--6-------|
|---6--6--x--|-6-----------|-----------|---------5--|

|-----------|------------|-----------|-------------|
|-----------|------------|-----------|-------------|
|-----------|------------|-----------|-------------|
|---5--5----|-5--5----5--|-0----0----|-0--0----0-5-|

|-----------|------------|-----------|------------|------------|-----------|
|-----------|------------|-----------|------------|------------|-----------|
|-2----2----|-2--2-------|-----------|---------3--|---------3--|------3----|
|-----------|---------0--|-5----5----|-5--3-------|---3--3-----|---3-------|

Chorus

|------------|-------------|-----------|------------|
|------------|-------------|-----------|------------|
|-3--3----3--|-------------|-----------|----2----2--|
|------------|-0--0--0--5--|---5--5----|-5----------|

|------------|-------------|-----------|------------|
|------------|-------------|-----------|------------|
|-3--3----3--|-------------|-----------|----2----2--|
|------------|-0--0--0--5--|---5--5----|-5----------|

|-------------|-------------|-----------|----------|
|-------------|-------------|-----------|----------|
|-3--3--3--3--|-------------|------5----|-------5--|
|-------------|-0--0--0--5--|---5-------|----------|

|-----------|------------|------------|-------------|
|-----------|------------|------------|-------------|
|-5------5--|---5--5--3--|---3--3--3--|-3--3--3--2--|
|-----------|------------|------------|-------------|

|------------|-------------|------------|-----------|
|------------|-------------|------------|-----------|
|---2--2--2--|-2--2--2--3--|---3--3--2--|---2--2----|
|------------|-------------|------------|-----------|

Philippe's Rap!

||-------------|------------|-----------|-------------||
||o------------|------------|-----------|------------o||
||o-3--3----3--|------------|-----------|----2----2--o||
||-------------|-0--0----5--|---5--5----|-5-----------|| til fade


----------
Tabbed by W.g.Wilson (199X) using Powertab Editor.
I make no money from the writing of these tabs.
comments
We did not receive enough feedback on this tab! Please rate:
print report bad tab
1 2 3 4 5
I want to post or [tab]
guest
You may want to rate the tab now too:
select rating
Please do not post tabs as comments. Select "correction" instead!