Oops, an error
Loading. Please wait.

Yesterday Today Tomorrow Bass Tab

230 views 3 this week
no commentswrite comment
1 2 3 4 5
please rate
Autoscroll
+/-
esc
set tempo
stop
Contributor
Hey! There's an official Ultimate Guitar app which is ideal
for learning songs when you're away from computer. Get the app
WARNING: You are trying to view
                                    content from Ultimate-Guitar.com
                                    in an unauthorized application,
                                    which is prohibited.

                                    Please use an official Ultimate
                                    Guitar Tabs application for iPhone,
                                    iPad or Android to access legitimate
                                    chords, guitar, bass, and drum tabs
                                    from Ultimate-Guitar.com database.

                                    Type "ultimate guitar tabs" in Apple
                                    App Store's or Android Market's
                                    search to find the application.
---------------------------
Yesterday, Today & Tomorrow
---------------------------
The Spinners
Bass Tabs
Bass played by Bob Babbitt

Track Listing

1. Me and My Music
2. I Found Love (When I Found You)
3. I'm Riding Your Shadow (Down to Love)
4. You're the Love of My Life

5. I Must Be Living for a Broken Heart
6. Honey, I'm in Love With You
7. Just to Be With You
8. You're Throwing a Good Love Away


---------------
Me and My Music
---------------

128BPM, 4/4

Intro

||----------------|--------------|----------------|----------||
||o---------------|--------------|----------------|---------o||
||o-3---3-------3-|----3---------|------------6-3-|---------o||
||--------0-3-5---|------0-3-5-3-|-6-5-3-1--3-----|----------||

|---------------|--------------|----------------|------| *last bar 2/4
|---------------|--------------|----------------|------|
|-3---3-------3-|----3---------|------------6-3-|---3--|
|-------0-3-5---|------0-3-5-3-|-6-5-3-1--3-----|------|

Verse

|---------------|--------------|---------------|--------------|
|---------------|--------------|-------------3-|----3---------|
|-3---3-------3-|----3---------|---------3-5---|--------3-5---|
|-------0-3-5---|------0-3-5-3-|-1---1-5-------|------5-----5-|

|---------------|--------------|--------------|--------------|
|-------------2-|----2-------2-|-3----------3-|----3---------|
|-3---3---------|----------3---|--------3-5---|--------3-5-3-|
|-------0-3-5---|------3-5-----|------5-------|------5-------|

Pre-Chorus

|-----------------|----------------|-----------------|----------------|
|-----------------|----------------|-----------------|----------------|
|-----------------|----------------|---------5-5-5---|------3-5-3-5-3-|
|-3-3-3-3-3-3-3-4-|--4-4-4-4-4-4-4-|-5-5-5-5-------1-|--1-5-----------|

|-----------------|----------------|-----------------|--------| *last bar 2/4
|-----------------|----------------|-----------------|--------|
|-----------------|----------------|---------5-5-5---|--------|
|-3-3-3-3-3-3-3-4-|--4-4-4-4-4-4-4-|-5-5-5-5-------1-|--1-1-1-|

|---------------|
|---------------|
|---------------|
|-3-3-3--3-3-3--|

Chorus

|---------------|--------------|---------------|-------------|
|---------------|--------------|-------------3-|---3--2------|
|-3---3-------3-|----3---------|---------3-5---|--------5--3-|
|-------0-3-5---|------0-3-5-3-|-1---1-5-------|-------------|

|---------------|--------------|---------------|-------------|
|---------------|--------------|-------------3-|---3--2--2---|
|-3---3-------3-|----3---------|---------3-5---|-----------5-|
|-------0-3-5---|------0-3-5-3-|-1---1-5-------|-------------|

|------------|--------------|---------------|---------------|
|---2--3---3-|---2----------|---------------|---------------|
|------------|------5-3-----|-3---3-----3---|-------------5-|
|------------|----------5-3-|-------0-3---5-|--5-5-5--5-5---|

|-------------|---------------|
|----2--3---3-|--3-2----------|
|--5----------|-------5-3-----|
|-------------|-----------5-3-|

|---------------|--------------|----------------|------|
|---------------|--------------|----------------|------|
|-3---3-------3-|----3---------|------------6-3-|---3--|
|-------0-3-5---|------0-3-5-3-|-6-5-3-1--3-----|------|

Verse

|---------------|--------------|---------------|--------------|
|---------------|--------------|-------------3-|----3---------|
|-3---3-------3-|----3---------|---------3-5---|--------3-5---|
|-------0-3-5---|------0-3-5-3-|-1---1-5-------|------5-----5-|

|---------------|--------------|---------------|--------------|
|-------------2-|----2-------2-|-3---3-------3-|----3---------|
|-3---3---------|--------3-5---|---------3-5---|--------3-5-3-|
|-------0-3-5---|------3-------|-------5-------|------5-------|

Pre-Chorus

|-----------------|----------------|-----------------|----------------|
|-----------------|----------------|-----------------|----------------|
|-----------------|----------------|---------5-5-5---|------3-5-3-5-3-|
|-3-3-3-3-3-3-3-4-|--4-4-4-4-4-4-4-|-5-5-5-5-------1-|--1-5-----------|

|-----------------|----------------|-----------------|--------|
|-----------------|----------------|-----------------|--------|
|-----------------|----------------|---------5-5-5---|--------|
|-3-3-3-3-3-3-3-4-|--4-4-4-4-4-4-4-|-5-5-5-5-------1-|--1-1-1-|

|---------------|
|---------------|
|---------------|
|-3-3-3--3-3-3--|

Chorus

|---------------|------------|---------------|-------------|
|---------------|------------|-------------3-|---3--2------|
|-3---3-------3-|------------|---------3-5---|--------5--3-|
|-------0-3-5---|------3-5-3-|-1---1-5-------|-------------|

|---------------|-------------|---------------|-------------|
|---------------|-------------|-------------3-|---3--2--2---|
|-3---3-------3-|-----3-------|---------3-5---|-----------5-|
|-------0-3-5---|-------3-5-3-|-1---1-5-------|-------------|

|------------|---------------|---------------|---------------|
|---2--3---3-|--3-2----------|---------------|---------------|
|------------|-------5-3-----|-3---3-----3---|-------------5-|
|------------|-----------5-3-|-------0-3---5-|--5-5-5--5-5---|

|-------------|---------------|
|----2--3---3-|--3-2----------|
|--5----------|-------5-3-----|
|-------------|-----------5-3-|

|---------------|--------------|----------------|------|
|---------------|--------------|----------------|------|
|-3---3-------3-|----3---------|------------6-3-|---3--|
|-------0-3-5---|------0-3-5-3-|-6-5-3-1--3-----|------|

Chorus/Ending

||----------------|--------------|---------------|--------------||
||o---------------|--------------|-------------3-|---3--2------o||
||o-3---3-------3-|----3---------|---------3-5---|--------5--3-o||
||--------0-3-5---|------0-3-5-3-|-1---1-5-------|--------------|| til fade


-------------------------------
I Found Love (When I Found You)
-------------------------------

160-176BPM, 4/4

Intro

||-------------|---------|------------|---------|
||o------------|---------|------------|---------|
||o----2-------|---------|----4-------|---------|
||--0-----0----|---------|-2-----2----|---------|

|------------|---------|------------|-----------||
|------------|---------|------------|----------o||
|----2-------|---------|------------|-2--------o||
|-0-----0----|---------|-2------3-5-|-----------||

|---------|------------|---------|
|---------|-10p=9------|---------|
|---------|------------|---------|
|---------|------------|---------|

Verse

|------------|----------|-----------|----------|
|------------|----------|-----------|----------|
|----2-------|----------|-----------|-------2--|
|-0-----0----|-------5--|---0--5----|----------|

|-----------|----------|----------|---------|
|-----------|----------|----------|---------|
|-----2--2--|-------2--|-2--------|---------|
|-----------|----------|----------|---------|

|------------|----------|-----------|----------|
|------------|----------|-----------|----------|
|----2-------|----------|-----------|-------2--|
|-0-----0----|-------5--|---0--5----|----------|

|-----------|----------|-----------|-----------|
|-----------|----------|-----------|-----------|
|-----2--2--|-------2--|-----------|-5---------|
|-----------|----------|-5------5--|--------3--|

Pre-Chorus

|----------|-----------|-----------|-----------|
|----------|-----------|-----------|-----------|
|----------|-----------|-----------|-----------|
|-------3--|-3------3--|-3------3--|-3------3--|

|-----------|----------|-----------|-----------|
|-----------|----------|-----------|-----------|
|-----------|----------|-2------2--|-2------2--|
|-2------2--|-2--------|-----------|-----------|

|------------|-----------|-----------|------------|
|------------|-----------|-----------|------------|
|----2-------|-----------|---2-------|---------3--|
|-0-----0----|---0--0----|------0----|---0--0-----|

|-----------|-----------|---------|-------------|
|-----------|-----------|---------|-------------|
|-----3--3--|-----3-----|---------|-------------|
|-----------|--------5--|---------|-3----5--5-5-|

Chorus

|-----------|-----------|---------|------------|
|-----------|-----------|---------|------------|
|-5------5--|--------2--|---------|-2--2-------|
|-----------|-2---------|---------|---------0--|

|----------|------------|----------|---------------|
|----------|------------|----------|---------------|
|----------|---------2--|----------|-----------2-4-|
|-------0--|-2--2-------|-------5--|-3--3-3-5------|

|-----------|------------|---------|------------|
|-----------|------------|---------|---------2--|
|-5------5--|---------2--|---------|-2--2-------|
|-----------|-2--2-------|---------|------------|

|---------|-----------|-----------|---------|
|---------|-----------|-----------|---------|
|---------|-------3-2-|-----------|---------|
|---------|-----------|-5----5----|---------|

Verse

|------------|----------|-----------|----------|
|------------|----------|-----------|----------|
|----2-------|----------|-----------|-------2--|
|-0-----0----|-------5--|---0--5----|----------|

|-----------|----------|----------|---------|
|-----------|----------|----------|---------|
|-----2--2--|-------2--|-2--------|---------|
|-----------|----------|----------|---------|

|------------|----------|-----------|----------|
|------------|----------|-----------|----------|
|----2-------|----------|-----------|-------2--|
|-0-----0----|-------5--|---0--5----|----------|

|-----------|----------|-----------|-----------|
|-----------|----------|-----------|-----------|
|-----2--2--|-------2--|-----------|-5---------|
|-----------|----------|-5------5--|--------3--|

Pre-Chorus

|----------|-----------|-----------|-----------|
|----------|-----------|-----------|-----------|
|----------|-----------|-----------|-----------|
|-------3--|-3------3--|-3------3--|-3------3--|

|-----------|----------|-----------|-----------|
|-----------|----------|-----------|-----------|
|-----------|----------|-2------2--|-2------2--|
|-2------2--|-2--------|-----------|-----------|

|------------|-----------|-----------|------------|
|------------|-----------|-----------|------------|
|----2-------|-----------|---2-------|---------3--|
|-0-----0----|---0--0----|------0----|---0--0-----|

|-----------|-----------|---------|-------------|
|-----------|-----------|---------|-------------|
|-----3--3--|-----3-----|---------|-------------|
|-----------|--------5--|---------|-3----5--5-5-|

Chorus

|-----------|------------|---------|------------|
|-----------|------------|---------|------------|
|-5------5--|---------2--|---------|-2--2-------|
|-----------|-2--2-------|---------|---------0--|

|----------|------------|----------|---------------|
|----------|------------|----------|---------------|
|----------|---------2--|----------|-----------2-4-|
|-------0--|-2--2-------|-------5--|-3--3-3-5------|

|-----------|-----------|---------|------------|
|-----------|-----------|---------|---------2--|
|-5------5--|--------2--|---------|-2--2-------|
|-----------|-2---------|---------|------------|

|---------|-----------|-------------|-------------|
|---------|-----------|-------------|-------------|
|---------|-------3-2-|-------------|-------------|
|---------|-----------|-5--5--5--5--|-5--5--5--5--|

Intrumental

|-----------|-----------|---------|------------|
|-----------|-----------|---------|------------|
|-5------5--|--------2--|---------|-2--2-------|
|-----------|-2---------|---------|---------0--|

|----------|------------|----------|---------------|
|----------|------------|----------|---------------|
|----------|---------2--|----------|-----------2-4-|
|-------0--|-2--2-------|-------5--|-3--3-3-5------|

|-----------|------------|---------|------------|
|-----------|------------|---------|------------|
|-5------5--|---------2--|---------|-2--2-------|
|-----------|-2--2-------|---------|---------0--|

|----------|------------|----------|---------------|
|----------|------------|----------|---------------|
|----------|---------2--|----------|-----------2-4-|
|-------0--|-2--2-------|-------5--|-3--3-3-5------|

Chorus/Ending

||------------|------------|---------|------------|
||o-----------|------------|---------|------------|
||o-5------5--|---------2--|---------|-2--2-------|
||------------|-2--2-------|---------|---------0--|

|----------|------------|----------|----------------||
|----------|------------|----------|---------------o||
|----------|---------2--|----------|-----------2-4-o||
|-------0--|-2--2-------|-------5--|-3--3-3-5-------|| til fade


-------------------------------------
I'm Riding Your Shadow (Down to Love)
-------------------------------------

152BPM, 4/4

Intro

|----------|---------|----------|---------|
|-1--------|---------|----------|---------|
|----------|---------|-2--------|---------|
|----------|---------|----------|---------|

||-----------|---------|----------|----------||
||o----------|---------|----------|---------o||
||o----------|---------|-3--------|---------o||
||--3--------|---------|----------|----------||

|----------|---------|----------|---------|
|----------|---------|----------|---------|
|----------|---------|----------|---------|
|-3--------|---------|-3--------|---------|

Verse

||----------|---------|---------|----------||
||o---------|---------|---------|---------o||
||o---------|---------|---------|---------o||
||----------|---------|---------|----------||

|-------------|-14-------------|
|-------15h17-|-----15--17\----|
|-------------|----------------|
|-------------|----------------|

|------------|---------|-----------|----------|
|-10---------|---------|-----------|----------|
|-------8----|---------|-----------|----------|
|------------|---------|-0----5----|-------5--|

|----------|----------|-----------|-----------|
|----------|----------|-----------|-----------|
|-5--------|----------|-3---------|-1---------|
|----------|-5--------|------1----|------3----|

|-------------|---------------|-----------|-----------|
|-------------|---------------|-----------|-----------|
|-------------|---------------|-----------|-----------|
|-0--0--0--0--|-0--0--0-0-0-0-|-0------0--|-0------0--|

|-------------|-------------|
|-------------|-------------|
|-------------|-------------|
|-0--0--0--0--|-0--0--0--0--|

Chorus

|-----------|-----------|---------|------| *last bar 2/4
|-----------|-----------|---------|------|
|-----------|--------2--|---------|---2--|
|-5------5--|-5---------|---------|------|

|----------|-----------|-----------|------| *last bar 2/4
|----------|-----------|-----------|------|
|-4--------|-----5--6--|-7------7--|---7--|
|----------|-----------|-----------|------|

|-----------|-------------|---------|------| *last bar 2/4
|--------4--|----4-----4--|---------|------|
|-----------|-7-----7-----|---------|------|
|-5---------|-------------|-7----0--|---5--|

|----------|-----|----------|-------------| *2nd bar 2/4
|----------|-----|----------|-------------|
|----------|-----|----------|-------------|
|-2--------|-----|-7--------|-----7-6-5-4-|

|----------|----------|----------|-----------------|
|----------|----------|----------|-12h14p12--------|
|----------|----------|----------|-----------12----|
|-3--------|-------3--|-3--------|-----------------|

Verse

|-----------|---------|-----------|---------|
|-----------|---------|-----------|---------|
|-3---------|---------|-----------|---------|
|------1----|---------|-0----5----|---------|

|-----------|-----------|-----------|-----------|
|-----------|-----------|-----------|-----------|
|-5--5------|-----------|-3---------|-1---------|
|-----------|-5--5------|------1----|------3----|

|----------|----------|
|----------|----------|
|----------|----------|
|-0--------|-------3--|

|-----------|---------|-----------|----------|
|-----------|---------|-----------|----------|
|-3---------|---------|-----------|----------|
|------1----|---------|-0----5----|-------5--|

|----------|----------|-----------|-----------|
|----------|----------|-----------|-----------|
|-5--------|----------|-3---------|-1---------|
|----------|-5--------|------1----|------3----|

|-------------|---------------|-----------|-----------|
|-------------|---------------|-----------|-----------|
|-------------|---------------|-----------|-----------|
|-0--0--0--0--|-0--0--0-0-0-0-|-0------0--|-0------0--|

|--------------|-------------|
|--------------|-------------|
|--------------|-------------|
|-0--0--0--0-0-|-0--0--0--0--|

Chorus

|-----------|-----------|---------|------|
|-----------|-----------|---------|------|
|-----------|--------2--|---------|---2--|
|-5------5--|-5---------|---------|------|

|----------|-----------|-----------|------|
|----------|-----------|-----------|------|
|-4--------|-----5--6--|-7------7--|---7--|
|----------|-----------|-----------|------|

|-----------|-------------|---------|------|
|--------4--|----4-----4--|---------|------|
|-----------|-7-----7-----|---------|------|
|-5---------|-------------|-7----0--|---5--|

|----------|-----|----------|-------------|
|----------|-----|----------|-------------|
|----------|-----|----------|-------------|
|-2--------|-----|-7--------|-----7-6-5-4-|

|----------|----------|----------|---------------|
|----------|----------|----------|-12h14---------|
|----------|----------|----------|---------12----|
|-3--------|-------3--|-3--------|---------------|

Instrumental

|-----------|---------|-----------|----------|
|-----------|---------|-----------|----------|
|-3---------|---------|-----------|----------|
|------1----|---------|-0----5----|-------5--|

|----------|----------|-----------|-----------|
|----------|----------|-----------|-----------|
|-5--------|----------|-3---------|-1---------|
|----------|-5--------|------1----|------3----|

|-------------|---------------|-----------|-----------|
|-------------|---------------|-----------|-----------|
|-------------|---------------|-----------|-----------|
|-0--0--0--0--|-0--0--0-0-0-0-|-0------0--|-0------0--|

|--------------|--------------|
|--------------|--------------|
|--------------|--------------|
|-0--0--0--0-0-|-0--0-0-0--0--|

Chorus/Ending

|-----------|-----------|---------|------|
|-----------|-----------|---------|------|
|-----------|--------2--|---------|---2--|
|-5------5--|-5---------|---------|------|

|----------|-----------|-----------|------|
|----------|-----------|-----------|------|
|-4--------|-----5--6--|-7------7--|---7--|
|----------|-----------|-----------|------|

|-----------|-----------|----------|-------------|
|-----------|-----------|----------|-------------|
|-----------|-----------|-2--------|-------------|
|-5------5--|-2------2--|----------|-0--0--0--0--|

||------------|-----------|---------|------|
||o-----------|-----------|---------|------|
||o-----------|--------2--|---------|---2--|
||--5------5--|-5---------|---------|------|

|-----------|-----------|----------|--------------||
|-----------|-----------|----------|-------------o||
|-4------4--|-----------|-2--------|-------------o||
|-----------|-2------2--|----------|-0--0--0--0---|| til fade


--------------------------
You're the Love of My Life
--------------------------

116BPM, 4/4

Intro

|-----------------|--------------|----------------|---------------|
|-----------------|--------------|----------------|---------------|
|-----------------|------2-------|----------------|-------2-------|
|-3-3-3-3-3-3-3-2-|--3-5----5--3-|--3-3-3-3-3-3-3-|-2-3-5----5--3-|

|-----------------|---------------|-----------------|--------------|
|-----------------|---------------|-----------------|--------------|
|-----------------|------2--2-2-2-|-------2---------|--------------|
|-3-3-3-3-3-3-3-2-|--3-5----------|-0-0-0---2-2-2-3-|--3-3-2--3--5-|

|-------2-------|---------------|----------------|--------------|
|--------2------|---------------|----------------|--------------|
|---------4-4---|--2-2--2-2-2-2-|----------------|--------------|
|--5-5-------50-|---------------|-0--0-0-2-2-2-3-|--3-3-2--3--5-|

|--------2-------|------------|
|---------2------|------------|
|----------4-4---|--2-2-----2-|
|-5-5-5-------50-|-----------5|

Verse

|--------------|-------------|--------------|---------------|
|--------------|-------------|--------------|---------------|
|----------0-2-|----2-2--2---|--------------|---------------|
|-3---3-3------|-----------0-|----0-0-2-3-5-|--5--5-5-5-5-5-|

|-------------|-------------|--------------|--------------|
|-------------|-------------|--------------|--------------|
|-------------|------2------|--------------|--------7-4---|
|-3---3-3---2-|--3-5------0-|----0-0-2-3-5-|----5-5-----5-|

|--------------|-------------|--------------|-------------|
|--------------|-------------|--------------|-------------|
|--------------|-------------|------------2-|----2-2--2---|
|-3---3-3--3-2-|----2-2--2-2-|----2-2-3-5---|-----------5-|

|--------------|-------------|--------------|-------------|
|--------------|-------------|--------------|-------------|
|--------------|-------------|------------2-|----2-2--2---|
|-3---3-3--3-3-|----3-3--3-2-|----2-2-3-5---|-----------0-|

|--------------|--------------|
|--------------|--------------|
|--------------|-----------5--|
|----0-0-2-3-5-|--5-5--5-5----|

Chorus

|----------------|--------------|-----------------|---------------|
|----------------|--------------|-----------------|---------------|
|----------------|------2-------|-----------------|-------2-------|
|-3-3-3--3-3-3-2-|--3-5----5--3-|-3-3-3-3-3-3-3-3-|-2-3-5----5--3-|

|----------------|-------------|-----------------|---------------|
|----------------|-------------|-----------------|---------------|
|----------------|------2----2-|-----------------|---------------|
|--3-3-3-3-3-3-2-|--3-5--------|-0-0-0-0-2-2-2-3-|--3-3-2--3-3-5-|

|-------2-------|------------|---------------|--------------|
|--------2------|------------|---------------|--------------|
|---------4-4---|--2-2--2----|---------------|--------------|
|--5-5-------50-|------------|-0--0-0-2--2-3-|--3-3-2--3--5-|

|-------2-------|--------------|
|--------2------|--------------|
|---------4-4---|--2-2--2--2---|
|--5-5-------50-|------------5-|

Verse

|--------------|-------------|--------------|---------------|
|--------------|-------------|--------------|---------------|
|----------0-2-|----2-2--2---|--------------|---------------|
|-3---3-3------|-----------0-|----0-0-2-3-5-|--5-5--5-5-5-5-|

|---------------|-------------|--------------|--------------|
|---------------|-------------|--------------|--------------|
|---------------|------2------|--------------|--------7-4---|
|-3---3-3-3-3-2-|--3-5------0-|----0-0-2-3-5-|----5-5-----5-|

|--------------|-------------|--------------|-------------|
|--------------|-------------|--------------|-------------|
|--------------|-------------|------------2-|----2-2--2---|
|-3---3-3--3-2-|----2-2--2-2-|----2-2-3-5---|-----------5-|

|--------------|-------------|--------------|-------------|
|--------------|-------------|--------------|-------------|
|--------------|-------------|------------2-|----2-2--2---|
|-3---3-3--3-3-|----3-3--3-2-|----2-2-3-5---|-----------0-|

|--------------|---------------|
|--------------|---------------|
|--------------|-----------5---|
|----0-0-2-3-5-|--5-5--5-5---5-|

Chorus

|-----------------|--------------|---------------|---------------|
|-----------------|--------------|---------------|---------------|
|-----------------|------2-------|---------------|-------2-------|
|-3-3-3-3-3-3-3-2-|--3-5----5--3-|--3-3-3-3-3--3-|-2-3-5----5--3-|

|-----------------|-------------|-----------------|--------------|
|-----------------|-------------|-----------------|--------------|
|-----------------|------2----2-|-----------------|--------------|
|-3-3-3-3-3-3-3-2-|--3-5--------|-0-0-0-0-2-2-2-3-|--3-3-2--3--5-|

|-------2-------|-------------|-----------------|--------------|
|--------2------|-------------|-----------------|--------------|
|---------4-4---|--2-2--2--2--|-----------------|--------------|
|--5-5-------50-|-------------|-0-0-0-0-2-2-2-3-|--3-3-2--3--5-|

|--------2-------|--------------|
|---------2------|--------------|
|----------4-4---|--2-2--2--2---|
|-5-5-5-------50-|------------5-|

Chorus/Ending

|-----------------|--------------|---------------|---------------|
|-----------------|--------------|---------------|---------------|
|-----------------|------2-------|---------------|-------2-------|
|-3-3-3-3-3-3-3-2-|--3-5----5--3-|--3-3-3-3-3--3-|-2-3-5----5--3-|

|-----------------|-------------|-----------------|--------------|
|-----------------|-------------|-----------------|--------------|
|-----------------|------2----2-|-----------------|--------------|
|-3-3-3-3-3-3-3-2-|--3-5--------|-0-0-0-0-2-2-2-3-|--3-3-2--3--5-|

|--------2-------|--------------|
|---------2------|--------------|
|----------4-4---|--2-2--2--2---|
|-5-5-5-------50-|------------5-|

|-----------------|--------------|----------------|---------------|
|-----------------|--------------|----------------|---------------|
|-----------------|------2-------|----------------|-------2-------|
|-3-3-3-3-3-3-3-2-|--3-5----5--3-|-3-3-3-3-3-3--3-|-2-3-5----5--3-|

|-----------------|-------------|-----------------|--------------|
|-----------------|-------------|-----------------|--------------|
|-----------------|------2----2-|-----------------|--------------|
|-3-3-3-3-3-3-3-2-|--3-5--------|-0-0-0-0-2-2-2-3-|--3-3-2--3--5-|

|----2-----------|--------------|
|-----2--2-------|--------------|
|------4--4--4---|--2-2--2--2---|
|--5-------5--50-|------------5-|

|----------------|--------------|----------------|---------------|
|----------------|--------------|----------------|---------------|
|----------------|------2-------|----------------|-------2-------|
|-3--3-3-3-3-3-2-|--3-5----5--3-|-3-3-3-3-3-3--3-|-2-3-5----5--3-|

|----------------|-------------|-----------------|--------------|
|----------------|-------------|-----------------|--------------|
|----------------|------2----2-|-----------------|--------------|
|--3-3-3-3-3-3-2-|--3-5--------|-0-0-0-0-2-2-2-3-|--3-3-2--3--5-|

|-----2-----------|--------------|
|------2--2-------|--------------|
|-------4--4--4---|--2-2--2--2---|
|-5-5-------5--50-|------------5-|

|-----------------|--------------|---------------|---------------|
|-----------------|--------------|---------------|---------------|
|-----------------|------2-------|---------------|-------2-------|
|-3-3-3-3-3-3-3-2-|--3-5----5--3-|--3-3-3-3-3--3-|-2-3-5----5--3-|

|----------------|-------------|-----------------|--------------|
|----------------|-------------|-----------------|--------------|
|----------------|------2----2-|-----------------|--------------|
|--3-3-3-3-3-3-2-|--3-5--------|-0-0-0-0-2-2-2-3-|--3-3-2--3--5-|

|----2-----------|--------------|
|-----2--2-------|--------------|
|------4--4--4---|--2-2--2--2---|
|--5-------5--50-|------------5-|

|-----------------|--------------|---------------|---------------*|
|-----------------|--------------|---------------|---------------*|
|-----------------|------2-------|---------------|-------2-------*|
|-3-3-3-3-3-3-3-2-|--3-5----5--3-|--3-3-3-3-3--3-|-2-3-5----5--3-*| fade


-----------------------------------
I Must Be Living for a Broken Heart
-----------------------------------

180BPM, 4/4

Intro

||-----------|------------|---------|-----------|
||o----------|------------|---------|-----------|
||o----------|---------3--|---------|-----------|
||--1--------|-3--3-------|---------|---5--3----|

|----------|------------|---------|------------||
|----------|------------|---------|-----------o||
|----------|---------3--|---------|-----------o||
|-1--------|-3--3-------|---------|-----0--3---||

|----------|------------|---------|-----------|
|----------|------------|---------|-----------|
|----------|---------3--|---------|-----------|
|-1--------|-3--3-------|---------|---5--3----|

|----------|------------|
|----------|------------|
|----------|---------3--|
|-1--------|-3--3-------|

Verse

|---------|-----------|---------|-----------|
|---------|-----------|---------|-----------|
|---------|---7----5--|---------|-5--5------|
|---------|-----------|---------|-----------|

|-----------|----------|---------|-----------|
|-----------|----------|---------|-----------|
|-5---------|----------|---------|-----------|
|--------3--|-------5--|---------|-----5-5---|

|----------|-----------|---------|-----------|
|----------|-----------|---------|-----------|
|-3--------|---7----5--|---------|-5--5------|
|----------|-----------|---------|-----------|

|-----------|----------|---------|-----------|
|-----------|----------|---------|-----------|
|-5---------|----------|---------|-----------|
|--------3--|-------5--|---------|-----5--3--|

Pre-Chorus

|-----------|------------|-----------|-----------|
|-----------|------------|-----------|-----------|
|-----------|---------3--|-----------|-----------|
|-1------3--|-----3-5----|-1------3--|---0----1--|

|------------|-----------|----------|-------------|
|------------|-----------|----------|-------------|
|------------|-----------|----------|----2--3-----|
|---1--1--1--|-1------5--|-5--------|-5--------3--|

|-----------|------------|-----------|-----------|
|-----------|------------|-----------|-----------|
|-----------|---------3--|-----------|-----------|
|-1------3--|-----3-5----|-1------3--|---0----1--|

|------------|------------|---------|--------------|
|------------|------------|---------|--------------|
|------------|------------|---------|----------3---|
|---1--1--1--|-1--5----3--|---------|-3----3-5---5-|

Chorus

|-----------|------------|-----------|-----------|
|-----------|------------|-----------|-----------|
|-3------3--|------------|-----------|-----------|
|-----------|-0--0----5--|---3----1--|---0----1--|

|-------------|-------------|-------------|-------------|
|-------------|-3--3--3--3--|------2------|-------------|
|---------3-5-|-------------|-5------3----|-3--------3--|
|---1--1------|-------------|----------3--|----3--5-----|

|-----------|------------|-----------|-----------|
|-----------|------------|-----------|-----------|
|-------3---|------------|-----------|-----------|
|---------3-|-0--0----5--|---3----1--|---0----1--|

|-------------|-------------|-------------|------------|
|-------------|-3--3--3--3--|------2------|------------|
|---------3-5-|-------------|-5------3----|-3-------5--|
|---1--1------|-------------|----------3--|----3-------|

|-----------|-----------|----------|------------|
|------2----|-----------|----------|------------|
|---5-------|-----------|----------|---------3--|
|-----------|-1--1------|-1--------|-3--3-------|

|---------|-----------|----------|------------|
|---------|-----------|----------|------------|
|---------|-----------|----------|---------3--|
|---------|-----0--3--|-1--------|-3--3-------|

Verse

|---------|-----------|---------|-----------|
|---------|-----------|---------|-----------|
|---------|---7----5--|---------|-5--5------|
|---------|-----------|---------|-----------|

|-----------|----------|---------|-----------|
|-----------|----------|---------|-----------|
|-5---------|----------|---------|-----------|
|--------3--|-------5--|---------|-----5-5---|

|----------|-----------|---------|-----------|
|----------|-----------|---------|-----------|
|-3--------|---7----5--|---------|-5--5------|
|----------|-----------|---------|-----------|

|-----------|----------|---------|-----------|
|-----------|----------|---------|-----------|
|-5---------|----------|---------|-----------|
|--------3--|-------5--|---------|-----5--3--|

Pre-Chorus

|-----------|------------|-----------|-----------|
|-----------|------------|-----------|-----------|
|-----------|---------3--|-----------|-----------|
|-1------3--|-----3-5----|-1------3--|---0----1--|

|------------|-----------|---------|-------------|
|------------|-----------|---------|-------------|
|------------|-----------|---------|----2--3-----|
|---1--1--1--|-1------5--|--------x|-5--------3--|

|-----------|------------|-----------|-----------|
|-----------|------------|-----------|-----------|
|-----------|---------3--|-----------|-----------|
|-1------3--|-----3-5----|-1------3--|---0----1--|

|------------|------------|---------|--------------|
|------------|------------|---------|--------------|
|------------|------------|---------|----------3---|
|---1--1--1--|-1--5----3--|---------|-3----3-5---5-|

Chorus

|------------|------------|-----------|-----------|
|------------|------------|-----------|-----------|
|-3------3---|------------|-----------|-----------|
|----------3-|-0--0----5--|---3----1--|---0----1--|

|-------------|-------------|-------------|-------------|
|-------------|-3------3----|------2------|-------------|
|---------3-5-|----3-5------|-5------3----|-3--------3--|
|---1--1------|-------------|----------3--|----3--5-----|

|-----------|------------|-----------|-----------|
|-----------|------------|-----------|-----------|
|-3------3--|------------|-----------|-----------|
|-----------|-0--0----5--|---3----1--|---0----1--|

|-------------|-------------|-------------|------------|
|-------------|-3------3----|------2------|------------|
|---------3-5-|----3-5------|-5------3----|-3-------5--|
|---1--1------|-------------|----------3--|----3-------|

|-----------|-----------|
|------2----|-----------|
|---5-------|-----------|
|-----------|-1--1------|

|----------|------------|---------|-----------|
|----------|------------|---------|-----------|
|----------|---------3--|---------|-----------|
|-1--------|-3--3-------|---------|---5--3----|

|----------|------------|---------|-------------|
|----------|------------|---------|-------------|
|----------|---------3--|---------|-------------|
|-1--------|-3--3-------|---------|---5--3--3-3-|

Chorus/Ending

|------------|------------|-----------|-----------|
|------------|------------|-----------|-----------|
|-3------3---|------------|-----------|-----------|
|----------3-|-0--0----5--|---3----1--|---0----1--|

|-------------|-------------|-------------|-------------|
|-------------|-3------3----|------2------|-------------|
|---------3-5-|----3-5------|-5------3----|----------3--|
|---1--1------|-------------|----------3--|-1--3--5-----|

|-----------|------------|-----------|-----------|
|-----------|------------|-----------|-----------|
|-------3---|------------|-----------|-----------|
|---------3-|-0--0----5--|---3----1--|---0----1--|

|-------------|---------------|-------------|-------------|
|-------------|-3------3------|------2------|-------------|
|---------3-5-|----3-5---3----|-5------3----|----------3--|
|---1--1------|------------1--|----------3--|-1--3--5-----|

|-----------|------------|-----------|-----------|
|-----------|------------|-----------|-----------|
|-------3---|------------|-----------|-----------|
|---------3-|-0--0----5--|---3----1--|---0----1--|

|-------------|---------------|-------------|-------------|
|-------------|-3------3------|------2------|-------------|
|---------3-5-|----3-5----3-5-|-5------3----|----------3--|
|---1--1------|---------------|----------3--|-1--3--5-----|

|-----------|------------|-----------|-----------|
|-----------|------------|-----------|-----------|
|-3------3--|------------|-----------|-----------|
|-----------|-0--0----5--|---3----1--|---0----1--|

|-------------|--------------|-------------|-------------|
|-------------|-3------3-----|------2------|-------------|
|---------3-5-|----3-5----5--|-5------3----|----------3--|
|---1--1------|--------------|----------3--|-1--3--5-----|

|-----------|------------|-----------|-----------|
|-----------|------------|-----------|-----------|
|-------3---|------------|-----------|-----------|
|---------3-|-0--0----5--|---3----1--|---0----1--|

|-------------|---------------|-------------|-------------|
|-------------|-3------3------|------2------|-------------|
|---------3-5-|----3-5----3-5-|-5------3----|----------3--|
|---1--1------|---------------|----------3--|-1--3--5-----|

|-----------|------------|-----------|-----------|
|-----------|------------|-----------|-----------|
|-------3---|------------|-----------|-----------|
|---------3-|-0--0----5--|---3----1--|---0----1--|

|-------------|-------------|--------------|-------------|
|-------------|-3--3--------|-------2------|-------------|
|---------3-5-|---------3-5-|-5--5----3----|----------3--|
|---1--1------|-------------|-----------3--|-1--3--5-----|

|-----------|------------|-----------|-----------|
|-----------|------------|-----------|-----------|
|-------3---|------------|-----------|-----------|
|---------3-|-0--0----5--|---3----1--|---0----1--|

|------------|--------------|--------------|-------------|
|------------|-3------3-----|-------2------|-------------|
|----------5-|----3-5-------|-5--5----3----|----------3--|
|---1--1-----|-----------1--|-----------3--|-1--3--5-----|

|-----------|------------|-----------|-----------|
|-----------|------------|-----------|-----------|
|-------3---|------------|-----------|-----------|
|---------3-|-0--0----5--|---3----1--|---0----1--|

|-------------|--------------|--------------|-------------|
|-------------|-3------3-----|-------2---2--|-------------|
|---------3-5-|----3-5-------|-5--5----3----|----------3--|
|---1--1------|-----------1--|--------------|-1--3--5-----|

|------------|------------|-----------|-----------|
|------------|------------|-----------|-----------|
|-3------3---|------------|-----------|-----------|
|----------3-|-0--0----5--|---3----1--|---0----1--|

|-------------|--------------|-------------|-------------|
|-------------|-3------3-----|------2---2--|-------------|
|---------3-5-|----3-5-------|-5------3----|----------3--|
|---1--1------|-----------1--|-------------|-1--3--5-----|

|-----------|------------|-----------|-----------|
|-----------|------------|-----------|-----------|
|-------3---|------------|-----------|-----------|
|---------3-|-0--0----5--|---3----1--|---0----1--|

|-------------|---------------|--------------|-------------|
|-------------|-3-----3-3-----|-------2------|-------------|
|---------3-5-|---3-5------5--|-5--5----3----|----------3--|
|---1--1------|---------------|-----------3--|-1--3--5-----|

|----------|------------|-----------|-----------*|
|----------|------------|-----------|-----------*|
|-------3--|------------|-----------|-----------*|
|----------|-0--0----5--|---3----1--|---0----1--*| fade


---------------------------
Honey, I'm in Love With You
---------------------------

216BPM, 4/4

Intro

|---------|---------|
|---------|---------|
|---------|---------|
|---------|---------|

|---------|---------|---------|---------|
|---------|---------|---------|---------|
|---------|---------|---------|---------|
|---------|---------|---------|---------|

|---------|---------|---------|------------|
|---------|---------|---------|------------|
|---------|---------|---------|------------|
|---------|---------|---------|-------7-10-|
                                                                  3x
||-------------|--------9-9-|-12-12-11-9-11-9---|-9---------------||
||o------------|------------|-------------------|---12---9-------o||
||o-7----------|------------|-------------------|----------------o||
||-----0----0--|-0----------|-------------------|-----------7-10--||

|------------|--------9-9-|-12-12-11-9-11-9---|-9--------------|
|------------|------------|-------------------|---12-----------|
|-7----------|------------|-------------------|----------------|
|----0----0--|-0----------|-------------------|--------3-0-3-4-|

|-------------|--------9-9-|---------|------------|
|-------------|------------|---------|------------|
|-------------|------------|---------|------------|
|-5--5--5-5---|-5----------|---------|-------7-10-|

|------------|--------9-9-|-12-12-11-9-11-9---|-9-------------|
|------------|------------|-------------------|---12----------|
|-7----------|------------|-------------------|---------------|
|----0----0--|-0----------|-------------------|---------3-5-6-|

|----------------|--------------|---------------|---------------|
|----------------|--------------|---------------|---------------|
|--------------4-|-5--5---5-4---|---------------|-------5-------|
|-7--7-7-7-7-7---|------------7-|-5--5--5-5-5-7-|-8--8-----7-10-|

|------------|----------|---------|------------|
|------------|----------|---------|------------|
|-7----------|----------|---------|------------|
|----0----0--|-0--------|---------|------3-5-6-|

|--------------|--------------|---------------|---------------|
|--------------|--------------|---------------|---------------|
|------------4-|-5--5---5-4---|---------------|-------5-------|
|-7--7---7-7---|------------7-|-5--5--5-5-5-7-|-8--8-----7-10-|

|------------|--------9-9-|-12-12-11-9-11-9-7--|------------|
|------------|------------|--------------------|-9----------|
|-7----------|------------|--------------------|------------|
|----0----0--|-0----------|--------------------|------7--7--|

Verse

|------------|--------9-9-|---------|------------|
|------------|------------|---------|------------|
|-7----------|------------|---------|------------|
|----0----0--|-0----------|---------|-------7-10-|

|------------|--------9-9-|---------|-----------|
|------------|------------|---------|-----------|
|-7----------|------------|---------|-----------|
|----0----0--|-0----------|---------|-----3--3--|

|------------|--------9-9-|---------|------------|
|------------|------------|---------|------------|
|------------|------------|---------|------------|
|-5--5----5--|-5----------|---------|-------7-10-|

|------------|--------9-9-|---------|------------|
|------------|------------|---------|------------|
|-7----------|------------|---------|------------|
|----0----0--|-0----------|---------|------3-5-6-|

|--------------|-------------|--------------|---------------|
|--------------|-------------|--------------|---------------|
|------------4-|-5--5--5-----|--------------|-------5-------|
|-7--7---7-7---|----------7--|-5--5---5-5-7-|-8--8-----7-10-|

|------------|--------9-9-|---------|------------|
|------------|------------|---------|------------|
|-7----------|------------|---------|------------|
|----0----0--|-0----------|---------|------3-5-6-|

|--------------|-------------|--------------|---------------|
|--------------|-------------|--------------|---------------|
|------------4-|-5--5--5-----|--------------|-------5-------|
|-7--7---7-7---|----------7--|-5--5---5-5-7-|-8--8-----7-10-|

|------------|--------9-9-|---------|----------|
|------------|------------|---------|----------|
|-7----------|------------|---------|----------|
|----0----0--|-0----------|---------|-------7--|

Verse

|------------|--------9-9-|-12-12-11-9-11-9---|-9------------|
|------------|------------|-------------------|---12---9-----|
|-7----------|------------|-------------------|--------------|
|----0----0--|-0----------|-------------------|-----------7--|

|------------|--------9-9-|-12-12-11-9-11-9---|-9-------------|
|------------|------------|-------------------|---12----------|
|-7----------|------------|-------------------|---------------|
|----0----0--|-0----------|-------------------|----------7-10-|

|------------|--------9-9-|---------|------------|
|------------|------------|---------|------------|
|-7----------|------------|---------|------------|
|----0----0--|-0----------|---------|-------7-10-|

|------------|--------9-9-|---------|-----------|
|------------|------------|---------|-----------|
|-7----------|------------|---------|-----------|
|----0----0--|-0----------|---------|-----3--3--|

|------------|--------9-9-|---------|------------|
|------------|------------|---------|------------|
|------------|------------|---------|------------|
|-5--5----5--|-5----------|---------|-------7-10-|

|------------|--------9-9-|---------|------------|
|------------|------------|---------|------------|
|-7----------|------------|---------|------------|
|----0----0--|-0----------|---------|------3-5-6-|

|--------------|-------------|----------------|---------------|
|--------------|-------------|----------------|---------------|
|------------4-|-5--5----5---|----------------|-------5-------|
|-7--7---7-7---|-----------7-|-5--5-5-5-5-5-7-|-8--8-----7-10-|

|------------|----------|---------|-------------|
|------------|----------|---------|-------------|
|-7----------|----------|---------|-------------|
|----0----0--|-0--------|---------|-----3-3-5-6-|

|---------------|---------------|--------------|---------------|
|---------------|---------------|--------------|---------------|
|-------------4-|-5--5--5-5-4---|--------------|-------5-------|
|-7--7--7-7-7---|-------------7-|-5--5---5-5-7-|-8--8-----7-10-|

|------------|----------|---------|-------------|
|------------|----------|---------|-------------|
|-7----------|----------|---------|-------------|
|----0----0--|-0--------|---------|-----7--7-10-|

Verse

|------------|----------|-12-12-11-9-11-9---|-9-------------|
|------------|----------|-------------------|---12----------|
|-7----------|----------|-------------------|---------------|
|----0----0--|-0--------|-------------------|----------7-10-|

|------------|----------|-12-12-11-9-11-9---|-9------------|
|------------|----------|-------------------|---12---------|
|-7----------|----------|-------------------|--------------|
|----0----0--|-0--------|-------------------|--------3--3--|

|------------|----------|---------|------------|
|------------|----------|---------|------------|
|------------|----------|---------|------------|
|-5--5----5--|-5--------|---------|-------7-10-|

|------------|----------|-12-12-11-9-11-9---|-9--------------|
|------------|----------|-------------------|---12-----------|
|-7----------|----------|-------------------|----------------|
|----0----0--|-0--------|-------------------|--------5-3-5-6-|

|---------------|--------------|--------------|---------------|
|---------------|--------------|--------------|---------------|
|-------------4-|-5--5---5-4---|--------------|-------5-------|
|-7--7--7-7-7---|------------7-|-5--5---5-5-7-|-8--8-----7-10-|

|------------|----------|---------|------------|
|------------|----------|---------|------------|
|-7----------|----------|---------|------------|
|----0----0--|-0--------|---------|------3-5-6-|

|--------------|--------------|---------------|---------------|
|--------------|--------------|---------------|---------------|
|------------4-|-5--5---5-4---|---------------|-------5-------|
|-7--7---7-7---|------------7-|-5--5-5-5--5-7-|-8--8-----7-10-|

|------------|--------9-9-|---------|------------|
|------------|------------|---------|------------|
|-7----------|------------|---------|------------|
|----0----0--|-0----------|---------|-------7-10-|

Verse

|------------|----------|-12-12-11-9-11-9---|-9-------------|
|------------|----------|-------------------|---12----------|
|-7----------|----------|-------------------|---------------|
|----0----0--|-0--------|-------------------|----------7-10-|

|------------|--------9-9-|-12-12-11-9-11-9---|-9-------------|
|------------|------------|-------------------|---12----------|
|-7----------|------------|-------------------|---------------|
|----0----0--|-0----------|-------------------|----------7-10-|

|------------|----------|-12-12-11-9-11-9---|-9--------------|
|------------|----------|-------------------|---12-----------|
|-7----------|----------|-------------------|----------------|
|----0----0--|-0--------|-------------------|--------7--7-10-|

|------------|--------9-9-|-12-12-11-9-11-9---|-9-----------|
|------------|------------|-------------------|---12--------|
|-7----------|------------|-------------------|-------------|
|----0----0--|-0----------|-------------------|----------7--|

|------------|--------9-9-|-12-12-11-9-11-9---|-9--------------|
|------------|------------|-------------------|---12-----------|
|-7----------|------------|-------------------|----------------|
|----0----0--|-0----------|-------------------|--------7--7-10-|

|------------|----------|-12-12-11-9-11-9---|-9-------------|
|------------|----------|-------------------|---12----------|
|-7----------|----------|-------------------|---------------|
|----0----0--|-0--------|-------------------|----------7-10-|

|------------|----------|-12-12-11-9-11-9---|-9-----------|
|------------|----------|-------------------|---12--------|
|-7----------|----------|-------------------|-------------|
|----0----0--|-0--------|-------------------|----------7--|

|------------|--------9-9-|-12-12-11-9-11-9---|-9-----------|
|------------|------------|-------------------|---12--------|
|-7----------|------------|-------------------|-------------|
|----0----0--|-0----------|-------------------|----------7--|

|------------|----------|-12-12-11-9-11-9---|-9-----------|
|------------|----------|-------------------|---12--------|
|-7----------|----------|-------------------|-------------|
|----0----0--|-0--------|-------------------|----------7--|

|------------|-----------|-12-12-11-9-11-9---|-9-------------|
|------------|-----------|-------------------|---12----------|
|-7----------|-----------|-------------------|---------------|
|----0----0--|-0---------|-------------------|----------7-10-|

|------------|--------9-9-|-12-12-11-9-11-9---|-9-------------|
|------------|------------|-------------------|---12----------|
|-7----------|------------|-------------------|---------------|
|----0----0--|-0----------|-------------------|----------7-10-|

|------------|--------9-9-|-12-12-11-9-11-9---|-9--------------|
|------------|------------|-------------------|---12---9-------|
|-7----------|------------|-------------------|----------------|
|----0----0--|-0----------|-------------------|-----------7-10-|

|------------|--------9-9-|-12-12-11-9-11-9---|-9------------|
|------------|------------|-------------------|---12---------|
|-7----------|------------|-------------------|--------------|
|----0----0--|-0----------|-------------------|--------5--5--|

Break

|---------|---------|---------|---------|
|---------|---------|---------|---------|
|---------|---------|---------|---------|
|---------|---------|---------|---------|

|---------|---------|---------|------------|
|---------|---------|---------|------------|
|---------|---------|---------|------------|
|---------|---------|---------|-------7-10-|

|------------|--------9-9-|-12-12-11-9-11-9---|-9-------------|
|------------|------------|-------------------|---12----------|
|-7----------|------------|-------------------|---------------|
|----0----0--|-0----------|-------------------|----------7-10-|

||-------------|----------|-12-12-11-9-11-9---|-9------------||
||o------------|----------|-------------------|---12--------o||
||o-7----------|----------|-------------------|-------------o||
||-----0----0--|-0--------|-------------------|----------7---||
                                                               3x
||-------------|----------|-12-12-11-9-11-9---|-9--------------||
||o------------|----------|-------------------|---12----------o||
||o-7----------|----------|-------------------|---------------o||
||-----0----0--|-0--------|-------------------|----------7-10--||

|------------|----------|-12-12-11-9-11-9---|-9-----------|
|------------|----------|-------------------|---12--------|
|-7----------|----------|-------------------|-------------|
|----0----0--|-0--------|-------------------|----------7--|

|------------|----------|-12-12-11-9-11-9---|-9----------|
|------------|----------|-------------------|---12-------|
|-7----------|----------|-------------------|------------|
|----0----0--|-0--------|-------------------|------------|

Break

|---------|---------|---------|---------|
|---------|---------|---------|---------|
|---------|---------|---------|---------|
|---------|---------|---------|---------|

|---------|---------|---------|------------|
|---------|---------|---------|------------|
|---------|---------|---------|------------|
|---------|---------|---------|-------7-10-|

|------------|--------9-9-|-12-12-11-9-11-9---|-9-------------|
|------------|------------|-------------------|---12----------|
|-7----------|------------|-------------------|---------------|
|----0----0--|-0----------|-------------------|----------7-10-|

|------------|--------9-9-|-12-12-11-9-11-9---|-9--------------|
|------------|------------|-------------------|---12-----------|
|-7----------|------------|-------------------|----------------|
|----0----0--|-0----------|-------------------|--------7--7-10-|
                                                                3x
||-------------|----------|-12-12-11-9-11-9---|-9---------------||
||o------------|----------|-------------------|---12-----------o||
||o-7----------|----------|-------------------|----------------o||
||-----0----0--|-0--------|-------------------|--------7--7-10--||

|------------|----------|-12-12-11-9-11-9---|-9-----------|
|------------|----------|-------------------|---12--------|
|-7----------|----------|-------------------|-------------|
|----0----0--|-0--------|-------------------|----------7--|

|------------|--------9-9-|-12-12-11-9-11-9---|-9-------------|
|------------|------------|-------------------|---12----------|
|-7----------|------------|-------------------|---------------|
|----0----0--|-0----------|-------------------|--------7---10-|

|------------|--------9-9-|-12-12-11-9-11-9---|-9-------------|
|------------|------------|-------------------|---12----------|
|-7----------|------------|-------------------|---------------|
|----0----0--|-0----------|-------------------|----------7-10-|

|------------|--------9-9-|-12-12-11-9-11-9---|-9-----------|
|------------|------------|-------------------|---12--------|
|-7----------|------------|-------------------|-------------|
|----0----0--|-0----------|-------------------|----------7--|

|------------|--------9-9-|-12-12-11-9-11-9---|-9------------|
|------------|------------|-------------------|---12---------|
|-7----------|------------|-------------------|--------------|
|----0----0--|-0----------|-------------------|--------7--7--|

|------------|--------9-9-|-12-12-11-9-11-9---|-9--------------|
|------------|------------|-------------------|---12-----------|
|-7----------|------------|-------------------|----------------|
|----0----0--|-0----------|-------------------|--------7--7-10-|

|------------|----------|-12-12-11-9-11-9---|-9-----------*|
|------------|----------|-------------------|---12--------*|
|-7----------|----------|-------------------|-------------*|
|----0----0--|-0--------|-------------------|--------7----*| fade


-------------------
Just to Be With You
-------------------

164BPM, 4/4

Intro
                                           3x
||----------|---------|---------|----------||
||o---------|---------|---------|---------o||
||o---------|---------|---------|---------o||
||----------|---------|---------|----------||

|---------|---------|---------|-------------|
|---------|---------|---------|-------------|
|---------|---------|---------|-------5--5--|
|---------|---------|---------|-5--7--------|

||-----------|-----------|----------|------------| *second time only 
||o----------|-----------|----------|------------|
||o-------5--|-5------4--|-------4--|-4------4*--|
||-----------|-----------|----------|------------|

|-----------|-----------|----------|----------|
|-----------|-----------|----------|----------|
|-3------3--|-3------2--|----------|----------|
|-----------|-----------|-------5--|-3--------|

|-----------|-----------|----------|-------------|
|-----------|-----------|----------|-------------|
|-----------|--------2--|-------2--|-2--4--5--2--|
|-2------2--|-2---------|----------|-------------|

|------------|-------------|---------|--------------||
|------------|-------------|---------|-------------o||
|------------|-------------|---------|-------5--5--o||
|-0--0----0--|-0--0--0--5--|---------|-5--7---------||

|----------|-----------|----------|---------|
|----------|-----------|----------|---------|
|-------5--|-5------4--|-------4--|---------|
|----------|-----------|----------|---------|

|-----------|-----------|----------|----------|
|-----------|-----------|----------|----------|
|-3------3--|-3------2--|----------|----------|
|-----------|-----------|-------5--|-3--------|

|-----------|-------------|----------|----------|
|-----------|-------------|----------|----------|
|-----------|----------2--|-------2--|-2--------|
|-2------2--|-2--3--5-----|----------|----------|

|-----------|-------------|---------|-----------|
|-----------|-------------|---------|-----------|
|-----------|-------------|---------|-----------|
|-0------0--|-0--2--3--5--|---------|-----5--3--|

Verse

|----------|-----------|----------|----------|
|----------|-----------|----------|----------|
|----------|-----------|----------|-5--------|
|-2--------|-----2--3--|-5--------|----------|

|----------|-----------|---------|-----------|
|----------|--------2--|---------|-----------|
|----------|-2---------|---------|--------2--|
|-3--------|-----------|---------|-----0-----|

|----------|-----------|----------|----------|
|----------|-----------|----------|----------|
|----------|-----------|----------|-5--------|
|-2--------|-----2--3--|-5--------|----------|

|----------|-----------|---------|-----------|
|----------|--------2--|---------|-----------|
|----------|-2---------|---------|--------2--|
|-3--------|-----------|---------|-----3-----|

|-----------|-----------|----------|----------|
|-----------|-----------|-------2--|-------2--|
|-3------3--|-3------2--|----------|----------|
|-----------|-----------|----------|----------|

|-----------|-----------|----------|-----------|
|-----------|--------2--|----------|-----------|
|-----------|-5---------|-------2--|---3----5--|
|-5------5--|-----------|----------|-----------|

|-----------|-----------|----------|----------|
|-----------|-----------|-------2--|-------2--|
|-3------3--|-3------2--|----------|----------|
|-----------|-----------|----------|----------|

|-----------|-----------|---------|------------|
|-----------|-----------|---------|------------|
|-----------|--------5--|---------|---5--5--2--|
|-5------5--|-5---------|---------|------------|

|-------------|-------------|
|-------------|-------------|
|-2--2--2--2--|-2--2--2--2--|
|-------------|-------------|

Chorus

|------------|-------------|------------|------------|
|-2--2--2----|-2--2--2--1--|-1--1----1--|-1----------|
|------------|-------------|------------|------2--4--|
|------------|-------------|------------|------------|

|-----------|-------------|-----------|----------|
|-----------|-------------|-----------|----------|
|-5------5--|-5--4--2--4--|---2-------|----------|
|-----------|-------------|--------5--|-------5--|

|-----------|-------------|----------|-----------|
|-----------|-------------|----------|-----------|
|-----------|-------2--4--|-------4--|-4------4--|
|-4------4--|-4--5--------|----------|-----------|

|-----------|-------------|---------|-------------|
|-----------|-------------|---------|----------2--|
|-----------|----------2--|---------|-2--4--2-----|
|-2------2--|-2--4--5-----|---------|-------------|

|----------|-------------|----------|------------|
|----------|----------1--|-------1--|-1----------|
|----------|-------------|----------|------4--2--|
|---0------|-0--2--4-----|----------|------------|

|-----------|-------------|-----------|----------|
|-----------|-------------|-----------|----------|
|-5------5--|-5--4--2--4--|---2-------|----------|
|-----------|-------------|--------5--|-------5--|

|-----------|-------------|----------|-----------|
|-----------|-------------|----------|-----------|
|-----------|-------2--4--|-------4--|-4------4--|
|-4------4--|-4--5--------|----------|-----------|

|-----------|-----------|---------|-----------|
|-----------|-----------|---------|-----------|
|-----------|--------2--|---------|-----2-----|
|-2------2--|-2---------|---------|--------5--|

Verse

|-----------|-----------|-----------|-----------|
|-----------|-----------|-----------|-----------|
|-----------|-----------|-2------2--|-----------|
|-4------4--|-4------4--|-----------|-0------0--|

|-----------|-----------|---------|----------|
|-----------|-----------|---------|----------|
|-----------|-4---------|---------|----------|
|-5------5--|--------2--|---------|-------2--|

|-----------|-----------|-----------|-----------|
|-----------|-----------|-----------|-----------|
|-----------|-----------|-2------2--|-----------|
|-4------4--|-4------4--|-----------|-0------0--|

|-----------|-----------|---------|-------------|
|-----------|-----------|---------|-------------|
|-----------|-4---------|---------|----------4--|
|-5------5--|--------2--|---------|-2--4--5-----|

|-----------|-----------|----------|----------|
|-----------|-----------|----------|----------|
|-5------5--|-5------4--|----------|----------|
|-----------|-----------|-------2--|-------2--|

|-----------|-----------|----------|-----------|
|-----------|-----------|----------|--------2--|
|-2------2--|-----------|-------4--|---5-------|
|-----------|-0------2--|----------|-----------|

|----------|----------|----------|----------|
|----------|----------|----------|----------|
|-5--------|-------4--|----------|----------|
|----------|----------|-------2--|-------2--|

|-----------|-----------|---------|------------|
|-----------|--------2--|---------|---2--2-----|
|-2------2--|-2---------|---------|---------4--|
|-----------|-----------|---------|------------|

|-------------|-------------|
|-------------|-------------|
|-4--4--4--4--|-4--4--4--4--|
|-------------|-------------|

Chorus

|-----------|-------------|----------|------------|
|-----------|-------------|----------|------------|
|-----------|-------------|----------|------------|
|-2--2------|-2--2--2--1--|-------1--|-1--1----1--|

|----------|------------|----------|----------|
|-2--------|-2--2----1--|----------|----------|
|----------|------------|-------4--|-2--------|
|----------|------------|----------|----------|

|----------|-------------|----------|------------|
|----------|----------1--|-1--------|-1--1----1--|
|-1--------|-1--2--4-----|----------|------------|
|----------|-------------|----------|------------|

|-----------|------------|---------|-------------|
|-----------|------------|---------|----1--------|
|-----------|---------4--|---------|-4-----4-----|
|-4--4------|-4--4-------|---------|----------2--|

|---------|------------|---------|------------|
|---------|------------|---------|------------|
|---------|------------|---------|------------|
|---------|-2--2----1--|---------|-1--1----1--|

|----------|-------------|----------|----------|
|-2--------|-2--1-----1--|----------|----------|
|----------|-------4-----|-------4--|-2--------|
|----------|-------------|----------|----------|

|----------|-------------|---------|------------|
|----------|----------1--|---------|-1--1--1----|
|-1--------|-1--2--4-----|---------|------------|
|----------|-------------|---------|------------|

|-----------|------------|---------|-------------|
|-----------|------------|---------|----1--------|
|-----------|---------4--|---------|-4-----4-----|
|-4--4------|-4--4-------|---------|----------2--|

|---------|------------|---------|------------|
|---------|------------|---------|------------|
|---------|------------|---------|------------|
|---------|-2--2----1--|---------|-1--1----1--|

|----------|-------------|----------|----------|
|-2--------|-2--1-----1--|----------|----------|
|----------|-------4-----|-------4--|-2--------|
|----------|-------------|----------|----------|

|----------|-------------|---------|------------|
|----------|----------1--|---------|-1--1----1--|
|-1--------|-1--2--4-----|---------|------------|
|----------|-------------|---------|------------|

|-----------|------------|---------|-------------|
|-----------|------------|---------|----1--------|
|-----------|---------4--|---------|-4-----4-----|
|-4--4------|-4--4-------|---------|----------2--|

|----------|------------|----------|------------|
|----------|------------|----------|------------|
|----------|------------|----------|------------|
|-------2--|-2--2----1--|-------1--|-1--1----1--|

|----------|-------------|----------|----------|
|-2--------|-2--1-----1--|----------|----------|
|----------|-------4-----|-------4--|-2--------|
|----------|-------------|----------|----------|

|----------|-------------|----------|------------|
|----------|----------1--|-------1--|-1--1----1--|
|-1--------|-1--2--4-----|----------|------------|
|----------|-------------|----------|------------|

|------------|------------|---------|-------------|
|------------|------------|---------|----1--------|
|------------|---------4--|---------|-4-----4-----|
|-4--4----4--|-4--4-------|---------|----------2--|

|----------|------------|---------|------------|
|----------|------------|---------|------------|
|----------|------------|---------|------------|
|-------2--|-2--2----1--|---------|-1--1----1--|

|----------|-------------|----------|----------|
|-2--------|-2--1-----1--|----------|----------|
|----------|-------4-----|-------4--|-2--------|
|----------|-------------|----------|----------|

|----------|-------------|---------|------------|
|----------|----------1--|---------|-1--1----1--|
|-1--------|-1--2--4-----|---------|------------|
|----------|-------------|---------|------------|

|-----------|------------|----------|-------------|
|-----------|------------|----------|----1--------|
|-----------|---------4--|-4--------|-4-----4-----|
|-4--4------|-4--4-------|----------|----------2--|

|---------|------------|----------|------------|
|---------|------------|----------|------------|
|---------|------------|----------|------------|
|---------|-2--2----1--|-------1--|-1--1----1--|

|----------|-------------|----------|----------|
|-2--------|-2--1-----1--|----------|----------|
|----------|-------4-----|-------4--|-2--------|
|----------|-------------|----------|----------|

|----------|-------------|---------|-----------|
|----------|----------1--|---------|-1--1------|
|-1--------|-1--2--4-----|---------|-----------|
|----------|-------------|---------|-----------|

|------------|------------|----------|-------------|
|------------|------------|----------|----1--------|
|------------|---------4--|-4--------|-4-----4-----|
|-4--4----4--|-4--4-------|----------|----------2--|

||-----------|------------|----------|------------|
||o----------|------------|----------|------------|
||o----------|------------|----------|------------|
||--------2--|-2--2----1--|-------1--|-1--1----1--|

|----------|-------------|----------|-----------|
|-2--------|-2--1-----1--|----------|-----------|
|----------|-------4-----|-------4--|-2------2--|
|----------|-------------|----------|-----------|

|----------|-------------|----------|------------| *first time only
|----------|----------1--|-------1--|-1--1*------|
|-1--------|-1--2--4-----|----------|------------|
|----------|-------------|----------|------------|

|------------|------------|----------|--------------||
|------------|------------|----------|----1--------o||
|------------|---------4--|-4--------|-4-----4-----o||
|-4--4----4--|-4--4-------|----------|----------2---||

|----------|------------|----------|------------|
|----------|------------|----------|------------|
|----------|------------|----------|------------|
|-------2--|-2--2----1--|-------1--|-1--1----1--|

|----------|-------------|----------|----------|
|-2--------|-2--1-----1--|----------|----------|
|----------|-------4-----|-------4--|-2--------|
|----------|-------------|----------|----------|

|----------|-------------|---------|-----------|
|----------|----------1--|---------|-1--1------|
|-1--------|-1--2--4-----|---------|-----------|
|----------|-------------|---------|-----------|

|-----------|------------|---------|-------------|
|-----------|------------|---------|----1--------|
|-----------|---------4--|---------|-4-----4-----|
|-4--4------|-4--4-------|---------|----------2--|

|---------|------------|---------|-------------|
|---------|------------|---------|-----------3-|
|---------|------------|---------|------4--4---|
|---------|-2--2----1--|---------|-1---4-------|

|----------|-------------|----------|----------|
|-2--------|-2--1-----1--|----------|----------|
|----------|-------4-----|-------4--|-2--------|
|----------|-------------|----------|----------|

|----------|-------------|----------|------------|
|----------|----------1--|-1--------|-1--1----1--|
|-1--------|-1--2--4-----|----------|------------|
|----------|-------------|----------|------------|

|-----------|------------|---------|-------------|
|-----------|------------|---------|----1--------|
|-----------|---------4--|---------|-4-----4-----|
|-4--4------|-4--4-------|---------|----------2--|

|---------|------------|---------|-----------|
|---------|------------|---------|-----------|
|---------|------------|---------|-----------|
|---------|-2--2----1--|---------|-----1--1--|

|----------|-------------|----------|----------*|
|-2--------|-2--1-----1--|----------|----------*|
|----------|-------4-----|-------4--|-2--------*|
|----------|-------------|----------|----------*| fade


--------------------------------
You're Throwing a Good Love Away
--------------------------------

180BPM, 4/4

Intro

||-------------|---------|------------|---------|
||o------------|---------|------------|---------|
||o------------|---------|------------|---------|
||--3---3---3--|---------|-3---3---3--|---------|

|------------|---------|------------|------------||
|------------|---------|------------|-----------o||
|------------|---------|------------|---2---2---o||
|-5---5---5--|---------|-5---5---5--|------------||

|------------|---------|------------|-----------|
|------------|---------|------------|-----------|
|------------|---------|------------|---------3-|
|-3---3---3--|---------|-3---3---3--|-------3---|

Verse

|---------|------------|----------|-------------|
|---------|------------|----------|-------------|
|---------|------------|-5--------|-5--5--------|
|---------|-5--5--5----|----------|-------3--3--|

|-----------|------------|-----------|-------------|
|-----------|------------|-----------|-------------|
|-3--3------|------------|-5--5------|-5--5--------|
|-----------|-5--5--5----|-----------|-------3--3--|

|----------|-----------|-----------|-------------|
|----------|-----------|-----------|-------------|
|-3--------|-----------|-5--5------|-5--5--------|
|----------|-5--5------|-----------|-------3--3--|

|-----------|------------|-------------|--------------|
|-----------|------------|-------------|--------------|
|-3--3------|------------|-5--5--------|--------------|
|-----------|-5--5--5----|---------0-3-|-5--5--3--3-3-|

Pre-Chorus

|-------------|-------------|-------------|-------------|
|-------------|-2-----------|-------------|-------------|
|-------------|-------------|-------------|---------35--|
|-1--1--1--1--|----0--0--0--|-5--5--5--5--|-5--5--6-----|

|-------------|-------------|-------------|-------------|
|-------------|-------------|-------------|-------------|
|-------------|-------------|-------------|-------------|
|-1--1--1--1--|-1--1--1--1-3|-5--5--5--5--|-5--5--0--3--|

|-------------|-------------|-------------|-------------|
|-------------|-------------|-------------|-2-----------|
|-------------|-------------|-------------|-------------|
|-5--5--5--5--|-5--5--0--3--|-1--1--1--1--|----0--0--0--|

|-------------|-------------|-------------|------------|
|-------------|-------------|-------------|-------3----|
|-------------|-------------|-------------|--3-5-------|
|-5--5--5--5--|-5--5--5--3--|-1----1--1-1-|------------|

|-------------|-------------|
|-------2--2--|-3--3--5--5--|
|-5--5--------|-------------|
|-------------|-------------|

Chorus

|-------------|------------|-------------|-------------|
|-------2--3--|---2--------|------------5|-7--7--5--5--|
|-3--5--------|------5--3--|-3--3--3-57--|-------------|
|-------------|------------|-------------|-------------|

|-------------|-------------|-------------|--------3-----|
|----------3--|----------3--|-------3-----|--------------|
|--------3----|--------3----|----------3--|----1-1---1-2-|
|-1--1--------|-1--1--------|-1--1--------|--------------|

|-------------|------------|-------------|-------------|
|-------2--3--|---2--------|------------5|-7--7--5--5--|
|-3--5--------|------5--3--|-3--3--3-57--|-------------|
|-------------|------------|-------------|-------------|

|-------------|-------------|-------------|------------|
|----------3--|----3-----3--|-------3-----|------------|
|--------3----|--------3----|-------------|------------|
|-1--1--------|-1-----------|-1--1-----3--|---3--3--3--|

Verse

|-----------|------------|----------|-------------|
|-----------|---------2--|----------|-------------|
|-3------2--|-----------3|-5--------|-5--5--------|
|-----------|-5--5-------|----------|-------3--3--|

|------------|-----------|----------|-------------|
|------------|--------2--|----------|-------------|
|-3--3----2--|----------3|-5--------|-5--5--------|
|------------|-5---------|----------|-------3--3--|

|-----------|------------|----------|-------------|
|-----------|---------2--|----------|-------------|
|-3------2--|-----------3|-5--------|-5--5--------|
|-----------|-5--5-------|----------|-------3--3--|

|------------|-----------|----------|-------------|
|------------|--------2--|----------|-------------|
|-3--3----2--|----------3|-5--------|-------------|
|------------|-5---------|----------|-5--5--3--3--|

Pre-Chorus

|-------------|-------------|-------------|-------------|
|-------------|-2-----------|-------------|-------------|
|-------------|-------------|-------------|---------35--|
|-1--1--1--1--|----0--0--0--|-5--5--5--5--|-5--5--6-----|

|-------------|-------------|-------------|-------------|
|-------------|-------------|-------------|-------------|
|-------------|-------------|-------------|-------------|
|-1--1--1--1--|-1--1--1--1-3|-5--5--5--5--|-5--5--0--3--|

|-------------|-------------|-------------|-------------|
|-------------|-------------|-------------|-2-----------|
|-------------|-------------|-------------|-------------|
|-5--5--5--5--|-5--5--0--3--|-1--1--1--1--|----0--0--0--|

|-------------|-------------|-------------|------------|
|-------------|-------------|-------------|-------3----|
|-------------|-------------|-------------|--3-5-------|
|-5--5--5--5--|-5--5--5--3--|-1----1--1-1-|------------|

|-------------|-------------|
|-------2--2--|-3--3--5--5--|
|-5--5--------|-------------|
|-------------|-------------|

Chorus

|-------------|------------|-------------|-------------|
|-------2--3--|---2--------|------------5|-7--7--5--5--|
|-3--5--------|------5--3--|-3--3--3-57--|-------------|
|-------------|------------|-------------|-------------|

|-------------|-------------|-------------|--------3----|
|----------3--|----------3--|-------------|-------------|
|--------3----|--------3----|----------3--|----1-1---1--|
|-1--1--------|-1--1--------|-1--1--1-----|-------------|

|-------------|------------|-------------|-------------|
|-------2--3--|---2--------|------------5|-7--7--5--5--|
|-3--5--------|------5--3--|-3--3--3-57--|-------------|
|-------------|------------|-------------|-------------|

|-------------|------------|-------------|--------------|
|----------3--|---------3--|-3--3--3-----|-------2--2---|
|--------3----|-------3----|----------3--|-3--3---------|
|-1--1--------|-1----------|-------------|--------------|

Pre-Chorus

|-------------|-------------|-------------|-------------|
|-------------|-------------|-------------|-------------|
|-------------|-------------|-------------|---------35--|
|-1--1--1--1--|-0--0--0--0--|-5--5--5--5--|-5--5--6-----|

|-------------|-------------|-------------|-------------|
|-------------|-------------|-------------|-------------|
|-------------|-------------|-------------|-------------|
|-1--1--1--1--|-1--1--1--1-3|-5--5--5--5--|-5--5--0--3--|

|-------------|-------------|-------------|-------------|
|-------------|-------------|-------------|-------------|
|-------------|-------------|-------------|-------------|
|-5--5--5--5--|-5--5--0--3--|-1--1--1--1--|-0--0--0--0--|

|-------------|-------------|-------------|------------|
|-------------|-------------|-------------|-------3----|
|-------------|-------------|-------------|--3-5-------|
|-5--5--5--5--|-5--5--5--3--|-1----1--1-1-|------------|

|-------------|-------------|
|-------2--2--|-3--3--5--5--|
|-5--5--------|-------------|
|-------------|-------------|

Chorus/Ending

|-------------|------------|-------------|-------------|
|-------2--3--|---2--------|------------5|-7--7--5--5--|
|-3--5--------|------5--3--|-3--3--3-57--|-------------|
|-------------|------------|-------------|-------------|

|-------------|------------|-------------|----3--------|
|----------3--|------------|-------------|-------------|
|--------3----|------------|----------3--|------1--1-2-|
|-1--1--------|-1--1---1---|-1--1--1-----|-------------|

|-------------|------------|-------------|-------------|
|-------2--3--|---2--------|------------5|-7--7--5--5--|
|-3--5--------|------5--3--|-3--3--3-57--|-------------|
|-------------|------------|-------------|-------------|

|-------------|------------|-------------|--------------|
|----------3--|------------|-------------|--------------|
|--------3----|------------|----------3--|-3--3--1--1-2-|
|-1--1--------|-1--1---1---|-1--1--1-----|--------------|

|-------------|------------|-------------|-------------|
|-------2--3--|---2--------|------------5|-7--7--5--5--|
|-3--5--------|------5--3--|-3--3--3-57--|-------------|
|-------------|------------|-------------|-------------|

|-------------|------------|-------------|-------------|
|----------3--|------------|-------------|-------------|
|--------3----|------------|----------3--|---1-1-1--2--|
|-1--1--------|-1--1---1---|-1--1--1-----|-------------|

|-------------|------------|-----------|-------------|
|-------2--3--|---2--------|-----------|-7--7--5--5--|
|-3--5--------|------5--3--|-3--3------|-------------|
|-------------|------------|-----------|-------------|

|-------------|------------|-------------|------------|
|----------3--|------------|-------3-----|------------|
|--------3----|------------|----------3--|---1--1-2---|
|-1--1--------|-1--1---1---|-1--1--------|------------|

|-------------|------------|-------------|-------------|
|-------2--3--|---2--------|------------5|-7--7--5--5--|
|-3--5--------|------5--3--|-3--3--3-57--|-------------|
|-------------|------------|-------------|-------------|

|--------------|------------|-------------|---8--8--7-7-|
|-----------3--|------------|-------3-----|-------------|
|---------3----|------------|----------3--|-------------|
|-1--1---------|-1--1---1---|-1--1--------|-------------|

|------------|------------|-------------|-------------|
|------2--3--|---2--------|------------5|-7--7--5--5--|
|-3----------|------5--3--|-3--3--3-57--|-------------|
|------------|------------|-------------|-------------|

|-------------|------------|------------|---2-2--------|
|----------3--|------------|------3-----|--------------|
|--------3----|------------|---------3--|-------1--1-2-|
|-1--1--------|-1--1---1---|-1----------|--------------|

|-------------|------------|-------------|-------------|
|-------2--3--|---2--------|------------5|-7--7--5--5--|
|-3--5--------|------5--3--|-3--3--3-57--|-------------|
|-------------|------------|-------------|-------------|

|-------------|------------|-------------|---8--8--7--|
|----------3--|------------|-------3-----|------------|
|--------3----|------------|----------3--|------------|
|-1--1--------|-1--1---1---|-1--1--------|------------|

|-------------|------------|-------------|-------------|
|-------2--3--|---2--------|------------5|-7--7--5--5--|
|-3--5--------|------5--3--|-3--3--3-57--|-------------|
|-------------|------------|-------------|-------------|

|-------------|------------|-------------|------2-------|
|----------3--|------------|-------3-----|--------------|
|--------3----|------------|----------3--|-3--0---1--2--|
|-1--1--------|-1--1---1---|-1--1--------|--------------|

|-------------|------------|-------------|-------------|
|-------2--3--|---2--------|------------5|-7--7--5--5--|
|-3--5--------|------5--3--|-3--3--3-57--|-------------|
|-------------|------------|-------------|-------------|

|-------------|------------|-------------|---8--8--7--|
|----------3--|------------|-------3-----|------------|
|--------3----|------------|----------3--|------------|
|-1--1--------|-1--1---1---|-1--1--------|------------|

|-------------|------------|-------------|-------------|
|-------2--3--|---2--------|------------5|-7--7--5--5--|
|-3--5--------|------5--3--|-3--3--3-57--|-------------|
|-------------|------------|-------------|-------------|

|-------------|------------|-------------|-----2--------|
|----------3--|------------|-------3-----|--------------|
|--------3----|------------|----------3--|---0---1--2-2-|
|-1--1--------|-1--1---1---|-1--1--------|--------------|

|-------------|------------|-------------|-------------|
|-------2--3--|---2--------|------------5|-7--7--5--5--|
|-3--5--------|------5--3--|-3--3--3-57--|-------------|
|-------------|------------|-------------|-------------|

|-------------|------------|-------------|---8-7-8-7-8-7-|
|----------3--|------------|-------------|---------------|
|--------3----|------------|----------3--|---------------|
|-1--1--------|-1--1---1---|-1--1--1-----|---------------|

|-------------|------------|-------------|-------------|
|-------2--3--|---2--------|------------5|-7--7--5--5--|
|-3--5--------|------5--3--|-3--3--3-57--|-------------|
|-------------|------------|-------------|-------------|

|-------------|------------|-------------|------2---------|
|----------3--|------------|-------3-----|----------------|
|--------3----|------------|----------3--|-3--0---1-1-2-2-|
|-1--1--------|-1--1---1---|-1--1--------|----------------|

|-------------|------------|-------------|-------------|
|-------2--3--|---2--------|------------5|-7--7--5--5--|
|-3--5--------|------5--3--|-3--3--3-57--|-------------|
|-------------|------------|-------------|-------------|

|-------------|------------|-------------|---8-8-8-8-7-7-|
|----------3--|------------|-3--3--3-----|---------------|
|--------3----|------------|----------3--|---------------|
|-1--1--------|-1--1---1---|-------------|---------------|

|-------------|------------|-------------|-------------|
|-------2--3--|---2--------|------------5|-7--7--5--5--|
|-3--5--------|------5--3--|-3--3--3-57--|-------------|
|-------------|------------|-------------|-------------|

|-------------|------------|-------------|--------3-----|
|----------3--|------------|-------3-----|--------------|
|--------3----|------------|----------3--|---0--1---2-2-|
|-1--1--------|-1--1---1---|-1--1--------|--------------|

|-------------|------------|-------------|-------------|
|-------2--3--|---2--------|------------5|-7--7--5--5--|
|-3--5--------|------5--3--|-3--3--3-57--|-------------|
|-------------|------------|-------------|-------------|

|-------------|------------|-------------|---8--8-8-7--|
|----------3--|------------|-------3-----|-------------|
|--------3----|------------|----------3--|-------------|
|-1--1--------|-1--1---1---|-1--1--------|-------------|

|-------------|------------|-------------|-------------|
|-------2--3--|---2--------|------------5|-7--7--5--5--|
|-3--5--------|------5--3--|-3--3--3-57--|-------------|
|-------------|------------|-------------|-------------|

|-------------|------------|-------------|--------3-----|
|----------3--|------------|-------3-----|--------------|
|--------3----|------------|----------3--|---0--1---1-2-|
|-1--1--------|-1--1---1---|-1--1--------|--------------|

|-------------|------------|-------------|-------------|
|-------2--3--|---2--------|------------5|-7--7--5--5--|
|-3--5--------|------5--3--|-3--3--3-57--|-------------|
|-------------|------------|-------------|-------------|

|-------------|------------|-------------|---8--8--7-7-|
|----------3--|------------|-------3-----|-------------|
|--------3----|------------|----------3--|-------------|
|-1--1--------|-1--1---1---|-1--1--------|-------------|

|-------------|------------|-------------|------------|
|-------2--3--|---2--------|------------5|-7--7--5----|
|-3--5--------|------5--3--|-3--3--3-57--|------------|
|-------------|------------|-------------|------------|

|-------------|------------|-------------|-----2---------|
|----------3--|------------|-------3-----|---------------|
|--------3----|------------|----------3--|---0---1-1-2-2-|
|-1--1--------|-1--1---1---|-1--1--------|---------------|

|-------------|------------|-------------|-------------|
|-------2--3--|---2--------|------------5|-7--7--5--5--|
|-3--5--------|------5--3--|-3--3--3-57--|-------------|
|-------------|------------|-------------|-------------|

|-------------|------------|-------------|---8-8-8-8-7-7-|
|----------3--|------------|-------3-----|---------------|
|--------3----|------------|----------3--|---------------|
|-1--1--------|-1--1---1---|-1--1--------|---------------|

|-------------|------------|-------------|-------------|
|-------2--3--|---2--------|------------5|-7--7--5--5--|
|-3--5--------|------5--3--|-3--3--3-57--|-------------|
|-------------|------------|-------------|-------------|

|-------------|------------|-------------|------2---------|
|----------3--|------------|-------3-----|----------------|
|--------3----|------------|----------3--|--0-0---1-1-2-2-|
|-1--1--------|-1--1---1---|-1--1--------|----------------|

|-------------|------------|-------------|-------------|
|-------2--3--|---2--------|------------5|-7--7--5--5--|
|-3--5--------|------5--3--|-3--3--3-57--|-------------|
|-------------|------------|-------------|-------------|

|-------------|------------|-------------|---8--8-8-7-7-|
|----------3--|------------|-------3-----|--------------|
|--------3----|------------|----------3--|--------------|
|-1--1--------|-1--1---1---|-1--1--------|--------------|

|-------------|------------|-------------|--------------|
|-------2--3--|---2--------|------------5|-7--7--75-----|
|-3--5--------|------5--3--|-3--3--3-57--|----------5---|
|-------------|------------|-------------|-----------3--|

|-------------|------------|-------------|--8------------|
|----------3--|------------|-------3-----|---------------|
|--------3----|------------|----------3--|----0--1-1-2-2-|
|-1--1--------|-1--1---1---|-1--1--------|---------------|

|-------------|------------|-------------|--------------|
|-------2--3--|---2--------|------------5|-7--7--75-----|
|-3--5--------|------5--3--|-3--3--3-57--|----------5---|
|-------------|------------|-------------|-----------3--|

|---------------|----------|-------------|---8--8-8-7-7-|
|-----------3---|----------|-------3-----|--------------|
|---------3-----|----------|----------3--|--------------|
|-1--1--------1-|------1---|-1--1--------|--------------|

|-------------|------------|-------------|--------------|
|-------2--3--|---2--------|------------5|-7--7--75-----|
|-3--5--------|------5--3--|-3--3--3-57--|----------5---|
|-------------|------------|-------------|-----------3--|

|-------------|------------|-------------|------2-------|
|----------3--|------------|-------3-----|--------------|
|--------3----|------------|----------3--|-3--0---1--2--|
|-1--1--------|-1--1---1---|-1--1--------|--------------|

|-------------|------------|-------------|-------------|
|-------2--3--|---2--------|------------5|-7--7--5--5--|
|-3--5--------|------5--3--|-3--3--3-57--|-------------|
|-------------|------------|-------------|-------------|

|-------------|------------|-------------|---8--8-8-7-7-|
|----------3--|------------|-------------|--------------|
|--------3----|------------|----------3--|--------------|
|-1--1--------|-1--1---1---|-1--1--1-----|--------------|

|-------------|------------|-------------|--------------|
|-------2--3--|---2--------|------------5|-7--7--5-5-5--|
|-3--5--------|------5--3--|-3--3--3-57--|--------------|
|-------------|------------|-------------|--------------|

|-------------|------------|-------------|------------|
|----------3--|------------|-------------|------------|
|--------3----|------------|----------3--|---0--1--2--|
|-1--1--------|-1--1---1---|-1--1--1-----|------------|

|----------|------------|-------------|----------------|
|-------3--|---2--------|----------7--|-5-5------------|
|----------|------5--3--|-------------|-----8-8-7-7-5--|
|----------|------------|-5-5-5-------|----------------|

|-------------|------------|-------------|---888-------|
|-------------|------------|-------3-----|-------8--8--|
|-------------|------------|----------3--|-------------|
|-1--1--1-1---|-1--1---1---|-1--1--------|-------------|

|-------------|------------|-------------|--------------|
|-------2--3--|---2--------|-------------|-7--7--5-5-5--|
|-3--5--------|------5--3--|-3--3--3-57--|--------------|
|-------------|------------|-------------|--------------|

|-------------|------------|-------------|--2----------|
|----------3--|------------|-------3-----|-------------|
|--------3----|------------|----------3--|----0--1--2--|
|-1--1--------|-1--1---1---|-1--1--------|-------------|

|-------------|------------|-------------|--------------|
|-------2--3--|---2--------|------------5|-7--7--5-5-5--|
|-3--5--------|------5--3--|-3--3--3-57--|--------------|
|-------------|------------|-------------|--------------|

|-------------|------------|-------------|----8--7--7--|
|----------3--|------------|-------3-----|-------------|
|--------3----|------------|----------3--|-------------|
|-1--1--------|-1--1---1---|-1--1--------|-------------|

|-------------|------------|-------------|-------------|
|-------2--3--|---2--------|------------5|-7--7--5--5--|
|-3--5--------|------5--3--|-3--3--3-57--|-------------|
|-------------|------------|-------------|-------------|

|-------------|------------|-------------|---8--8--7-7|
|----------3--|------------|-------3-----|------------|
|--------3----|------------|----------3--|------------|
|-1--1--------|-1--1---1---|-1--1--------|------------|

|-------------|------------|-------------|--------------|
|-------2--3--|---2--------|------------5|-7--7--75-----|
|-3--5--------|------5--3--|-3--3--3-57--|----------5---|
|-------------|------------|-------------|-----------3--|

|-------------|------------|-------------|--2------------|
|----------3--|------------|-------3-----|---------------|
|--------3----|------------|----------3--|----0--1-1-2-2-|
|-1--1--------|-1--1---1---|-1--1--------|---------------|

|-------------|------------|-------------|-------------|
|-------2--3--|---2--------|------------5|-7--7--5-5---|
|-3--5--------|------5--3--|-3--3--3-57--|-------------|
|-------------|------------|-------------|-------------|

|-------------|------------|-------------|--2-----------|
|----------3--|------------|-------------|--------------|
|--------3----|------------|----------3--|----0-0-1--2--|
|-1--1--------|-1--1---1---|-1--1--1-----|--------------|

|-------------|------------|--5-5-55--5-5|-2--2--------*|
|-------2--3--|---2--------|-------------|-------5--5--*|
|-3--5--------|------5--3--|-------------|-------------*|
|-------------|------------|-------------|-------------*| fade


----------
Tabbed by W.g.Wilson (199X) using Powertab Editor.
I make no money from the writing of these tabs.
comments
We did not receive enough feedback on this tab! Please rate:
print report bad tab
1 2 3 4 5
I want to post or [tab]
guest
You may want to rate the tab now too:
select rating
Please do not post tabs as comments. Select "correction" instead!