Oops, an error
Loading. Please wait.

Ronnie Knipt Zijn Haar Tab

243 views 1 this week
1 commentread comment
1 2 3 4 5
please rate
add to favorites launch autoscroll
font size
0
reset
Autoscroll
+/-
esc
set tempo
stop
Contributor
Difficulty
intermediate
WARNING: You are trying to view
                                    content from Ultimate-Guitar.com
                                    in an unauthorized application,
                                    which is prohibited.

                                    Please use an official Ultimate
                                    Guitar Tabs application for iPhone,
                                    iPad or Android to access legitimate
                                    chords, guitar, bass, and drum tabs
                                    from Ultimate-Guitar.com database.

                                    Type "ultimate guitar tabs" in Apple
                                    App Store's or Android Market's
                                    search to find the application.
Ronnie Knipt Zijn Haar
Tot Ziens, Justine Keller
Spinvis

Key: G  (Sounding Key: E)
Capo: 9

G   3x000x
G6  3x200x
Em6 x4200x
C   x32010
G/B x2003x
Em  0x200x
C/G x32013

Am7 x0201x
G   3x0033
D   xx0232


Intro
   G     G6   G
e|----------------|
B|-----0----0-----|
G|---0----------0-|
D|-------2----0---|
A|----------------|
E|-3--------------|
   
Verse
   Em6             C                    
e|--------------------------------|
B|----------0---------------------|
G|-----0--------0------0----0---0-|
D|---2--------2------2--------2---|
A|-4-----4---------3-----3--------|
E|--------------------------------|

   G/B             Em
e|-----------------------------|
B|-----3----3------------0-----|
G|---0----------0------0---0---|
D|-------0----0------2-------2-|
A|-2---------------------------|
E|-----------------0-----------|

   C/G
e|-----------------------3-------|
B|----------1--------------1-----|
G|-----0--------0-----0--------0-|
D|---2--------2-----2--------2---|
A|-3-----3--------3--------------|
E|-------------------------------|

Refrein
   Am7         /b C             G             D     
e|--------------------------------------------------2-----|
B|--------1-------------1-------------3-----------3-------|
G|------0---0----0----0---0---0-----0---0-0-----2-----2-2-|
D|----2-------------2------0h2----0------0----0--------0--|
A|-0----------0h2-3---------------------------------------|
E|------------------------------3-------------------------|


G
 Het hoeft niet in de krant
      Em6              C
Maar Ronnie knipt z'n haar
    G/B
Het mocht een keer
 Em
Dat vond zij ook
     C/G
Het zat ook raar

Ze had vandaag geen tijd
Maar hij weet niet meer waarom
De thee is op 
Zijn haar is kort
De maand is om

Am7              C  
Ronnie, Ronnie, ooit 
 G                D
Maandag moest ze werken
Am7                        C
En ze belt waarschijnlijk nooit
     G                D
De brief zat in zijn binnenzak
     Am7            C               G
Maar nu opeens vandaag is hij hem kwijt

Voor even of voor altijd

Ze houdt van chocola            
Ronnie schrijft het op
Portugal, 
Johnny Depp, 
Franse pop

Een merel in de tuin
De haren in zijn hand
Hij zou zo graag - 
Misschien een keer dat
Op een dag als het kon

Maar Ronnie, Ronnie, hoe
De maan is niet van zilver
En je kunt er niet naar toe
De brief lag al die tijd gewoon op tafel
 Am7            C           Em6
Hij fluit een liedje van de Bee Gees 
         C         G/B
uit hun eerste periode
   Em                    C
De merel schrikt en verdwijnt
                     Am7 
Voor even of voor altijd
 
    C  G  D 
Am7 C  G  D
Am7 C  Em6  C  G/B  Em  C
G   Am7  C  G
comments
We did not receive enough feedback on this tab! Please rate:
1 2 3 4 5
1 comment total.
0 reply
Quintijn wrote on August 26 2013, 12:08 pm

Dit is een tab van de liveversie. De gitaren op de albumversie verschillen behoorlijk met de (elektrische / akoestische) liveversies. Op het album zijn het twee gebrekkige gitaarpartituren die elkaar aanvullen tot een geheel.

In de liveversies speelt Erik de Jong het geraamte van het lied (zie tab), met een tweede gitarist die dat aanvult.

I want to post or [tab]
guest
You may want to rate the tab now too:
select rating
Please do not post tabs as comments. Select "correction" instead!