Oops, an error
Loading. Please wait.

Falling Further Tab

ver1
ver1

Intro

Whole song

More versions @911Tabs.com
1,251 views 1 this week
no commentswrite comment
1 2 3 4 5
excellent!
x 2
Autoscroll
+/-
esc
set tempo
stop
Contributor
WARNING: You are trying to view
                                    content from Ultimate-Guitar.com
                                    in an unauthorized application,
                                    which is prohibited.

                                    Please use an official Ultimate
                                    Guitar Tabs application for iPhone,
                                    iPad or Android to access legitimate
                                    chords, guitar, bass, and drum tabs
                                    from Ultimate-Guitar.com database.

                                    Type "ultimate guitar tabs" in Apple
                                    App Store's or Android Market's
                                    search to find the application.
Spoken
Falling Further
Tabbed by U B the band
Tuning Eb Ab Db Gb Bb Eb


Legend
x-scratch            p-pull            pm-palm mute            h-hammer on


Intro 1: Guitar 1 (Low Distortion) PLAY INTRO 1 TWO TIMES
Eb|---------------------------------------------------------------------------|
Bb|---------------------------------------------------------------------------|
Gb|---------------------------------------------------------------------------|
Db|---------------------------------------------------------------------------|
Ab|--9--9--9--9----10--------------------9--9--9--9----10---------------------|
Eb|--7--7--7--7-----7--------------------7--7--7--7-----7---------------------|
                                                                              |
Intro 1: Guitar 2 (Low Distortion & Palm Muted)                               |
Eb|---------------------------------------------------------------------------|
Bb|---------------------------------------------------------------------------|
Gb|---------------------------------------------------------------------------|
Db|----------------------9-9-9-9-9-9-9-9-9-9-9-9-9-9-9-9-9-9-9-9-9-7-7-7------|
Ab|---------------------------------------------------------------------------|
Eb|---------------------------------------------------------------------------|

Intro 1: Guitar 1 (Low Distortion)
Eb|---------------------------------------------------------------------------|
Bb|---------------------------------------------------------------------------|
Gb|---------------------------------------------------------------------------|
Db|--7--7--7--7---------------------------------------------------------------|
Ab|--9--9--9--9----10--------------------9--9--9--9----10---------------------|
Eb|--7--7--7--7-----7--------------------7--7--7--7-----7---------------------|
                                                                              |
Intro 1: Guitar 2 (Low Distortion & Palm Muted)                               |
Eb|---------------------------------------------------------------------------|
Bb|---------------------------------------------------------------------------|
Gb|---------------------------------------------------------------------------|
Db|--9-9-9-9-9-9-9-9-9-9-9-9-9-9-9-9-9-9-9-9-9-9-9-9-9-9-9-9-9-9-9-7-7-7------|
Ab|---------------------------------------------------------------------------|
Eb|---------------------------------------------------------------------------|

Intro 2: Guitars 1 & 2 (Distorted) PLAY 2 TIMES
Eb|---------------------------------------------------------------------------|
Bb|---------------------------------------------------------------------------|
Gb|---------------------------------------------------------------------------|
Db|---------------------------------------------------------------------------|
Ab|--9---9---9--x-5-----9---9---9--x-5-----9---9---9--x-5-----7-7-7-7-7-7-7-7-|
Eb|--7---7---7--x-3-----7---7---7--x-3-----7---7---7--x-3-----5-5-5-5-5-5-5-5-|

Verse 1: Guitar 1 (Low Distortion) PLAY ENTIRE VERSE 1 TWO TIMES
Eb|---------------------------------------------------------------------------|
Bb|---------------------------------------------------------------------------|
Gb|---------------------------------------------------------------------------|
Db|---------------------------------------------------------------------------|
Ab|--9--9--9--9----10--------------------9--9--9--9----10---------------------|
Eb|--7--7--7--7-----7--------------------7--7--7--7-----7---------------------|
                                                                              |
Verse 1: Guitar 2 (Low Distortion)                                            |
Eb|---------------------------------------------------------------------------|
Bb|---------------------------------------------------------------------------|
Gb|---------------------------------------------------------------------------|
Db|----------------------9-9-9-9-9-9-9-9---------------------9-9-9-9p7-7------|
Ab|---------------------------------------------------------------------------|
Eb|---------------------------------------------------------------------------|

Verse 1: Guitar 1 (Low Distortion)
Eb|---------------------------------------------------------------------------|
Bb|---------------------------------------------------------------------------|
Gb|---------------------------------------------------------------------------|
Db|--7--7--7--7---------------------------------------------------------------|
Ab|--9--9--9--9----10--------------------9--9--9--9----10---------------------|
Eb|--7--7--7--7-----7--------------------7--7--7--7-----7---------------------|
                                                                              |
Verse 1: Guitar 2 (Low Distortion)                                            |
Eb|---------------------------------------------------------------------------|
Bb|---------------------------------------------------------------------------|
Gb|------------------------------11-11-11-------------------------------------|
Db|----------------------9-9-9-9--9--9--9--------------------9-9-9-9p7-7------|
Ab|---------------------------------------------------------------------------|
Eb|---------------------------------------------------------------------------|

Chorus: Guitars 1 & 2 (Distorted) PLAY CHORUS 4 TIMES
Eb|---------------------------------------------------------------------------|
Bb|------------------------------------3--3--3--3--3--3--3--3--3--3--3--3--3--|
Gb|------------------------------------2--2--2--2--2--2--2--2--2--2--2--2--2--|
Db|--2----2--2--------5----5--5--------0--0--0--0--0--0--0--0--0--0--0--0--0--|
Ab|--2----2--2--------5----5--5--------0--0--0--0--0--0--0--0--0--0--0--0--0--|
Eb|--0----0--0--------3----3--3-----------------------------------------------|

Verse 2: Guitar 1 (Low Distortion) PLAY ENTIRE VERSE 2 FOUR TIMES
Eb|---------------------------------------------------------------------------|
Bb|---------------------------------------------------------------------------|
Gb|---------------------------------------------------------------------------|
Db|---------------------------------------------------------------------------|
Ab|--9--9--9--9----10--------------------9--9--9--9----10---------------------|
Eb|--7--7--7--7-----7--------------------7--7--7--7-----7---------------------|
                                                                              |
Verse 2: Guitar 2 (Low Distortion)                                            |
Eb|---------------------------------------------------------------------------|
Bb|---------------------------------------------------------------------------|
Gb|---------------------------------------------------------------------------|
Db|----------------------9-9-9-9-9-9-9-9---------------------9-9-9-9p7-7------|
Ab|---------------------------------------------------------------------------|
Eb|---------------------------------------------------------------------------|

Verse 2: Guitar 1 (Low Distortion)
Eb|---------------------------------------------------------------------------|
Bb|---------------------------------------------------------------------------|
Gb|---------------------------------------------------------------------------|
Db|--7--7--7--7---------------------------------------------------------------|
Ab|--9--9--9--9----10--------------------9--9--9--9----10---------------------|
Eb|--7--7--7--7-----7--------------------7--7--7--7-----7---------------------|
                                                                              |
Verse 2: Guitar 2 (Low Distortion)                                            |
Eb|---------------------------------------------------------------------------|
Bb|---------------------------------------------------------------------------|
Gb|------------------------------11-11-11-------------------------------------|
Db|----------------------9-9-9-9--9--9--9--------------------9-9-9-9p7-7------|
Ab|---------------------------------------------------------------------------|
Eb|---------------------------------------------------------------------------|

Chorus: Guitars 1 & 2 (Distorted) PLAY CHORUS 4 TIMES
Eb|---------------------------------------------------------------------------|
Bb|------------------------------------3--3--3--3--3--3--3--3--3--3--3--3--3--|
Gb|------------------------------------2--2--2--2--2--2--2--2--2--2--2--2--2--|
Db|--2----2--2--------5----5--5--------0--0--0--0--0--0--0--0--0--0--0--0--0--|
Ab|--2----2--2--------5----5--5--------0--0--0--0--0--0--0--0--0--0--0--0--0--|
Eb|--0----0--0--------3----3--3-----------------------------------------------|

Bridge: Guitar 1 (Low Distortion) 
Eb|---------------------------------------------------------------------------|
Bb|---------------------------------------------------------------------------|
Gb|---------------------------------------------------------------------------|
Db|---------------------------------------------------------------------------|
Ab|--9--9--9--9----10--------------------9--9--9--9----10---------------------|
Eb|--7--7--7--7-----7--------------------7--7--7--7-----7---------------------|
                                                                              |
Bridge: Guitar 2 (Low Distortion)                                             |
Eb|---------------------------------------------------------------------------|
Bb|---------------------------------------------------------------------------|
Gb|---------------------------------------------------------------------------|
Db|----------------------9-9-9-9-9-9-9-9-9-9-9-9-9-9-9-9-9-9-9-9-9-7-7-7------|
Ab|---------------------------------------------------------------------------|
Eb|---------------------------------------------------------------------------|

Bridge: Guitar 1 (Low Distortion)
Eb|---------------------------------------------------------------------------|
Bb|---------------------------------------------------------------------------|
Gb|---------------------------------------------------------------------------|
Db|--7--7--7--7---------------------------------------------------------------|
Ab|--9--9--9--9----10--------------------9--9--9--9----10---------------------|
Eb|--7--7--7--7-----7--------------------7--7--7--7-----7---------------------|
                                                                              |
Bridge: Guitar 2 (Low Distortion)                                             |
Eb|---------------------------------------------------------------------------|
Bb|---------------------------------------------------------------------------|
Gb|---------------------------------------------------------------------------|
Db|--9-9-9-9-9-9-9-9-9-9-9-9-9-9-9-9-9-9-9-9-9-9-9-9-9-9-9-9-9-9-9-7-7-7------|
Ab|---------------------------------------------------------------------------|
Eb|---------------------------------------------------------------------------|

Bridge: Guitar 1 (Low Distortion)
Eb|---------------------------------------------------------------------------|
Bb|---------------------------------------------------------------------------|
Gb|---------------------------------------------------------------------------|
Db|---------------------------------------------------------------------------|
Ab|--9--9--9--9----10--------------------9--9--9--9----10---------------------|
Eb|--7--7--7--7-----7--------------------7--7--7--7-----7---------------------|
                                                                              |
Bridge: Guitar 2 (Low Distortion)                                             |
Eb|---------------------------------------------------------------------------|
Bb|---------------------------------------------------------------------------|
Gb|---------------------------------------------------------------------------|
Db|----------------------9-9-9-9-9-9-9-9---------------------9-9-9-9p7-7------|
Ab|---------------------------------------------------------------------------|
Eb|---------------------------------------------------------------------------|

Bridge: Guitar 1 (Low Distortion)
Eb|---------------------------------------------------------------------------|
Bb|---------------------------------------------------------------------------|
Gb|---------------------------------------------------------------------------|
Db|--7--7--7--7---------------------------------------------------------------|
Ab|--9--9--9--9----10--------------------9--9--9--9----10---------------------|
Eb|--7--7--7--7-----7--------------------7--7--7--7-----7---------------------|
                                                                              |
Bridge: Guitar 2 (Low Distortion)                                             |
Eb|---------------------------------------------------------------------------|
Bb|---------------------------------------------------------------------------|
Gb|------------------------------11-11-11-------------------------------------|
Db|----------------------9-9-9-9--9--9--9--------------------9-9-9-9p7-7------|
Ab|---------------------------------------------------------------------------|
Eb|---------------------------------------------------------------------------|

Bridge: Guitar 1 (Distorted)
Eb|---------------------------------------------------------------------------|
Bb|---------------------------------------------------------------------------|
Gb|---------------------------------------------------------------------------|
Db|---------------------------------------------------------------------------|
Ab|--9----9----9-9-9-9-9-9-9-9-9-9-9----9----9----9-9-9-9-9-9-9-9-9-9-9-------|
Eb|--7----7----7-7-7-7-7-7-7-7-7-7-7----7----7----7-7-7-7-7-7-7-7-7-7-7-------|
               pmpmpmpmpmpmpmpmpmpmpm             pmpmpmpmpmpmpmpmpmpmpm      |
                                                                              |
Bridge: Guitar 2 (Distorted)                                                  |
Eb|---------------------------------------------------------------------------|
Bb|---------------------------------------------------------------------------|
Gb|---------------------------------------------------------------------------|
Db|------------------9p7-------9p7----------------------9p7-------9p7---------|
Ab|--9----9-----------------------------9----9--------------------------------|
Eb|--7----7-----------------------------7----7--------------------------------|

Bridge: Guitar 1 (Distorted)
Eb|---------------------------------------------------------------------------|
Bb|---------------------------------------------------------------------------|
Gb|---------------------------------------------------------------------------|
Db|---------------------------------------------------------------------------|
Ab|--5----5----5-5-5-5-5-5-5-5-5-5-5----2----2----x-x-x----2----2----x-x-x----|
Eb|--3----3----3-3-3-3-3-3-3-3-3-3-3----0----0----x-x-x----0----0----x-x-x----|
               pmpmpmpmpmpmpmpmpmpmpm                                         |
                                                                              |
Bridge: Guitar 2 (Distorted)                                                  |
Eb|---------------------------------------------------------------------------|
Bb|---------------------------------------------------------------------------|
Gb|---------------------------------------------------------------------------|
Db|------------------5h7-------5h7--------------------------------------------|
Ab|--5----5-----------------------------2----2-------------2----2-------------|
Eb|--3----3-----------------------------0----0-------------0----0-------------|

Bridge: Guitar 1 (Distorted)
Eb|---------------------------------------------------------------------------|
Bb|---------------------------------------------------------------------------|
Gb|---------------------------------------------------------------------------|
Db|---------------------------------------------------------------------------|
Ab|--9----9----9-9-9-9-9-9-9-9-9-9-9----9----9----9-9-9-9-9-9-9-9-9-9-9-------|
Eb|--7----7----7-7-7-7-7-7-7-7-7-7-7----7----7----7-7-7-7-7-7-7-7-7-7-7-------|
               pmpmpmpmpmpmpmpmpmpmpm             pmpmpmpmpmpmpmpmpmpmpm      |
                                                                              |
Bridge: Guitar 2 (Distorted)                                                  |
Eb|---------------------------------------------------------------------------|
Bb|---------------------------------------------------------------------------|
Gb|---------------------------------------------------------------------------|
Db|----------------------------9p7----------------------9p7-------9p7---------|
Ab|--9----9-----------------------------9----9--------------------------------|
Eb|--7----7-----------------------------7----7--------------------------------|

Bridge: Guitar 1 (Distorted)
Eb|---------------------------------------------------------------------------|
Bb|---------------------------------------------------------------------------|
Gb|---------------------------------------------------------------------------|
Db|---------------------------------------------------------------------------|
Ab|--5----5----5-5-5-5-5-5-5-5-5-5-5----2-2-2-2-2-2-2-2-2-2-2-2-2-2-2-2-------|
Eb|--3----3----3-3-3-3-3-3-3-3-3-3-3----0-0-0-0-0-0-0-0-0-0-0-0-0-0-0-0-------|
               pmpmpmpmpmpmpmpmpmpmpm   pmpmpmpmpmpmpmpmpmpmpmpmpmpmpmpm      |
                                                                              |
Bridge: Guitar 2 (Distorted)                                                  |
Eb|---------------------------------------------------------------------------|
Bb|---------------------------------------------------------------------------|
Gb|---------------------------------------------------------------------------|
Db|------------------5h7-------5h7--------------------------------------------|
Ab|--5----5-----------------------------2-2-2-2-2-2-2-2-2-2-2-2-2-2-2-2-------|
Eb|--3----3-----------------------------0-0-0-0-0-0-0-0-0-0-0-0-0-0-0-0-------|
                                        pmpmpmpmpmpmpmpmpmpmpmpmpmpmpmpm

Outro: Guitars 1 & 2 (Distorted) PLAY 4 TIMES
Eb|---------------------------------------------------------------------------|
Bb|---------------------------------------------------------------------------|
Gb|---------------------------------------------------------------------------|
Db|---------------------------------------------------------------------------|
Ab|--9---9---9--x-5-----9---9---9--x-5-----9---9---9--x-5-----7-7-7-7-7-7-7-7-|
Eb|--7---7---7--x-3-----7---7---7--x-3-----7---7---7--x-3-----5-5-5-5-5-5-5-5-|

Outro 2: Guitars 1 & 2 (Distorted)
Eb|---------------------------------------------------------------------------|
Bb|---------------------------------------------------------------------------|
Gb|---------------------------------------------------------------------------|
Db|---------------------------------------------------------------------------|
Ab|--2----2----x-x-x----2----2----x-x-x----2----2----x-x-x----2----2----------|
Eb|--0----0----x-x-x----0----0----x-x-x----0----0----x-x-x----0----0----------|

Finished!
comments
We did not receive enough feedback on this tab! Please rate:
print report bad tab
1 2 3 4 5
I want to post or [tab]
guest
You may want to rate the tab now too:
select rating
Please do not post tabs as comments. Select "correction" instead!