Oops, an error
Loading. Please wait.

Do You Know This Feeling Tab

676 views 1 this week
1 commentread comment
1 2 3 4 5
excellent!
x 8
Autoscroll
+/-
esc
set tempo
stop
Contributor
Hey! There's an official Ultimate Guitar app which is ideal
for learning songs when you're away from computer. Get the app
WARNING: You are trying to view
                                    content from Ultimate-Guitar.com
                                    in an unauthorized application,
                                    which is prohibited.

                                    Please use an official Ultimate
                                    Guitar Tabs application for iPhone,
                                    iPad or Android to access legitimate
                                    chords, guitar, bass, and drum tabs
                                    from Ultimate-Guitar.com database.

                                    Type "ultimate guitar tabs" in Apple
                                    App Store's or Android Market's
                                    search to find the application.
Title       : Do you know this feeling
Artist      : Sponge cola

Ear tabber  : ROGEM S. BATTUNG
Address     : Palawan St. Sampaloc Manila
E-mail add 1: Guitarizta_rogem@yahoo.com
Contact no  : 09103887102

School      : EARIST B.S. APPLIED PHYSICS-1
Time Elapsed: 
Date        : Dec 16 2006

this song is part of their new Album named Transit if you want the complete 
tabs of the Album just type in the "song name" inputbar "Transit"

"""makikita nyo naman name ko dun ehh qng sino gumawa"""

|==========================================================================|
|============================READ FIRST====================================|
|==========================================================================|

ROGEM -> sa mga chord user na Gusto matuto na gumamit ng tab my instruction
         send kyo ng message sa Friendster " Guitarizta_rogem@yahoo.com or 
         Email nyo ako Guitarizta_gem@yahoo.com sabihin nyo kung kailangan 
         nyo ng Instruction sa pagbasa ng Tab forward ko sa inyo T.y.

ROGEM -> Gumawa ako ng dalwang tunning n2 ung naka E-Stadard & naka Eb   
         gumawa ako nun para sa hindi pa marunong mag tono ng Eb-tunning..
         pero mas reccomend ko pa din Eb kc dun talaga nila ginawa ung song
         
ROGEM -> Dedicate ko ulit 2 sa lahat ng Friends ko lahat ng BS APPLIED 
         PHYSICS mga BS. COMPUTER SCIENCE mga BS. MATH at mga BS.PSYCHOLOGY 
         lahat ng taga C.A.S. at lahat ng taga EARIST hehehe

ROGEM -> any suggestion and Comment txt 09103887102 send kyo ng Msj sa 
         Friendster Guitarizta_rogem@yahoo.com

|==========================================================================|
|==========================================================================|
|==========================================================================|

|==================================================|
|==================================================|
|						   |
|            DO YOU KNOW THIS FEELING-E            |
|						   |
|==================================================|
|==================================================|

Transcribed by: ROGEM S. BATTUNG
School        : EARIST B.S. APPLIED PHYSICS 
Time Elapsed  : 11:00-11:20
Date          : Dec 16 2006
Contact no    : 09103887102


GTR I
    C#		C#/C       Fm		F
e|-----------|----------|----------|----------|
B|-----------|----------|----------|----------|
G|-66666666--|-55555555-|----------|----------|4x
D|-66666666--|-66666666-|-33333333-|-44444444-|
A|-44444444--|-33333333-|-33333333-|-44444444-|
E|-----------|----------|-11111111-|-22222222-|
GTR II
e|--9------------|
B|-9-9---8-10-11-| papasok to sa 3r & 4rt round
G|-------8-10-11-| gawin nyo 2 sa bawat chords ha
D|---------------|
A|---------------|
E|---------------|

I look back to me and what do i see It must have been 1993
Had no other care but the wave of your hair and the way you
wouldnt-look at me
What happened that day has managed to stay through a decade worth
of-misery
But what did I miss, a moment of bliss the best of all the years
gone by

e|----------|
B|----------|
G|----------|
D|-6-6------|
A|-6-6------|
E|-4-4------|

CHORUS

   F#              G#
e|--------------|---------|
B|--------------|---------|
G|--------------|---------|3x
D|-444444444444-|-6-6-----|
A|-444444444444-|-6-6-----|
E|-222222222222-|-4-4-----|
   Do you know the feeling
   Do you know the feeling
   Do you know the feeling
e|----------|
B|----------|
G|----------|
D|-44444444-|
A|-44444444-|
E|-22222222-|
   Do you know the feeling

   Ebm         Fm          F#          G#               G#
e|----------|----------|----------|----------|    |---------|
B|----------|----------|----------|----------|    |---------|
G|-88888888-|----------|----------|----------| 2x |---------|
D|-88888888-|-33333333-|-44444444-|-66666666-|then|-6-6-----|
A|-66666666-|-33333333-|-44444444-|-66666666-|	   |-6-6-----|
E|----------|-11111111-|-22222222-|-44444444-|    |-4-4-----|
   I want to hold your hand and try| to dance but I cant
   I want this just one kiss the years fall away


   F#              G#
e|--------------|---------|
B|--------------|---------|
G|--------------|---------|3x
D|-444444444444-|-6-6-----|
A|-444444444444-|-6-6-----|
E|-222222222222-|-4-4-----|
   Do you know the feeling
   Do you know the feeling
   Do you know the feeling
e|----------|
B|----------|
G|----------|
D|-44444444-|
A|-44444444-|
E|-22222222-|
  Do you know the
   Ebm         Fm          F#          G#
e|----------|----------|----------|----------|
B|----------|----------|----------|----------|
G|-88888888-|----------|----------|----------|3x
D|-88888888-|-33333333-|-44444444-|-66666666-|
A|-66666666-|-33333333-|-44444444-|-66666666-|
E|----------|-11111111-|-22222222-|-44444444-|
   I want to hold your hand but time moves faster now that
   I stand still so speechless how can I bridge the distance
   It just might feel so right if you could hold me tonight

   Bbm              B        F#         G#
e|----------|----------|----------|----------|
B|----------|----------|----------|----------|
G|-33333333-|-44444444-|----------|----------|
D|-33333333-|-44444444-|-44444444-|-----6----|
A|-11111111-|-22222222-|-44444444-|-----6----|
E|----------|----------|-22222222-|-----4----|
   I want this just one kiss The years fall away

SOLO

e|-----------------------------|
B|-----------------------------|
G|-8/10-8-6---6-----6--6-------|
D|----------8--6h8---8----6-6--|
A|------------------------6-6--|
E|------------------------4-4--|

GTR I
    F#		   A
e|--------------|--------|
B|--------------|--------|
G|--------------|--------|
D|-444444444444-|--------|
A|-444444444444-|-3-4----|
E|-222222222222-|-----4--|

GTR II
e|------------------------9--9---11s13-13-13s11-9-----------|
B|-------------------8s11------11--------------------9------|
G|8s10-8-8-6------------------------------------------------|
D|-----------8----------------------------------------------|
A|----------------------------------------------------------|
E|----------------------------------------------------------|

ROGEM - > full bend nyo ung 17b ha hangang maging
	  kasing 2nog nya ung 18 eb String ung 20 half bend
	  lang

GTR II
    f.b.  f.b.  f.b.            h.b.
e|-17b---17b---17b--18p17p15---20b-----21-21-21-18-18-------|
B|----------------------------------------------------------|
G|----------------------------------------------------------|
D|----------------------------------------------------------|
A|----------------------------------------------------------|
E|----------------------------------------------------------|


CHORUS
GTR I
e|------------------|
B|------------------|
G|------------------|
D|-4----------------|2x
A|-4--------3-4-----|
E|-2------------4---|
Do you know the feeling
Do you know the feeling

GTR I
e|------------------|
B|------------------|
G|------------------|
D|-4----------------|
A|-4--------3-4-----|
E|-2------------4---|
GTR II
e|--8b--------|
B|--8b--------|
G|------------|
D|------------|
A|------------|
E|------------|
Do you know the feeling

   F#
e|-------------------|
B|-------------------|
G|-------------------|
D|-4-x-x-x-x---------|
A|-4-x-x-x-x---------|
E|-2-x-x-x-x-2/10\---|
   Do you know that

   Ebm         Fm          F#          G#
e|----------|----------|----------|----------|
B|----------|----------|----------|----------|
G|-88888888-|----------|----------|----------|2x
D|-88888888-|-33333333-|-44444444-|-66666666-|
A|-66666666-|-33333333-|-44444444-|-66666666-|
E|----------|-11111111-|-22222222-|-44444444-|
   I want this just one kiss tonight its all that matters
   I want this just one kis and it will all be over

GTR I

   Fm          Gm         G#             Bb
e|----------|----------|----------|----------|
B|----------|----------|----------|----------|
G|----------|----------|----------|----------|4x
D|-33333333-|-55555555-|-66666666-|-88888888-|GTR II
A|-33333333-|-55555555-|-66666666-|-88888888-|sa 3rd
E|-11111111-|-33333333-|-44444444-|-66666666-|round

GTR II
e|----------|----------|----------|----------|
B|-44444444-|-66666666-|-88888888-|-11(8x)---|
G|----------|----------|----------|----------|
D|----------|----------|----------|----------|
A|----------|----------|----------|----------|
E|----------|----------|----------|----------|
   Whenever, wherever lets finish what we started
   From back then, my silence spoke through a ten year absence
   In secret still feel it just take my hand and follow
   Walk with me til tomorrow you wont have to dance

VERSE III

    Eb         Eb/D       Gm          G#
e|----------|----------|----------|----------|
B|----------|----------|----------|----------|
G|-88888888-|-77777777-|----------|----------|
D|-88888888-|-88888888-|-55555555-|-66666666-|
A|-66666666-|-55555555-|-55555555-|-66666666-|
E|----------|----------|-33333333-|-44444444-|
Now Dat I c yuve grown out of me I guess its back to reality
One night at the park held your hands in the park made some promises we
couldnt keep
Some days I had won now here i am on, a tym and place apart from me
And what did I miss, a moment of bliss the best of all the years
gone by


   G#
e|---------|
B|---------|
G|---------|
D|-6-------|
A|-6-------|
E|-4-------|


ROGEM -> any suggestion and Comment txt 09103887102 send kyo ng Msj sa 
         Friendster Guitarizta_rogem@yahoo.com


|==========================================================================|
|==========================================================================|
|==========================================================================|

this song is part of their new Album named Transit if you want the complete 
tabs of the Album just type in the "song name" inputbar "Transit"

"""makikita nyo naman name ko dun ehh qng sino gumawa"""


|==========================================================================|
|==========================EB=TUNNING======================================|
|==========================================================================|

|==================================================|
|==================================================|
|						   |
|            DO YOU KNOW THIS FEELING              |
|						   |
|==================================================|
|==================================================|

Transcribed by: ROGEM S. BATTUNG
School        : EARIST B.S. APPLIED PHYSICS 
Time Elapsed  : 11:00-11:20
Date          : Dec 16 2006
Contact no    : 09103887102

VERSE

eb|----------|----------|----------|----------|
Bb|----------|----------|----------|----------|
Gb|----------|----------|----------|----------|
Db|----------|----------|----------|----------|
Ab|----------|----------|----------|----------|
Eb|----------|----------|----------|----------|

GTR I
	D	DM7/C#       F#m	G
eb|-----------|----------|----------|----------|
Bb|-----------|----------|----------|----------|
Gb|-77777777--|-66666666-|----------|----------|4x
Db|-77777777--|-77777777-|-44444444-|-55555555-|
Ab|-55555555--|-44444444-|-44444444-|-55555555-|
Eb|-----------|----------|-22222222-|-33333333-|
GTR II
eb|--10-----------|
Bb|10--10-9-11-12-| papasok to sa 3r & 4rt round
Gb|-------9-11-12-| gawin nyo 2 sa bawat chords ha
Db|---------------|
Ab|---------------|
Eb|---------------|

I look back to me and what do i see It must have been 1993
Had no other care but the wave of your hair and the way you
wouldnt-look at me
What happened that day has managed to stay through a decade worth
of-misery
But what did I miss, a moment of bliss the best of all the years
gone by

eb|----------|
Bb|----------|
Gb|----------|
Db|-7-7------|
Ab|-7-7------|
Eb|-5-5------|

CHORUS

    G              A
eb|--------------|---------|
Bb|--------------|---------|
Gb|--------------|---------|3x
Db|-555555555555-|-7-7-----|
Ab|-555555555555-|-7-7-----|
Eb|-333333333333-|-5-5-----|
   Do you know the feeling
   Do you know the feeling
   Do you know the feeling
eb|----------|
Bb|----------|
Gb|----------|
Db|-55555555-|
Ab|-55555555-|
Eb|-33333333-|
   Do you know the feeling

   Em         F#m         G          A               A
eb|----------|----------|----------|----------|    |---------|
Bb|----------|----------|----------|----------|    |---------|
Gb|----------|----------|----------|----------| 2x |---------|
Db|-22222222-|-44444444-|-55555555-|-77777777-|then|-7-7-----|
Ab|-22222222-|-44444444-|-55555555-|-77777777-|	   |-7-7-----|
Eb|-00000000-|-22222222-|-33333333-|-55555555-|    |-5-5-----|
   I want to hold your hand and try| to dance but I cant
   I want this just one kiss the years fall away


    G              A
eb|--------------|---------|
Bb|--------------|---------|
Gb|--------------|---------| 3x
Db|-555555555555-|-7-7-----|
Ab|-555555555555-|-7-7-----|
Eb|-333333333333-|-5-5-----|
   Do you know the feeling
   Do you know the feeling
   Do you know the feeling
eb|----------|
Bb|----------|
Gb|----------|
Db|-55555555-|
Ab|-55555555-|
Eb|-33333333-|
  Do you know the

   Em         F#m         G          A
eb|----------|----------|----------|----------|
Bb|----------|----------|----------|----------|
Gb|----------|----------|----------|----------|
Db|-22222222-|-44444444-|-55555555-|-77777777-|3x
Ab|-22222222-|-44444444-|-55555555-|-77777777-|
Eb|-00000000-|-22222222-|-33333333-|-55555555-|
   I want to hold your hand but time moves faster now that
   I stand still so speechless how can I bridge the distance
   It just might feel so right if you could hold me tonight

   Bm              C          G          A
eb|----------|----------|----------|----------|
Bb|----------|----------|----------|----------|
Gb|-44444444-|-55555555-|----------|----------|
Db|-44444444-|-55555555-|-55555555-|-----7----|
Ab|-22222222-|-33333333-|-55555555-|-----7----|
Eb|----------|----------|-33333333-|-----5----|
   I want this just one kiss The years fall away

SOLO

eb|-----------------------------|
Bb|-----------------------------|
Gb|-9/11-9-7---7-----7--7-------|
Db|----------9--7h9---9----7-7--|
Ab|------------------------7-7--|
Eb|------------------------5-5--|

GTR I
    G		   A
eb|--------------|--------|
Gb|--------------|--------|
Gb|--------------|--------|
Db|-555555555555-|--------|
Ab|-555555555555-|-4-5-0--|
Eb|-333333333333-|--------|

GTR II
eb|-----------------------10-10---12s14-14-14s12-10----------|
Bb|-------------------9s12------12--------------------10-----|
Gb|9s11-9-9-7------------------------------------------------|
Db|-----------9----------------------------------------------|
Ab|----------------------------------------------------------|
Eb|----------------------------------------------------------|

ROGEM - > full bend nyo ung 17b ha hangang maging
	  kasing 2nog nya ung 19 eb String ung 21 half bend
	  lang

GTR II
    f.b.  f.b.  f.b.            h.b.
eb|-17b---17b---17b--19p18p16---21b-----22-22-22-19-19-------|
Bb|----------------------------------------------------------|
Gb|----------------------------------------------------------|
Db|----------------------------------------------------------|
Ab|----------------------------------------------------------|
Eb|----------------------------------------------------------|


CHORUS
GTR I
eb|------------------|
Bb|------------------|
Gb|------------------|
Db|-5----------------|2x
Ab|-5--------4h5-0---|
Eb|-3--------------3-|
Do you know the feeling
Do you know the feeling

GTR I
eb|------------------|
Bb|------------------|
Gb|------------------|
Db|-5----------------|
Ab|-5--------4-5-0---|
Eb|-3----------------|
GTR II
eb|--9b--------|
Bb|--9b--------|
Gb|------------|
Db|------------|
Ab|------------|
Eb|------------|
Do you know the feeling

   G
e|-------------------|
B|-------------------|
G|-------------------|
D|-5-x-x-x-x---------|
A|-5-x-x-x-x---------|
E|-3-x-x-x-x-3/11\---|
   Do you know that

   Em         F#m         G          A
eb|----------|----------|----------|----------|
Bb|----------|----------|----------|----------|
Gb|----------|----------|----------|----------|
Db|-22222222-|-44444444-|-55555555-|-77777777-|2x
Ab|-22222222-|-44444444-|-55555555-|-77777777-|
Eb|-00000000-|-22222222-|-33333333-|-55555555-|
   I want this just one kiss tonight its all that matters
   I want this just one kis and it will all be over

GTR I

   F#m        G#m        A             B
eb|----------|----------|----------|----------|
Bb|----------|----------|----------|----------|
Gb|----------|----------|----------|----------|4x
Db|-44444444-|-66666666-|-77777777-|-99999999-|GTR II
Ab|-44444444-|-66666666-|-77777777-|-99999999-|sa 3rd
Eb|-22222222-|-44444444-|-55555555-|-77777777-|round

GTR II
eb|----------|----------|----------|----------|
Bb|-55555555-|-77777777-|-99999999-|-12(8x)---|
Gb|----------|----------|----------|----------|
Db|----------|----------|----------|----------|
Ab|----------|----------|----------|----------|
Eb|----------|----------|----------|----------|
   Whenever, wherever lets finish what we started
   From back then, my silence spoke through a ten year absence
   In secret still feel it just take my hand and follow
   Walk with me til tomorrow you wont have to dance

VERSE III

    E          E/Eb       G#m             A
eb|----------|----------|----------|----------|
Bb|----------|----------|----------|----------|
Gb|-99999999-|-88888888-|----------|----------|
Db|-99999999-|-99999999-|-66666666-|-77777777-|
Ab|-77777777-|-66666666-|-66666666-|-77777777-|
Eb|----------|----------|-44444444-|-55555555-|
Now Dat I c yuve grown out of me I guess its back to reality
One night at the park held your hands in the park made some promises we
couldnt keep
Some days I had won now here i am on, a tym and place apart from me
And what did I miss, a moment of bliss the best of all the years
gone by


   A
e|---------|
B|---------|
G|---------|
D|-7-------|
A|-7-------|
E|-5-------|

ROGEM -> any suggestion and Comment txt 09103887102 send kyo ng Msj sa 
         Friendster Guitarizta_rogem@yahoo.com

|==========================================================================|
|==========================================================================|
|==========================================================================|

this song is part of their new Album named Transit if you want the complete 
tabs of the Album just type in the "song name" inputbar "Transit"

"""makikita nyo naman name ko dun ehh qng sino gumawa"""
comments
print report bad tab
1 comment total.
0 reply
Henyo_ako wrote on April 9 2007, 10:19 pm

To: Guitarizta_gem
kaw din nag ra rate mga tab mo. Ulol!!
kahit di pa sikat ng mga ibang kanta ng sponge cola antaas na ng rating ng mga tab mo. gawa mo rate mo!! GEt lost

I want to post or [tab]
guest
You may want to rate the tab now too:
select rating
Please do not post tabs as comments. Select "correction" instead!