Oops, an error
Loading. Please wait.

Gunita Tab

7,606 views 3 this week
4 commentsread comments
1 2 3 4 5
excellent!
x 8
Autoscroll
+/-
esc
set tempo
stop
Contributor
Hey! There's an official Ultimate Guitar app which is ideal
for learning songs when you're away from computer. Get the app
WARNING: You are trying to view
                                    content from Ultimate-Guitar.com
                                    in an unauthorized application,
                                    which is prohibited.

                                    Please use an official Ultimate
                                    Guitar Tabs application for iPhone,
                                    iPad or Android to access legitimate
                                    chords, guitar, bass, and drum tabs
                                    from Ultimate-Guitar.com database.

                                    Type "ultimate guitar tabs" in Apple
                                    App Store's or Android Market's
                                    search to find the application.
Title       : Gunita
Artist      : Sponge cola

Ear tabber  : ROGEM S. BATTUNG
Address     : Palawan St. Sampaloc Manila
E-mail add 1: Guitarizta_rogem@yahoo.com
Contact no  : 09103887102

School      : EARIST B.S. APPLIED PHYSICS-1
Time Elapsed: 
Date        : Dec 16 2006

this is Gunita part of their new Album named Transit if you want the complete 
tabs of the Album just type in the "song name" inputbar "Transit"
 

"""makikita nyo naman name ko dun ehh qng sino gumawa"""

|==========================================================================|
|============================READ FIRST====================================|
|==========================================================================|

ROGEM -> sa mga chord user na Gusto matuto na gumamit ng tab my instruction
         send kyo ng message sa Friendster " Guitarizta_rogem@yahoo.com or 
         Email nyo ako Guitarizta_gem@yahoo.com sabihin nyo kung kailangan 
         nyo ng Instruction sa pagbasa ng Tab forward ko sa inyo T.y.

ROGEM -> Gumawa ako ng dalwang tunning n2 ung naka E-Stadard & naka Eb   
         gumawa ako nun para sa hindi pa marunong mag tono ng Eb-tunning..
         pero mas reccomend ko pa din Eb kc dun talaga nila ginawa ung song
         
ROGEM -> Dedicate ko ulit 2 sa lahat ng Friends ko lahat ng BS APPLIED 
         PHYSICS mga BS. COMPUTER SCIENCE mga BS. MATH at mga BS.PSYCHOLOGY 
         lahat ng taga C.A.S. at lahat ng taga EARIST hehehe


|==================================================|
|==================================================|
|						   |
|                     GUNITA-E                     |
|						   |
|==================================================|
|==================================================|

Transcribed by: ROGEM S. BATTUNG
School        : EARIST B.S. APPLIED PHYSICS 
Time Elapsed  : 9:00-9:37
Date          : Dec 16 2006
Contact no    : 09103887102


ROGEM -> e2 ung mga riffs sasabay nyo 2 dun sa song
	 nakalagay din d2 kaylan nyo ipplay ung mga
         riffs ginawa talaga 2ng mga riffs na 2 sa
         Bb & Gb Strings kso ung iba mahi2rapan lalo
         na ung gumagamit ng nylon kya gumawa ng nasa
	 Gb and Bb na String

ROGEM -> d2 sa E standard tunning medyo may binago ako pero wag
	 kyo mag alala ganun pa din ung 2nog nya 
	 mas reccomend ko eb tunning kc dun nila pinlay ung song


  RIFF I
e|------|  |-2/9--|
B|-7/14-|or|-2/9--|
G|-6/13-|  |------|


  RIFF II
e|------|  |--9\6-|
B|-14\11|or|------|
G|------|  |------|


  RIFF III
e|------|  |-11\6-|
B|-16\11|or|------|
G|------|  |------|


INTRO


VERSE 1:
GTR I
     B           C#	    Ebm		  C#sus/F
e|--2222222-----xxxxxxx----xxxxxxx-------1111111----|
B|--4444444-----6666666----4444444-------2222222----|
G|--4444444-----6666666----6666666-------1111111----|
D|--4444444-----6666666----4444444-------3333333----|
A|--2222222-----4444444----6666666-------xxxxxxx----|
E|---------------------------------------xxxxxxx----|
GTR II
  |--RIFF I-----------------RIFF II-------RIFF I-----|

   Patuloy na pumapatak  Ang bawat sandaling natitira

GTR I
     B           C#	    Ebm
e|--2222222-----xxxxxxx----xxxxxxx------------------|
B|--4444444-----6666666----4444444------------------|
G|--0000000-----2222222----0000000------------------|
D|--4444444-----6666666----4444444------------------|
A|--2222222-----4444444----6666666------------------|
E|--------------------------------------------------|
GTR II
  |--RIFF I-----------------RIFF II------------------|

     Habang ikay kapiling ko


GTR I
     B           C#	    Ebm		  C#sus/F
e|--2222222-----xxxxxxx----xxxxxxx-------1111111----|
B|--4444444-----6666666----4444444-------2222222----|
G|--4444444-----6666666----6666666-------1111111----|
D|--4444444-----6666666----4444444-------3333333----|
A|--2222222-----4444444----6666666-------xxxxxxx----|
E|---------------------------------------xxxxxxx----|
GTR II
  |--RIFF I-----------------RIFF II-------RIFF I-----|
   Siguro ngay maraming dahilanKang maibibigay ngunit


GTR I
     B           C#	    Ebm		  C#sus/F
e|--2222222-----xxxxxxx----xxxxxxx-------1111111----|
B|--4444444-----6666666----4444444-------2222222----|
G|--4444444-----6666666----6666666-------1111111----|
D|--4444444-----6666666----4444444-------3333333----|
A|--2222222-----4444444----6666666-------xxxxxxx----|
E|---------------------------------------xxxxxxx----|
GTR II
e|--------------------------R-------------1~~~~~----|
B|--------------------------I------4------2~~~~~----|
G|--------------------------F-----6-6---------------|
D|--------------------------F----4---4--------------|
A|--------------------------2---6-------------------|
E|--------------------------------------------------|
   Ako ay may isang tanong

CHORUS

GTR I
     B		      F#
e|--2222222----------2222222------------------------|
B|--4444444----------2222222------------------------|
G|--4444444----------3333333------------------------|
D|--4444444----------4444444------------------------|
A|--2222222----------4444444------------------------|
E|-------------------2222222------------------------|
GTR II
e|--1h2-/9------------11s6--------------------------|
B|--2---/9---------------6--------------------------|
   Di ka ba magtatagal


GTR I
     B            Bm           F#
e|--2222222------222----------2222222---------------|
B|--4444444------333----------2222222---------------|
G|--4444444------444----------3333333---------------|
D|--4444444------444----------4444444---------------|
A|--2222222------222----------4444444---------------|
E|----------------------------2222222---------------|
GTR II
e|--1s2s9---------------------7p6-6-----------------|
B|--------------------------------------------------|
    Pagtigil moy dalangin na aking inaasam

GTR I
     B		      F#
e|--2222222----------2222222------------------------|
B|--4444444----------2222222------------------------|
G|--4444444----------3333333------------------------|
D|--4444444----------4444444------------------------|
A|--2222222----------4444444------------------------|
E|-------------------2222222------------------------|
GTR II
e|---1s2s9------------11s6--------------------------|
B|--------------------------------------------------|
       Siguro ngay paalam na


GTR I
     G#m      Bbm   B     C#    F#
e|--4--------1-----2-----4-----2--------------------|
B|--4--------2-----4-----6-----2--------------------|
G|--4--------3-----4-----6-----3--------------------|
D|--6--------3-----4-----6-----4--------------------|
A|--6--------1-----2-----4-----4--------------------|
E|--4--------------------------2--------------------|
GTR II
  |--RIFF-1---------------11h13-14-------------------|
    Subalit may iiwan kang puwang

VERSE II

GTR I
     B           C#	    Ebm		  C#sus/F
e|--2222222-----xxxxxxx----xxxxxxx-------1111111----|
B|--4444444-----6666666----4444444-------2222222----|2x
G|--4444444-----6666666----6666666-------1111111----|sa round 2
D|--4444444-----6666666----4444444-------3333333----|papasok ung
A|--2222222-----4444444----6666666-------xxxxxxx----|GTR II
E|---------------------------------------xxxxxxx----|
GTR II
e|--------------------------R-------------1~~~~~----|
B|--------------------------I------4------2~~~~~----|
G|--------------------------F-----6-6---------------|
D|--------------------------F----4---4--------------|
A|--------------------------2---6-------------------|
E|--------------------------------------------------|
Kung kaya kong pigilan lang ang oras Sa kanyang pintig
Asahan mong akoy di hihinto

CHORUS

GTR I
     B		      F#
e|--2222222----------2222222------------------------|
B|--4444444----------2222222------------------------|
G|--4444444----------3333333------------------------|3x
D|--4444444----------4444444------------------------|
A|--2222222----------4444444------------------------|
E|-------------------2222222------------------------|
GTR II
  |--1s2s9------------RIFF-3-------------------------|
  |------9-------------------------------------------|
       Akoy isang manhid na di makikinig
       Sa bawat sasabihin ng mundo
       Akoy isang manhid na di makikinig


GTR I
     G#m      Bbm   B     C#    F#
e|--4--------1-----2-----4-----2--------------------|
B|--4--------2-----4-----6-----2--------------------|
G|--4--------3-----4-----6-----3--------------------|
D|--6--------3-----4-----6-----4--------------------|
A|--6--------1-----2-----4-----4--------------------|
E|--4--------------------------2--------------------|
      Hanggang ikaw pay naririto
GTR II
e|--------------------------------------------------|
B|--------------------------------------------------|
G|--------------------------------------------------|
D|------------------------------55555555------------|
A|------------------------------55555555------------|
E|------------------------------33333333------------|

SOLO

GTR I
     B           C#	    Ebm		  C#sus/F
e|--2222222-----xxxxxxx----xxxxxxx-------1111111----|
B|--4444444-----6666666----4444444-------2222222----|
G|--4444444-----6666666----6666666-------1111111----|
D|--4444444-----6666666----4444444-------3333333----|
A|--2222222-----4444444----6666666-------xxxxxxx----|
E|---------------------------------------xxxxxxx----|
 GTR II
     C     	 D          Em             D/F#
e|--------------------------------------------------|
B|-6s7----------7s9--------11-11--------------------|
G|--------------------------------------------------|

GTR I
     B           C#	    Ebm
e|--2222222-----xxxxxxx----xxxxxxx------------------|
B|--4444444-----6666666----4444444------------------|
G|--0000000-----2222222----0000000------------------|
D|--4444444-----6666666----4444444------------------|
A|--2222222-----4444444----6666666------------------|
E|--------------------------------------------------|
GTR II
   C              D          Em
e|-6\9----------------------------------------------|
B|-------------11-11--------9--9--------------------|
G|--------------------------------------------------|

GTR I
     B           C#	    Ebm		  C#sus/F
e|--2222222-----xxxxxxx----xxxxxxx-------1111111----|
B|--4444444-----6666666----4444444-------2222222----|
G|--4444444-----6666666----6666666-------1111111----|
D|--4444444-----6666666----4444444-------3333333----|
A|--2222222-----4444444----6666666-------xxxxxxx----|
E|---------------------------------------xxxxxxx----|
GTR II
e|--6s9---------------------------------------------|
B|--------------6-6-7----7-/-14--------11-11s9---9s7|
G|----------------------(6)/(13)--------------------|


GTR I
     B           C#	    Ebm		  C#sus/F
e|--2222222-----xxxxxxx----xxxxxxx-------1111111----|
B|--4444444-----6666666----4444444-------2222222----|
G|--4444444-----6666666----6666666-------1111111----|
D|--4444444-----6666666----4444444-------3333333----|
A|--2222222-----4444444----6666666-------xxxxxxx----|
E|---------------------------------------xxxxxxx----|
GTR II
   C       	 D          Em                D/F#
e|-----------------------------------------------6s9-|
B|-7-/-11------9---9s7-7s6-4--------4-6-7-6-7-9------|
G|(8)/(9)--------------------------------------------|


CHORUS

GTR I
     B		      F#
e|--2222222----------2222222------------------------|
B|--4444444----------2222222------------------------|
G|--4444444----------3333333------------------------|
D|--4444444----------4444444------------------------|
A|--2222222----------4444444------------------------|
E|-------------------2222222------------------------|
GTR II
  |--RIFF-I-----------RIFF-II------------------------|
     Di ka ba magtatagal

GTR I
     B            Bm           F#
e|--2222222------222----------2222222---------------|
B|--4444444------333----------2222222---------------|
G|--4444444------444----------3333333---------------|
D|--4444444------444----------4444444---------------|
A|--2222222------222----------4444444---------------|
E|----------------------------2222222---------------|
GTR II
e|--R-----------------------------------------------|
B|--I-----------------------------------------------|
G|--F-----------------------------------------------|
D|--F----------------------------8------------------|
A|--1-------------------------4s-9------------------|
E|--------------------------------------------------|
Pagtigil moy dalangin na aking inaasam

GTR I
     B		      F#
e|--2222222----------2222222------------------------|
B|--4444444----------2222222------------------------|
G|--4444444----------3333333------------------------|
D|--4444444----------4444444------------------------|
A|--2222222----------4444444------------------------|
E|-------------------2222222------------------------|
GTR II
e|--2s11--------------------------------------------|
B|--------------------2s9---------------------------|
G|----------------------8---------------------------|
D|--------------------------------------------------|
A|--------------------------------------------------|
E|--------------------------------------------------|
     Siguro ngay paalam na


GTR I
     G#m      Bbm   B     C#    F#
e|--4--------1-----2-----4-----2--------------------|
B|--4--------2-----4-----6-----2--------------------|
G|--4--------3-----4-----6-----3--------------------|
D|--6--------3-----4-----6-----4--------------------|
A|--6--------1-----2-----4-----4--------------------|
E|--4--------------------------2--------------------|
GTR II
e|--2s15------------7s11--18------------------------|
B|--------------------------------------------------|
G|--------------------------------------------------|
D|--------------------------------------------------|
A|--------------------------------------------------|
E|--------------------------------------------------|
Subalit may iiwan kang puwang


GTR I
     B           C#	    Ebm		  C#sus/F
e|--2222222-----xxxxxxx----xxxxxxx-------1111111----|
B|--4444444-----6666666----4444444-------2222222----|
G|--4444444-----6666666----6666666-------1111111----|
D|--4444444-----6666666----4444444-------3333333----|
A|--2222222-----4444444----6666666-------xxxxxxx----|
E|---------------------------------------xxxxxxx----|
Patuloy na pumapatak  Ang bawat sandaling natitira

GTR I
     B           C#	    Ebm
e|--2222222-----xxxxxxx----xxxxxxx------------------|
B|--4444444-----6666666----4444444------------------|
G|--0000000-----2222222----0000000------------------|
D|--4444444-----6666666----4444444------------------|
A|--2222222-----4444444----6666666------------------|
E|--------------------------------------------------|
GTR II
  |-------------------------RIFF II------------------|
  Habang ikay kapiling ko


ROGEM -> any suggestion and Comment txt 09103887102 send kyo ng Msj sa 
         Friendster Guitarizta_rogem@yahoo.com


|==========================================================================|
|============================EB=TUNNING====================================|
|==========================================================================|

this is GUnita part of their new Album named Transit if you want the complete 
tabs of the Album just type in the "song name" inputbar "Transit"
 

"""makikita nyo naman name ko dun ehh qng sino gumawa"""

|==================================================|
|==================================================|
|						   |
|                     GUNITA                       |
|						   |
|==================================================|
|==================================================|

Transcribed by: ROGEM S. BATTUNG
School        : EARIST B.S. APPLIED PHYSICS 
Time Elapsed  : 9:00-9:37
Date          : Dec 16 2006
Contact no    : 09103887102

ROGEM -> e2 ung mga riffs sasabay nyo 2 dun sa song
	 nakalagay din d2 kaylan nyo ipplay ung mga
         riffs ginawa talaga 2ng mga riffs na 2 sa
         Bb & Gb Strings kso ung iba mahi2rapan lalo
         na ung gumagamit ng nylon kya gumawa ng nasa
	 Gb and Bb na String

  RIFF I
eb|------|  |-3/10-|
Bb|-8/15-|or|-3/10-|
Gb|-7/14-|  |------|


  RIFF II
eb|------|  |-10\7-|
Bb|-15\12|or|------|
Gb|------|  |------|


  RIFF III
eb|------|  |-12\7-|
Bb|-17\12|or|------|
Gb|------|  |------|

ROGEM - > pwd nyo gamitin khit ano sa dalawang 2
	  qng san kyo comfortable

    D/F#           D/F#
eb|-222222---|  |--222222--|
Bb|-333333---|  |--333333--|
Gb|-222222---|or|--222222--|
Db|-444444---|  |--000000--|
Ab|-xxxxxx---|  |--xxxxxx--|
Eb|-xxxxxx---|  |--222222--|

INTRO


VERSE 1:
GTR I
     C           D	    Em7		  Dsus/F#
eb|--0000000-----2222222----0000000-------2222222----|
Bb|--1111111-----3333333----3333333-------3333333----|
Gb|--0000000-----2222222----0000000-------2222222----|
Db|--2222222-----0000000----2222222-------4444444----|
Ab|--3333333----------------2222222-------xxxxxxx----|
Eb|-------------------------0000000-------xxxxxxx----|
GTR II
  |--RIFF I-----------------RIFF II-------RIFF I-----|

   Patuloy na pumapatak  Ang bawat sandaling natitira

GTR I
     C           D	    Em7
eb|--0000000-----2222222----0000000------------------|
Bb|--1111111-----3333333----3333333------------------|
Gb|--0000000-----2222222----0000000------------------|
Db|--2222222-----0000000----2222222------------------|
Ab|--3333333----------------2222222------------------|
Eb|-------------------------0000000------------------|
GTR II
  |--RIFF I-----------------RIFF II------------------|

     Habang ikay kapiling ko


GTR I
     C           D	    Em7		  Dsus/F#
eb|--0000000-----2222222----0000000-------2222222----|
Bb|--1111111-----3333333----3333333-------3333333----|
Gb|--0000000-----2222222----0000000-------2222222----|
Db|--2222222-----0000000----2222222-------4444444----|
Ab|--3333333----------------2222222-------xxxxxxx----|
Eb|-------------------------0000000-------xxxxxxx----|
GTR II
  |--RIFF I-----------------RIFF II-------RIFF I-----|
   Siguro ngay maraming dahilanKang maibibigay ngunit



GTR I
     C           D	    Em7		  Dsus/F#
eb|--0000000-----2222222----0000000-------2222222----|
Bb|--1111111-----3333333----3333333-------3333333----|
Gb|--0000000-----2222222----0000000-------2222222----|
Db|--2222222-----0000000----2222222-------4444444----|
Ab|--3333333----------------2222222-------xxxxxxx----|
Eb|-------------------------0000000-------xxxxxxx----|
GTR II
eb|--------------------------R-------0-----2~~~~~----|
Bb|--------------------------I------3-3----3~~~~~----|
Gb|--------------------------F-----0---0-------------|
Db|--------------------------F----2------------------|
Ab|--------------------------2-----------------------|
Eb|--------------------------------------------------|
   Ako ay may isang tanong

CHORUS

GTR I
     C                G
eb|--0000000----------3333333------------------------|
Bb|--1111111----------3333333------------------------|
Gb|--0000000----------0000000------------------------|
Db|--2222222----------0000000------------------------|
Ab|--3333333----------2222222------------------------|
Eb|-------------------3333333------------------------|
GTR II
  |--2h3s10-----------12s7---------------------------|
  |--3-3s10--------------7---------------------------|
   Di ka ba magtatagal


GTR I
     C            Cm           G
eb|--0000000------333----------3333333---------------|
Bb|--1111111------444----------3333333---------------|
Gb|--0000000------555----------0000000---------------|
Db|--2222222------555----------0000000---------------|
Ab|--3333333------333----------2222222---------------|
Eb|----------------------------3333333---------------|
GTR II
eb|--2s3s10--------------------8p7-7-----------------|
Bb|--------------------------------------------------|
    Pagtigil moy dalangin na aking inaasam

GTR I
     C                G
eb|--0000000----------3333333------------------------|
Bb|--1111111----------3333333------------------------|
Gb|--0000000----------0000000------------------------|
Db|--2222222----------0000000------------------------|
Ab|--3333333----------2222222------------------------|
Eb|-------------------3333333------------------------|
GTR II
eb|---2s3s10-----------12s7--------------------------|
Bb|--------------------------------------------------|
       Siguro ngay paalam na


GTR I
     Am      Bm     C     D     G
eb|--0--------2-----0-----3-----3--------------------|
Bb|--1--------3-----1-----2-----3--------------------|
Gb|--2--------4-----0-----3-----0--------------------|
Db|--2--------4-----2-----4-----0--------------------|
Ab|--0--------2-----3-----------2--------------------|
Eb|-----------------------------3--------------------|
GTR II
  |--RIFF-1---------------12h14-15-------------------|
    Subalit may iiwan kang puwang

VERSE II

GTR I
     C           D	    Em7		  Dsus/F#
eb|--0000000-----2222222----0000000-------2222222----|
Bb|--1111111-----3333333----3333333-------3333333----|2x sa round 2 papasok
Gb|--0000000-----2222222----0000000-------2222222----|ung GTR II
Db|--2222222-----0000000----2222222-------4444444----|
Ab|--3333333----------------2222222-------xxxxxxx----|
Eb|-------------------------0000000-------xxxxxxx----|
GTR II
eb|--------------------------R-------0-----2~~~~~----|
Bb|--------------------------I------3-3----3~~~~~----|
Gb|--------------------------F-----0---0-------------|
Db|--------------------------F----2------------------|
Ab|--------------------------2-----------------------|
Eb|--------------------------------------------------|
Kung kaya kong pigilan lang ang oras Sa kanyang pintig
Asahan mong akoy di hihinto

CHORUS

GTR I
     C                G
eb|--0000000----------3333333------------------------|
Bb|--1111111----------3333333------------------------|
Gb|--0000000----------0000000------------------------|
Db|--2222222----------0000000------------------------|3x
Ab|--3333333----------2222222------------------------|
Eb|-------------------3333333------------------------|
GTR II
  |--2s3s10-----------RIFF-3-------------------------|
  |------10------------------------------------------|
       Akoy isang manhid na di makikinig
       Sa bawat sasabihin ng mundo
       Akoy isang manhid na di makikinig


GTR I
     Am      Bm     C     D     G
eb|--0--------2-----0-----3-----3-------strum---3----|
Bb|--1--------3-----1-----2-----3-------pataas>>0----|
Gb|--2--------4-----0-----3-----0---------------0----|
Db|--2--------4-----2-----0-----0---------------0----|
Ab|--0--------2-----3-----------2--------------------|
Eb|-----------------------------3--------------------|
      Hanggang ikaw pay naririto
GTR II
eb|--------------------------------------------------|
Bb|--------------------------------------------------|
Gb|--------------------------------------------------|
Db|------------------------------55555555------------|
Ab|------------------------------55555555------------|
Eb|------------------------------33333333------------|

SOLO

GTR I
     C           D	    Em7		  Dsus/F#
eb|--0000000-----2222222----0000000-------2222222----|
Bb|--1111111-----3333333----3333333-------3333333----|
Gb|--0000000-----2222222----0000000-------2222222----|
Db|--2222222-----0000000----2222222-------4444444----|
Ab|--3333333----------------2222222-------xxxxxxx----|
Eb|-------------------------0000000-------xxxxxxx----|
 GTR II
     C     	 D          Em             D/F#
eb|--------------------------------------------------|
Bb|-7s8----------8s10-------12-12--------------------|
Gb|--------------------------------------------------|

GTR I
     C           D	    Em7
eb|--0000000-----2222222----0000000------------------|
Bb|--1111111-----3333333----0000000------------------|
Gb|--0000000-----2222222----0000000------------------|
Db|--2222222-----0000000----2222222------------------|
Ab|--3333333----------------2222222------------------|
Eb|-------------------------0000000------------------|
GTR II
   C              D          Em
eb|-7\10---------------------------------------------|
Bb|-------------12-12--------10-10-------------------|
Gb|--------------------------------------------------|


GTR I
     C           D	    Em7		  Dsus/F#
eb|--0000000-----2222222----0000000-------2222222----|
Bb|--1111111-----3333333----3333333-------3333333----|
Gb|--0000000-----2222222----0000000-------2222222----|
Db|--2222222-----0000000----2222222-------4444444----|
Ab|--3333333----------------2222222-------xxxxxxx----|
Eb|-------------------------0000000-------xxxxxxx----|
GTR II
eb|--7s10--------------------------------------------|
Bb|--------------7-7-8----8-/-15--------12-12s10-10s8|
Gb|----------------------(7)/(14)--------------------|


GTR I
     C           D	    Em7		  Dsus/F#
eb|--0000000-----2222222----0000000-------2222222----|
Bb|--1111111-----3333333----3333333-------3333333----|
Gb|--0000000-----2222222----0000000-------2222222----|
Db|--2222222-----0000000----2222222-------4444444----|
Ab|--3333333----------------2222222-------xxxxxxx----|
Eb|-------------------------0000000-------xxxxxxx----|
GTR II
   C       	 D          Em                D/F#
e|-----------------------------------------------7s10|
B|-8-/-12------10-10s8-8s7-5--------5-7-8-7-8-10-----|
G|(9)/(10)-------------------------------------------|


CHORUS

GTR I
     C                G
eb|--0000000----------3333333------------------------|
Bb|--1111111----------3333333------------------------|
Gb|--0000000----------0000000------------------------|
Db|--2222222----------0000000------------------------|
Ab|--3333333----------2222222------------------------|
Eb|-------------------3333333------------------------|
GTR II
  |--RIFF-I-----------RIFF-II------------------------|
     Di ka ba magtatagal

GTR I
     C            Cm           G
eb|--0000000------333----------3333333---------------|
Bb|--1111111------444----------3333333---------------|
Gb|--0000000------555----------0000000---------------|
Db|--2222222------555----------0000000---------------|
Ab|--3333333------333----------2222222---------------|
Eb|----------------------------3333333---------------|
GTR II
eb|--R-----------------------------------------------|
Bb|--I-----------------------------------------------|
Gb|--F-----------------------------------------------|
Db|--F----------------------------9------------------|
Ab|--1-------------------------5s10------------------|
Eb|--------------------------------------------------|
Pagtigil moy dalangin na aking inaasam

GTR I
     C                G
eb|--0000000----------3333333------------------------|
Bb|--1111111----------3333333------------------------|
Gb|--0000000----------0000000------------------------|
Db|--2222222----------0000000------------------------|
Ab|--3333333----------2222222------------------------|
Eb|-------------------3333333------------------------|
GTR II
eb|--3s12--------------------------------------------|
Bb|--------------------3s10--------------------------|
Gb|-----------------------9--------------------------|
Db|--------------------------------------------------|
Ab|--------------------------------------------------|
Eb|--------------------------------------------------|
     Siguro ngay paalam na

GTR I
eb|--0-----3----0-----3-----3------------------------|
Bb|--1-----3----1-----3-----3------------------------|
Gb|--2-----0----0-----0-----0------------------------|
Db|--2-----x----2-----x-----0------------------------|
Ab|--0-----2----3-----2-----2------------------------|
Eb|-------------------------3------------------------|
GTR II
eb|--3s16------------8s12--19------------------------|
Bb|--------------------------------------------------|
Gb|--------------------------------------------------|
Db|--------------------------------------------------|
Ab|--------------------------------------------------|
Eb|--------------------------------------------------|
Subalit may iiwan kang puwang


GTR I
     C           D	    Em7		  Dsus/F#
eb|--0000000-----2222222----0000000-------2222222----|
Bb|--1111111-----3333333----3333333-------3333333----|
Gb|--0000000-----2222222----0000000-------2222222----|
Db|--2222222-----0000000----2222222-------4444444----|
Ab|--3333333----------------2222222-------xxxxxxx----|
Eb|-------------------------0000000-------xxxxxxx----|
Patuloy na pumapatak  Ang bawat sandaling natitira
GTR II
GTR II
eb|-----0-----------3----------0-------------2----2--|
Bb|----3-3---------2-2--------3-3-----------3-3---3--|
Gb|---0-----------3---3------0---0---------2---2-----|
Db|--------------0----------2-------------4----------|
Ab|--3-----------------------------------------------|


     C           D	    Em7
eb|--0000000-----2222222----0000000------------------|
Bb|--1111111-----3333333----3333333------------------|
Gb|--0000000-----2222222----0000000------------------|
Db|--2222222-----0000000----2222222------------------|
Ab|--3333333----------------2222222------------------|
Eb|-------------------------0000000------------------|
GTR II
  |-------------------------RIFF II------------------|
Habang ikay kapiling ko

ROGEM -> any suggestion and Comment txt 09103887102 send kyo ng Msj sa 
         Friendster Guitarizta_rogem@yahoo.com

|==========================================================================|
|==========================================================================|
|==========================================================================|

this is Gunita part of their new Album named Transit if you want the complete 
tabs of the Album just type in the "song name" inputbar "Transit"
 

"""makikita nyo naman name ko dun ehh qng sino gumawa"""
comments
print report bad tab
4 comments total. Showing first comments.
0 reply
elvin_000_guita wrote on January 3 2007, 04:45 am

Kuya..,,, wat a great tab..... tnx... dhil jan 5 stars p0h.... peo prang di gaanong kuha ung mga riff... peo pde n...

0 reply
Henyo_ako wrote on April 9 2007, 10:21 pm

To: Guitarizta_gem
kaw din nag ra rate mga tab mo. Ulol!!
kahit di pa sikat ng mga ibang kanta ng sponge cola antaas na ng rating ng mga tab mo. gawa mo rate mo!! GEt lost

0 reply
darkvin_25 wrote on May 27 2011, 09:52 am

"... kaw nga Laang din ng rarate ng mga tab mo
.... tsk, sa totoo Lng, d tugma tab mo ee
.... verse: c9-d-em (4x)d
.... chorus: c9-g (3x)am-bm-c-d-g
.... adlib: (just repeat verse)
.... yan lng chords nun! pauLit uLit
.... sa tingin q, mas better yan kesa sa tab mo
.... BTW, sorry for the bad comment

I want to post or [tab]
guest
You may want to rate the tab now too:
select rating
Please do not post tabs as comments. Select "correction" instead!